  0
SECTION
  2
HEADER
  9
$ACADVER
  1
AC1009
  9
$INSBASE
 10
0.0
 20
0.0
 30
0.0
  9
$EXTMIN
 10
0.0
 20
-2.960436562073669
 30
0.0
  9
$EXTMAX
 10
544.83854227130166
 20
440.5213537410869
 30
0.0
  9
$LIMMIN
 10
0.0
 20
0.0
  9
$LIMMAX
 10
187.5
 20
139.0
  9
$ORTHOMODE
 70
     0
  9
$REGENMODE
 70
     1
  9
$FILLMODE
 70
     1
  9
$QTEXTMODE
 70
     0
  9
$MIRRTEXT
 70
     0
  9
$DRAGMODE
 70
     2
  9
$LTSCALE
 40
4.0
  9
$OSMODE
 70
  3071
  9
$ATTMODE
 70
     1
  9
$TEXTSIZE
 40
0.2
  9
$TRACEWID
 40
0.05
  9
$TEXTSTYLE
  7
STANDARD
  9
$CLAYER
  8
0
  9
$CELTYPE
  6
BYLAYER
  9
$CECOLOR
 62
   256
  9
$DIMSCALE
 40
1.0
  9
$DIMASZ
 40
3.0
  9
$DIMEXO
 40
1.0
  9
$DIMDLI
 40
6.0
  9
$DIMRND
 40
0.0
  9
$DIMDLE
 40
0.0
  9
$DIMEXE
 40
1.0
  9
$DIMTP
 40
495.0
  9
$DIMTM
 40
0.0
  9
$DIMTXT
 40
3.0
  9
$DIMCEN
 40
0.0
  9
$DIMTSZ
 40
0.0
  9
$DIMTOL
 70
     0
  9
$DIMLIM
 70
     0
  9
$DIMTIH
 70
     0
  9
$DIMTOH
 70
     0
  9
$DIMSE1
 70
     0
  9
$DIMSE2
 70
     0
  9
$DIMTAD
 70
     1
  9
$DIMZIN
 70
     0
  9
$DIMBLK
  1

  9
$DIMASO
 70
     0
  9
$DIMSHO
 70
     0
  9
$DIMPOST
  1

  9
$DIMAPOST
  1

  9
$DIMALT
 70
     0
  9
$DIMALTD
 70
     2
  9
$DIMALTF
 40
25.399999999999999
  9
$DIMLFAC
 40
1.0
  9
$DIMTOFL
 70
     1
  9
$DIMTVP
 40
0.0
  9
$DIMTIX
 70
     1
  9
$DIMSOXD
 70
     0
  9
$DIMSAH
 70
     0
  9
$DIMBLK1
  1

  9
$DIMBLK2
  1

  9
$DIMSTYLE
  2
STANDARD
  9
$DIMCLRD
 70
     0
  9
$DIMCLRE
 70
     0
  9
$DIMCLRT
 70
     4
  9
$DIMTFAC
 40
1.0
  9
$DIMGAP
 40
1.0
  9
$LUNITS
 70
     2
  9
$LUPREC
 70
     4
  9
$SKETCHINC
 40
0.1
  9
$FILLETRAD
 40
0.0
  9
$AUNITS
 70
     0
  9
$AUPREC
 70
     0
  9
$MENU
  1
C:\R13\WIN\SUPPORT\ACAD-I
  9
$ELEVATION
 40
0.0
  9
$PELEVATION
 40
0.0
  9
$THICKNESS
 40
0.0
  9
$LIMCHECK
 70
     0
  9
$BLIPMODE
 70
     0
  9
$CHAMFERA
 40
0.0
  9
$CHAMFERB
 40
0.0
  9
$SKPOLY
 70
     0
  9
$TDCREATE
 40
2450837.486061343
  9
$TDUPDATE
 40
2456598.4953019791
  9
$TDINDWG
 40
0.0771533796
  9
$TDUSRTIMER
 40
0.0771533796
  9
$USRTIMER
 70
     1
  9
$ANGBASE
 50
0.0
  9
$ANGDIR
 70
     0
  9
$PDMODE
 70
     0
  9
$PDSIZE
 40
0.0
  9
$PLINEWID
 40
0.0
  9
$COORDS
 70
     1
  9
$SPLFRAME
 70
     0
  9
$SPLINETYPE
 70
     6
  9
$SPLINESEGS
 70
     8
  9
$ATTDIA
 70
     0
  9
$ATTREQ
 70
     1
  9
$HANDLING
 70
     1
  9
$HANDSEED
  5
FD1
  9
$SURFTAB1
 70
     6
  9
$SURFTAB2
 70
     6
  9
$SURFTYPE
 70
     6
  9
$SURFU
 70
     6
  9
$SURFV
 70
     6
  9
$UCSNAME
  2

  9
$UCSORG
 10
0.0
 20
0.0
 30
0.0
  9
$UCSXDIR
 10
1.0
 20
0.0
 30
0.0
  9
$UCSYDIR
 10
0.0
 20
1.0
 30
0.0
  9
$PUCSNAME
  2

  9
$PUCSORG
 10
0.0
 20
0.0
 30
0.0
  9
$PUCSXDIR
 10
1.0
 20
0.0
 30
0.0
  9
$PUCSYDIR
 10
0.0
 20
1.0
 30
0.0
  9
$USERI1
 70
     4
  9
$USERI2
 70
     1
  9
$USERI3
 70
     0
  9
$USERI4
 70
     0
  9
$USERI5
 70
     0
  9
$USERR1
 40
1.0
  9
$USERR2
 40
3.0
  9
$USERR3
 40
3.0
  9
$USERR4
 40
3.0
  9
$USERR5
 40
10.0
  9
$WORLDVIEW
 70
     1
  9
$SHADEDGE
 70
     3
  9
$SHADEDIF
 70
    70
  9
$TILEMODE
 70
     1
  9
$MAXACTVP
 70
    16
  9
$PLIMCHECK
 70
     0
  9
$PEXTMIN
 10
1.0000000000000000E+020
 20
1.0000000000000000E+020
 30
1.0000000000000000E+020
  9
$PEXTMAX
 10
-1.0000000000000000E+020
 20
-1.0000000000000000E+020
 30
-1.0000000000000000E+020
  9
$PLIMMIN
 10
0.0
 20
0.0
  9
$PLIMMAX
 10
12.0
 20
9.0
  9
$UNITMODE
 70
     0
  9
$VISRETAIN
 70
     0
  9
$PLINEGEN
 70
     0
  9
$PSLTSCALE
 70
     0
  0
ENDSEC
  0
SECTION
  2
TABLES
  0
TABLE
  2
VPORT
 70
     1
  0
VPORT
  2
*ACTIVE
 70
     0
 10
0.0
 20
0.0
 11
1.0
 21
1.0
 12
284.70834038429928
 22
218.78187696335311
 13
0.0
 23
0.0
 14
5.0
 24
5.0
 15
5.0
 25
5.0
 16
0.0
 26
0.0
 36
1.0
 17
0.0
 27
0.0
 37
0.0
 40
447.48347377448931
 41
1.831871345029239
 42
50.0
 43
0.0
 44
0.0
 50
0.0
 51
0.0
 71
     0
 72
   100
 73
     1
 74
     0
 75
     0
 76
     0
 77
     0
 78
     0
  0
ENDTAB
  0
TABLE
  2
LTYPE
 70
     5
  0
LTYPE
  2
CONTINUOUS
 70
     0
  3
Solid Line
 72
    65
 73
     0
 40
0.0
  0
LTYPE
  2
CENTER
 70
     0
  3
____ _ ____ _ ____ _ ____ _ ____ _ ____ _ ____
 72
    65
 73
     4
 40
2.0
 49
1.25
 49
-0.25
 49
0.25
 49
-0.25
  0
LTYPE
  2
AUSGEZOGEN
 70
     0
  3
Solid line
 72
    65
 73
     0
 40
0.0
  0
LTYPE
  2
HIDDEN
 70
     0
  3
__ __ __ __ __ __ __ __ __ __ __ __ __ __ __ __
 72
    65
 73
     2
 40
0.375
 49
0.25
 49
-0.125
  0
LTYPE
  2
PHANTOM2
 70
     0
  3
___ _ _ ___ _ _ ___ _ _ ___ _ _
 72
    65
 73
     6
 40
1.25
 49
0.625
 49
-0.125
 49
0.125
 49
-0.125
 49
0.125
 49
-0.125
  0
ENDTAB
  0
TABLE
  2
LAYER
 70
     6
  0
LAYER
  2
0
 70
     0
 62
     7
  6
CONTINUOUS
  0
LAYER
  2
1
 70
     0
 62
     1
  6
CENTER
  0
LAYER
  2
ITEM_50
 70
     0
 62
     7
  6
AUSGEZOGEN
  0
LAYER
  2
ITEM_HILFE
 70
     0
 62
     3
  6
AUSGEZOGEN
  0
LAYER
  2
2
 70
     0
 62
     2
  6
HIDDEN
  0
LAYER
  2
3
 70
     0
 62
     3
  6
CONTINUOUS
  0
ENDTAB
  0
TABLE
  2
STYLE
 70
     2
  0
STYLE
  2
STANDARD
 70
     0
 40
0.0
 41
1.0
 50
0.0
 71
     0
 42
0.2
  3
SIMPLEX
  4
BIGFONT
  0
STYLE
  2
STANDARD1
 70
     0
 40
0.0
 41
1.0
 50
0.0
 71
     0
 42
3.0
  3
txt
  4

  0
ENDTAB
  0
TABLE
  2
VIEW
 70
     0
  0
ENDTAB
  0
TABLE
  2
UCS
 70
     0
  0
ENDTAB
  0
TABLE
  2
APPID
 70
    46
  0
APPID
  2
ACAD
 70
     0
  0
APPID
  2
GENIUS_GENOBJ_13
 70
     0
  0
APPID
  2
GENIUS_GENODEF_13
 70
     0
  0
APPID
  2
GENIUS_GENOENT_13
 70
     0
  0
APPID
  2
GENIUS_GENOLIS_13
 70
     0
  0
APPID
  2
GENIUS_GENOREF_13
 70
     0
  0
APPID
  2
GENIUS_GENOBJ-N-TIT_13
 70
     0
  0
APPID
  2
GENIUS_GENTITLE_13
 70
     0
  0
APPID
  2
GENIUS_GENZVEED_13
 70
     0
  0
APPID
  2
GENIUS_GENOBJ-N-FIL_13
 70
     0
  0
APPID
  2
GENIUS_GENOBJ-N-CRS_13
 70
     0
  0
APPID
  2
GENIUS_GENOBJ-N-SEC_13
 70
     0
  0
APPID
  2
GENIUS_GENOBJ-N-LEADER_13
 70
     0
  0
APPID
  2
GENIUS_GENOBJ-N-ZOO_13
 70
     0
  0
APPID
  2
GENIUS_GENZOO_13
 70
     0
  0
APPID
  2
GENIUS_GENOBJ-N-REV_13
 70
     0
  0
APPID
  2
GENIUS_GENOBJ-N-RSSYM_13
 70
     0
  0
APPID
  2
GENIUS_GENSYMENT_13
 70
     0
  0
APPID
  2
GENIUS_GENBH_13
 70
     0
  0
APPID
  2
GENIUS_GENOBJ-NBEHI-BHF_13
 70
     0
  0
APPID
  2
GENIUS_GENOBJ-NBEHI-BHB_13
 70
     0
  0
APPID
  2
GENIUS_GENOBJ-F-PART_13
 70
     0
  0
APPID
  2
GENIUS_GEFSTDP_13
 70
     0
  0
APPID
  2
GENIUS_GEFINERT_13
 70
     0
  0
APPID
  2
GENIUS_GENOBJ-F-INER_13
 70
     0
  0
APPID
  2
GENIUS_GENOBJ-F-TOL_13
 70
     0
  0
APPID
  2
GENIUS_GENCFG_13
 70
     0
  0
APPID
  2
GENIUS_GEVCFG0_13
 70
     0
  0
APPID
  2
GENIUS_GENCFG0_13
 70
     0
  0
APPID
  2
GENIUS_GENCFG1_13
 70
     0
  0
APPID
  2
GENIUS_GENCFG2_13
 70
     0
  0
APPID
  2
GENIUS_GENCFG3_13
 70
     0
  0
APPID
  2
GENIUS_GENREC_13
 70
     0
  0
APPID
  2
GENIUS_GENOBJ-N-REC_13
 70
     0
  0
APPID
  2
GENIUS_GENOBJ-N-CEN_13
 70
     0
  0
APPID
  2
GEVIT
 70
     0
  0
APPID
  2
GENIUS_GENOBJ-F-ROD_13
 70
     0
  0
APPID
  2
GENIUS_GENOBJ-F-SPR_13
 70
     0
  0
APPID
  2
GENIUS_GEFSPRING_13
 70
     0
  0
APPID
  2
GENIUS_GENOBJ-N-FITL_13
 70
     0
  0
APPID
  2
GENIUS_GENFIL_13
 70
     0
  0
APPID
  2
GENIUS_GENOBJ-N-CHA_13
 70
     0
  0
APPID
  2
GENIUS_GENOBJ-F-EDG_13
 70
     0
  0
APPID
  2
GENIUS_GEFPARTINS_13
 70
     0
  0
APPID
  2
ACAD_MLEADERVER
 70
     0
  0
APPID
  2
ACAD_NAV_VCDISPLAY
 70
     0
  0
ENDTAB
  0
TABLE
  2
DIMSTYLE
 70
     1
  0
DIMSTYLE
  2
STANDARD
 70
     0
  3

  4

  5

  6

  7

 40
1.0
 41
0.18
 42
0.0625
 43
0.38
 44
0.18
 45
0.0
 46
0.0
 47
0.0
 48
0.0
140
0.18
141
0.09
142
0.0
143
25.399999999999999
144
1.0
145
0.0
146
1.0
147
0.09
 71
     0
 72
     0
 73
     1
 74
     1
 75
     0
 76
     0
 77
     0
 78
     0
170
     0
171
     2
172
     0
173
     0
174
     0
175
     0
176
     0
177
     0
178
     0
  0
ENDTAB
  0
ENDSEC
  0
SECTION
  2
BLOCKS
  0
BLOCK
  8
0
  2
$MODEL_SPACE
 70
     0
 10
0.0
 20
0.0
 30
0.0
  3
$MODEL_SPACE
  1

  0
ENDBLK
  5
E8C
  8
0
  0
BLOCK
 67
     1
  8
0
  2
$PAPER_SPACE
 70
     0
 10
0.0
 20
0.0
 30
0.0
  3
$PAPER_SPACE
  1

  0
ENDBLK
  5
E8A
 67
     1
  8
0
  0
BLOCK
  8
0
  2
STDGX5
 70
     0
 10
0.0
 20
0.0
 30
0.0
  3
STDGX5
  1

  0
ENDBLK
  5
4F
  8
0
  0
BLOCK
  8
0
  2
ACAD
 70
     0
 10
0.0
 20
0.0
 30
0.0
  3
ACAD
  1

  0
ENDBLK
  5
5B1
  8
0
  0
BLOCK
  8
0
  2
37346B
 70
     0
 10
0.0
 20
0.0
 30
0.0
  3
37346B
  1

  0
ENDBLK
  5
5B4
  8
0
  0
BLOCK
  8
0
  2
37390B
 70
     0
 10
0.0
 20
0.0
 30
0.0
  3
37390B
  1

  0
ENDBLK
  5
5B7
  8
0
  0
ENDSEC
  0
SECTION
  2
ENTITIES
  0
INSERT
  5
DE
  8
0
  2
STDGX5
 10
0.0
 20
0.0
 30
0.0
  0
INSERT
  5
DF
  8
0
  2
STDGX5
 10
0.0
 20
0.0
 30
0.0
  0
INSERT
  5
15C
  8
0
  2
STDGX5
 10
275.0
 20
0.0
 30
0.0
  0
INSERT
  5
15D
  8
0
  2
STDGX5
 10
275.0
 20
0.0
 30
0.0
  0
INSERT
  5
258
  8
0
  2
STDGX5
 10
0.0
 20
0.0
 30
0.0
 41
0.5
 42
0.5
 43
0.5
  0
INSERT
  5
259
  8
0
  2
STDGX5
 10
0.0
 20
0.0
 30
0.0
 41
0.5
 42
0.5
 43
0.5
  0
INSERT
  5
25A
  8
0
  2
STDGX5
 10
137.5
 20
0.0
 30
0.0
 41
0.5
 42
0.5
 43
0.5
  0
INSERT
  5
25B
  8
0
  2
STDGX5
 10
137.5
 20
0.0
 30
0.0
 41
0.5
 42
0.5
 43
0.5
  0
INSERT
  5
598
  8
0
  2
STDGX5
 10
0.0
 20
0.0
 30
0.0
 41
0.5
 42
0.5
 43
0.5
  0
INSERT
  5
599
  8
0
  2
STDGX5
 10
0.0
 20
0.0
 30
0.0
 41
0.5
 42
0.5
 43
0.5
  0
INSERT
  5
59A
  8
0
  2
STDGX5
 10
137.5
 20
0.0
 30
0.0
 41
0.5
 42
0.5
 43
0.5
  0
INSERT
  5
59B
  8
0
  2
STDGX5
 10
137.5
 20
0.0
 30
0.0
 41
0.5
 42
0.5
 43
0.5
  0
INSERT
  5
84C
  8
0
  2
ACAD
 10
-39.07825600000001
 20
-34.348043720650608
 30
0.0
  0
INSERT
  5
84D
  8
ITEM_HILFE
  2
ACAD
 10
144.12264200000001
 20
104.24832327934941
 30
0.0
  0
INSERT
  5
84E
  8
0
  2
ACAD
 10
340.68383799999992
 20
293.02934227934941
 30
0.0
  0
INSERT
  5
84F
  8
0
  2
37346B
 10
139.5211469999999
 20
-13.43960272065061
 30
0.0
  0
INSERT
  5
850
  8
0
  2
37390B
 10
139.5211469999999
 20
-13.43960272065061
 30
0.0
  0
INSERT
  5
851
  8
0
  2
37346B
 10
139.5211469999999
 20
-13.43960272065061
 30
0.0
  0
INSERT
  5
852
  8
0
  2
37390B
 10
139.5211469999999
 20
-13.43960272065061
 30
0.0
  0
INSERT
  5
853
  8
0
  2
37346B
 10
158.3057619999999
 20
394.23732027934938
 30
0.0
  0
INSERT
  5
854
  8
0
  2
37390B
 10
158.3057619999999
 20
394.23732027934938
 30
0.0
  0
INSERT
  5
855
  8
0
  2
37346B
 10
158.3057619999999
 20
394.23732027934938
 30
0.0
  0
INSERT
  5
856
  8
0
  2
37390B
 10
158.3057619999999
 20
394.23732027934938
 30
0.0
  0
INSERT
  5
857
  8
0
  2
37390B
 10
652.92548599999986
 20
304.72321327934941
 30
0.0
  0
INSERT
  5
858
  8
0
  2
STDGX5
 10
0.0
 20
-2.4514367206506051
 30
0.0
  0
INSERT
  5
859
  8
0
  2
STDGX5
 10
0.0
 20
-2.4514367206506051
 30
0.0
  0
INSERT
  5
85A
  8
0
  2
STDGX5
 10
275.0
 20
-2.4514367206506051
 30
0.0
  0
INSERT
  5
85B
  8
0
  2
STDGX5
 10
275.0
 20
-2.4514367206506051
 30
0.0
  0
INSERT
  5
90F
  8
0
  2
STDGX5
 10
0.0
 20
-2.4514367206506051
 30
0.0
 41
2.0
 42
2.0
 43
2.0
  0
INSERT
  5
910
  8
0
  2
STDGX5
 10
0.0
 20
-2.4514367206506051
 30
0.0
 41
2.0
 42
2.0
 43
2.0
  0
INSERT
  5
911
  8
0
  2
STDGX5
 10
550.0
 20
-2.4514367206506051
 30
0.0
 41
2.0
 42
2.0
 43
2.0
  0
INSERT
  5
912
  8
0
  2
STDGX5
 10
550.0
 20
-2.4514367206506051
 30
0.0
 41
2.0
 42
2.0
 43
2.0
  0
LINE
  5
B86
  8
0
 10
365.97162826631171
 20
321.5213537410869
 30
0.0
 11
369.97162826631057
 21
321.5213537410869
 31
0.0
  0
LINE
  5
B87
  8
2
 10
369.5716282663106
 20
389.02135374109457
 30
0.0
 11
369.5716282663106
 21
373.02135374109457
 31
0.0
  0
LINE
  5
B88
  8
2
 10
369.97162826631057
 20
389.02135374109457
 30
0.0
 11
369.97162826631057
 21
373.02135374109457
 31
0.0
  0
LINE
  5
B89
  8
2
 10
369.5716282663106
 20
389.02135374109457
 30
0.0
 11
365.5716282663106
 21
385.02135374109457
 31
0.0
  0
LINE
  5
B8A
  8
0
 10
369.97162826631057
 20
440.5213537410869
 30
0.0
 11
369.97162826631052
 21
321.5213537410869
 31
0.0
  0
LINE
  5
B8B
  8
1
 10
374.97162826631052
 20
381.02135374108832
 30
0.0
 11
338.47162826631012
 21
381.02135374108832
 31
0.0
  0
LINE
  5
B92
  8
1
 10
353.77162826631059
 20
336.0213537410869
 30
0.0
 11
379.7716282663107
 21
336.0213537410869
 31
0.0
  0
LINE
  5
BB3
  8
2
 10
354.73662826631062
 20
385.02135374109457
 30
0.0
 11
361.8216282663106
 21
385.02135374109457
 31
0.0
  0
LINE
  5
BB4
  8
2
 10
361.8216282663106
 20
384.2563537410947
 30
0.0
 11
353.97162826631057
 21
384.2563537410947
 31
0.0
  0
LINE
  5
BB5
  8
2
 10
354.73662826631062
 20
377.02135374109457
 30
0.0
 11
361.8216282663106
 21
377.02135374109457
 31
0.0
  0
LINE
  5
BB6
  8
2
 10
361.8216282663106
 20
377.78635374109462
 30
0.0
 11
353.97162826631057
 21
377.78635374109462
 31
0.0
  0
LINE
  5
BB7
  8
2
 10
354.73662826631062
 20
385.02135374109457
 30
0.0
 11
354.73662826631062
 21
377.02135374109457
 31
0.0
  0
LINE
  5
BB8
  8
2
 10
353.97162826631057
 20
377.78635374109462
 30
0.0
 11
353.97162826631057
 21
384.2563537410947
 31
0.0
  0
LINE
  5
BB9
  8
2
 10
353.97162826631057
 20
377.78635374109462
 30
0.0
 11
354.73662826631062
 21
377.02135374109457
 31
0.0
  0
LINE
  5
BBA
  8
2
 10
353.97162826631057
 20
384.2563537410947
 30
0.0
 11
354.73662826631062
 21
385.02135374109457
 31
0.0
  0
LINE
  5
BBB
  8
2
 10
369.5716282663106
 20
373.02135374109469
 30
0.0
 11
365.5716282663106
 21
377.02135374109457
 31
0.0
  0
LINE
  5
BBC
  8
2
 10
369.97162826631057
 20
373.02135374109457
 30
0.0
 11
369.5716282663106
 21
373.02135374109457
 31
0.0
  0
LINE
  5
BBE
  8
2
 10
366.47162826631057
 20
378.13135374109459
 30
0.0
 11
369.97162826631057
 21
378.13135374109459
 31
0.0
  0
LINE
  5
BBF
  8
2
 10
366.47162826631057
 20
383.91135374109462
 30
0.0
 11
369.97162826631057
 21
383.91135374109462
 31
0.0
  0
LINE
  5
BC0
  8
2
 10
366.47162826631057
 20
379.57635374109458
 30
0.0
 11
369.97162826631057
 21
379.57635374109458
 31
0.0
  0
LINE
  5
BC1
  8
2
 10
366.47162826631057
 20
382.46635374109462
 30
0.0
 11
369.97162826631057
 21
382.46635374109462
 31
0.0
  0
LINE
  5
BC3
  8
2
 10
366.47162826631057
 20
383.91135374109462
 30
0.0
 11
364.80308598835262
 21
381.02135374109457
 31
0.0
  0
LINE
  5
BC4
  8
2
 10
365.5716282663106
 20
385.02135374109457
 30
0.0
 11
365.5716282663106
 21
377.02135374109457
 31
0.0
  0
LINE
  5
BC5
  8
2
 10
361.8216282663106
 20
385.02135374109457
 30
0.0
 11
361.8216282663106
 21
377.02135374109457
 31
0.0
  0
LINE
  5
BC6
  8
2
 10
361.8216282663106
 20
377.02135374109457
 30
0.0
 11
364.9466282663106
 21
377.02135374109457
 31
0.0
  0
LINE
  5
BC7
  8
2
 10
364.9466282663106
 20
377.02135374109457
 30
0.0
 11
361.8216282663106
 21
377.78635374109462
 31
0.0
  0
LINE
  5
BC9
  8
2
 10
364.9466282663106
 20
377.02135374109457
 30
0.0
 11
365.5716282663106
 21
377.02135374109457
 31
0.0
  0
LINE
  5
BCA
  8
2
 10
366.47162826631057
 20
378.13135374109459
 30
0.0
 11
364.80308598835262
 21
381.02135374109457
 31
0.0
  0
LINE
  5
BCB
  8
2
 10
361.8216282663106
 20
385.02135374109457
 30
0.0
 11
364.9466282663106
 21
385.02135374109457
 31
0.0
  0
LINE
  5
BCC
  8
2
 10
364.9466282663106
 20
385.02135374109457
 30
0.0
 11
361.8216282663106
 21
384.2563537410947
 31
0.0
  0
LINE
  5
BCE
  8
2
 10
364.9466282663106
 20
385.02135374109457
 30
0.0
 11
365.5716282663106
 21
385.02135374109457
 31
0.0
  0
LINE
  5
BCF
  8
0
 10
374.77162826631059
 20
434.0213537410869
 30
0.0
 11
374.77162826631059
 21
418.0213537410869
 31
0.0
  0
LINE
  5
BD0
  8
0
 10
374.37162826631072
 20
434.0213537410869
 30
0.0
 11
374.37162826631072
 21
418.0213537410869
 31
0.0
  0
LINE
  5
BD1
  8
2
 10
366.62162826631072
 20
430.0213537410869
 30
0.0
 11
366.62162826631072
 21
422.0213537410869
 31
0.0
  0
LINE
  5
BD2
  8
0
 10
370.37162826631072
 20
430.0213537410869
 30
0.0
 11
370.37162826631072
 21
422.0213537410869
 31
0.0
  0
LINE
  5
BD3
  8
0
 10
358.7716282663107
 20
422.78635374108688
 30
0.0
 11
358.7716282663107
 21
429.25635374108691
 31
0.0
  0
LINE
  5
BD4
  8
0
 10
359.53662826631057
 20
430.0213537410869
 30
0.0
 11
359.53662826631057
 21
422.0213537410869
 31
0.0
  0
LINE
  5
BD5
  8
0
 10
365.97162826631109
 20
433.52885374108678
 30
0.0
 11
365.97162826631109
 21
418.51385374108679
 31
0.0
  0
LINE
  5
BD7
  8
0
 10
358.7716282663107
 20
422.78635374108688
 30
0.0
 11
359.53662826631057
 21
422.0213537410869
 31
0.0
  0
LINE
  5
BD8
  8
2
 10
366.62162826631072
 20
422.78635374108688
 30
0.0
 11
361.47163156666232
 21
422.78635374108688
 31
0.0
  0
LINE
  5
BDB
  8
1
 10
353.77162826631059
 20
426.02135374108701
 30
0.0
 11
379.7716282663107
 21
426.0213537410869
 31
0.0
  0
LINE
  5
BDC
  8
2
 10
369.5716282663106
 20
389.02135374109457
 30
0.0
 11
369.97162826631057
 21
389.02135374109457
 31
0.0
  0
LINE
  5
BDD
  8
2
 10
369.74662826631072
 20
422.0213537410869
 30
0.0
 11
366.62162826631072
 21
422.78635374108688
 31
0.0
  0
LINE
  5
BDE
  8
2
 10
366.62162826631072
 20
422.0213537410869
 30
0.0
 11
369.74662826631072
 21
422.0213537410869
 31
0.0
  0
LINE
  5
BDF
  8
2
 10
365.97162826631171
 20
421.02135374108678
 30
0.0
 11
369.97162826631057
 21
421.02135374108678
 31
0.0
  0
LINE
  5
BE0
  8
2
 10
361.47163156666232
 20
422.0213537410869
 30
0.0
 11
366.62162826631072
 21
422.0213537410869
 31
0.0
  0
LINE
  5
BE1
  8
0
 10
374.37162826631072
 20
418.0213537410869
 30
0.0
 11
370.37162826631072
 21
422.0213537410869
 31
0.0
  0
LINE
  5
BE2
  8
0
 10
369.74662826631072
 20
422.0213537410869
 30
0.0
 11
370.37162826631072
 21
422.0213537410869
 31
0.0
  0
LINE
  5
BE3
  8
0
 10
374.77162826631059
 20
418.0213537410869
 30
0.0
 11
374.37162826631072
 21
418.0213537410869
 31
0.0
  0
LINE
  5
BE5
  8
2
 10
371.2716282663107
 20
427.46635374108689
 30
0.0
 11
374.77162826631059
 21
427.46635374108689
 31
0.0
  0
LINE
  5
BE6
  8
2
 10
371.2716282663107
 20
428.91135374108688
 30
0.0
 11
374.77162826631059
 21
428.91135374108688
 31
0.0
  0
LINE
  5
BE7
  8
2
 10
371.2716282663107
 20
424.57635374108679
 30
0.0
 11
374.77162826631059
 21
424.57635374108679
 31
0.0
  0
LINE
  5
BE8
  8
2
 10
371.2716282663107
 20
423.13135374108691
 30
0.0
 11
374.77162826631059
 21
423.13135374108691
 31
0.0
  0
LINE
  5
BE9
  8
2
 10
371.2716282663107
 20
423.13135374108691
 30
0.0
 11
369.60308598835257
 21
426.0213537410869
 31
0.0
  0
LINE
  5
BEA
  8
2
 10
371.2716282663107
 20
428.91135374108688
 30
0.0
 11
369.60308598835257
 21
426.0213537410869
 31
0.0
  0
LINE
  5
BEB
  8
2
 10
371.2716282663107
 20
428.91135374108688
 30
0.0
 11
371.2716282663107
 21
423.13135374108691
 31
0.0
  0
LINE
  5
BEC
  8
0
 10
358.7716282663107
 20
429.25635374108691
 30
0.0
 11
359.53662826631057
 21
430.0213537410869
 31
0.0
  0
LINE
  5
BED
  8
2
 10
366.62162826631072
 20
429.25635374108691
 30
0.0
 11
361.47163156666232
 21
429.25635374108691
 31
0.0
  0
LINE
  5
BF0
  8
2
 10
369.74662826631072
 20
430.0213537410869
 30
0.0
 11
366.62162826631072
 21
429.25635374108691
 31
0.0
  0
LINE
  5
BF1
  8
2
 10
366.62162826631072
 20
430.0213537410869
 30
0.0
 11
369.74662826631072
 21
430.0213537410869
 31
0.0
  0
LINE
  5
BF2
  8
2
 10
369.97162826631057
 20
431.02135374108678
 30
0.0
 11
365.97162826631171
 21
431.02135374108678
 31
0.0
  0
LINE
  5
BF3
  8
2
 10
361.47163156666232
 20
430.0213537410869
 30
0.0
 11
366.62162826631072
 21
430.0213537410869
 31
0.0
  0
LINE
  5
BF4
  8
0
 10
374.37162826631072
 20
434.0213537410869
 30
0.0
 11
370.37162826631072
 21
430.0213537410869
 31
0.0
  0
LINE
  5
BF5
  8
0
 10
369.74662826631072
 20
430.0213537410869
 30
0.0
 11
370.37162826631072
 21
430.0213537410869
 31
0.0
  0
LINE
  5
BF6
  8
0
 10
374.37162826631072
 20
434.0213537410869
 30
0.0
 11
374.77162826631059
 21
434.0213537410869
 31
0.0
  0
LINE
  5
BF7
  8
0
 10
365.97162826631171
 20
440.5213537410869
 30
0.0
 11
369.97162826631057
 21
440.5213537410869
 31
0.0
  0
LINE
  5
BF8
  8
0
 10
365.97162826631171
 20
440.5213537410869
 30
0.0
 11
365.97162826631171
 21
321.5213537410869
 31
0.0
  0
LINE
  5
BF9
  8
0
 10
294.538639377707
 20
255.0210095338216
 30
0.0
 11
294.538639377707
 21
227.0210095338216
 31
0.0
  0
LINE
  5
BFA
  8
0
 10
262.94473190237068
 20
227.02100953382461
 30
0.0
 11
294.538639377707
 21
227.02100953383251
 31
0.0
  0
LINE
  5
BFB
  8
ITEM_50
 10
262.43845689518753
 20
255.0210095338243
 30
0.0
 11
294.538639377707
 21
255.0210095338216
 31
0.0
  0
LINE
  5
BFC
  8
0
 10
207.26757286268389
 20
255.02100953382211
 30
0.0
 11
175.538639377707
 21
255.0210095338216
 31
0.0
  0
LINE
  5
BFD
  8
0
 10
206.7744553175402
 20
227.0210095338218
 30
0.0
 11
175.538639377707
 21
227.02100953382251
 31
0.0
  0
LINE
  5
BFE
  8
0
 10
175.538639377707
 20
255.0210095338216
 30
0.0
 11
175.538639377707
 21
227.0210095338216
 31
0.0
  0
LINE
  5
BFF
  8
0
 10
485.33854227130161
 20
255.02302575281831
 30
0.0
 11
425.83854227130172
 21
255.02302575281831
 31
0.0
  0
LINE
  5
C00
  8
0
 10
485.33854227130161
 20
227.02302575281831
 30
0.0
 11
425.83854227130172
 21
227.02302575281831
 31
0.0
  0
LINE
  5
C01
  8
0
 10
425.83854227130172
 20
255.02302575281831
 30
0.0
 11
425.83854227130172
 21
227.02302575281831
 31
0.0
  0
LINE
  5
C02
  8
0
 10
544.83854227130166
 20
255.02302575281831
 30
0.0
 11
544.83854227130166
 21
227.02302575281831
 31
0.0
  0
LINE
  5
C03
  8
0
 10
485.33854227130161
 20
255.02302575281831
 30
0.0
 11
544.83854227130166
 21
255.02302575281831
 31
0.0
  0
LINE
  5
C04
  8
0
 10
485.33854227130161
 20
227.02302575281831
 30
0.0
 11
544.83854227130166
 21
227.02302575281831
 31
0.0
  0
LINE
  5
C06
  8
1
 10
380.83863937604121
 20
240.5216513243316
 30
0.0
 11
339.538639377707
 21
240.52100953375549
 31
0.0
  0
LINE
  5
C07
  8
1
 10
380.83862383631788
 20
241.5216513242116
 30
0.0
 11
354.83862383945723
 21
241.5212472914034
 31
0.0
  0
LINE
  5
C08
  8
0
 10
375.8387481547087
 20
233.52157362656061
 30
0.0
 11
375.83849951913447
 21
249.52157362462879
 31
0.0
  0
LINE
  5
C09
  8
0
 10
371.43868599634652
 20
237.5215052512948
 30
0.0
 11
371.43856167855932
 21
245.5215052503288
 31
0.0
  0
LINE
  5
C0A
  8
2
 10
372.33866874714471
 20
238.6315192369118
 30
0.0
 11
372.33857892754361
 21
244.41151923621391
 31
0.0
  0
LINE
  5
C0D
  8
0
 10
375.43874815475709
 20
233.5215674106712
 30
0.0
 11
375.4384995191827
 21
249.5215674087394
 31
0.0
  0
LINE
  5
C10
  8
0
 10
371.0388491634958
 20
227.02149903667319
 30
0.0
 11
371.0384140512399
 21
255.0214990332924
 31
0.0
  0
LINE
  5
C11
  8
2
 10
372.33857892754361
 20
244.41151923621391
 30
0.0
 11
370.67008155958757
 21
241.52149330787731
 31
0.0
  0
LINE
  5
C13
  8
2
 10
367.68868599679922
 20
237.521446977332
 30
0.0
 11
367.68856167901203
 21
245.52144697636609
 31
0.0
  0
LINE
  5
C15
  8
0
 10
367.03884916301041
 20
227.0214990078548
 30
0.0
 11
367.03841405171801
 21
255.02143687439809
 31
0.0
  0
LINE
  5
C19
  8
0
 10
360.60368599765468
 20
237.52133687839179
 30
0.0
 11
360.6035616798676
 21
245.5213368774258
 31
0.0
  0
LINE
  5
C1A
  8
0
 10
359.8385735678483
 20
244.7563249896298
 30
0.0
 11
359.83867410985857
 21
238.286324990411
 31
0.0
  0
LINE
  5
C22
  8
2
 10
362.53893074698613
 20
237.52136695155991
 30
0.0
 11
367.68868599679922
 21
237.521446977332
 31
0.0
  0
LINE
  5
C23
  8
2
 10
367.68867410891079
 20
238.28644697723971
 30
0.0
 11
362.5389307469863
 21
238.2863669516523
 31
0.0
  0
LINE
  5
C29
  8
0
 10
359.83867410985857
 20
238.286324990411
 30
0.0
 11
360.60368599765468
 21
237.52133687839179
 31
0.0
  0
LINE
  5
C2A
  8
0
 10
375.43874815475709
 20
233.5215674106712
 30
0.0
 11
371.43868599634652
 21
237.5215052512948
 31
0.0
  0
LINE
  5
C2F
  8
0
 10
375.43874815475709
 20
233.5215674106712
 30
0.0
 11
375.8387481547087
 21
233.52157362656061
 31
0.0
  0
LINE
  5
C31
  8
2
 10
372.33866874714471
 20
238.6315192369118
 30
0.0
 11
370.67008155958757
 21
241.52149330787731
 31
0.0
  0
LINE
  5
C33
  8
0
 10
370.8136859964219
 20
237.5214955389676
 30
0.0
 11
371.43868599634652
 21
237.5215052512948
 31
0.0
  0
LINE
  5
C34
  8
2
 10
370.8136859964219
 20
237.5214955389676
 30
0.0
 11
367.68867410891079
 21
238.28644697723971
 31
0.0
  0
LINE
  5
C35
  8
2
 10
367.68868599679922
 20
237.521446977332
 30
0.0
 11
370.8136859964219
 21
237.5214955389676
 31
0.0
  0
LINE
  5
C3A
  8
2
 10
372.33866874714471
 20
238.6315192369118
 30
0.0
 11
375.83866874672219
 21
238.6315736259437
 31
0.0
  0
LINE
  5
C3B
  8
2
 10
372.3386462922445
 20
240.07651923673731
 30
0.0
 11
375.83864629182187
 21
240.07657362576921
 31
0.0
  0
LINE
  5
C40
  8
2
 10
362.5389307469863
 20
245.5213669525258
 30
0.0
 11
367.68856167901203
 21
245.52144697636609
 31
0.0
  0
LINE
  5
C41
  8
2
 10
367.6885735669004
 20
244.75644697645839
 30
0.0
 11
362.5389307469863
 21
244.7563669524335
 31
0.0
  0
LINE
  5
C42
  8
0
 10
359.8385735678483
 20
244.7563249896298
 30
0.0
 11
360.6035616798676
 21
245.5213368774258
 31
0.0
  0
LINE
  5
C45
  8
0
 10
375.4384995191827
 20
249.5215674087394
 30
0.0
 11
371.43856167855921
 21
245.52150525032869
 31
0.0
  0
LINE
  5
C47
  8
0
 10
370.81356167863481
 20
245.52149553800169
 30
0.0
 11
371.43856167855932
 21
245.5215052503288
 31
0.0
  0
LINE
  5
C4A
  8
2
 10
370.81356167863481
 20
245.52149553800169
 30
0.0
 11
367.6885735669004
 21
244.75644697645839
 31
0.0
  0
LINE
  5
C4B
  8
2
 10
367.68856167901203
 20
245.52144697636609
 30
0.0
 11
370.81356167863481
 21
245.52149553800169
 31
0.0
  0
LINE
  5
C4F
  8
2
 10
372.33857892754361
 20
244.41151923621391
 30
0.0
 11
375.83857892712098
 21
244.41157362524581
 31
0.0
  0
LINE
  5
C50
  8
2
 10
372.33860138244393
 20
242.96651923638839
 30
0.0
 11
375.8386013820213
 21
242.96657362542021
 31
0.0
  0
LINE
  5
C52
  8
0
 10
375.83849951913447
 20
249.52157362462879
 30
0.0
 11
375.4384995191827
 21
249.5215674087394
 31
0.0
  0
LINE
  5
C53
  8
0
 10
367.03841405171943
 20
255.02143687439809
 30
0.0
 11
367.76967696643442
 21
255.02144823802161
 31
0.0
  0
LINE
  5
C54
  8
0
 10
367.03841405171801
 20
255.02143687439809
 30
0.0
 11
367.53841405165753
 21
255.0214446442599
 31
0.0
  0
LINE
  5
C55
  8
0
 10
367.76967696643442
 20
255.02144823802161
 30
0.0
 11
371.03655959941722
 21
255.0214990044733
 31
0.0
  0
LINE
  5
C6E
  8
0
 10
344.27162826631007
 20
390.02135374108849
 30
0.0
 11
344.27162826631007
 21
372.02135374109741
 31
0.0
  0
LINE
  5
C6F
  8
0
 10
345.97162826631029
 20
381.02135374108849
 30
0.0
 11
345.97162826631012
 21
390.02135374108838
 31
0.0
1001
GENIUS_GENOREF_13
1005
0
  0
LINE
  5
C70
  8
0
 10
343.47162826631012
 20
389.22135374107938
 30
0.0
 11
344.27162826631007
 21
390.02135374107939
 31
0.0
1001
GENIUS_GENODEF_13
1002
{
1000
HIER
1070
     0
1002
}
1002
{
1000
MANEDIT
1070
     0
1002
}
1002
{
1000
NOSEL
1070
     0
1002
}
1002
{
1000
BEHIND
1070
     0
1002
}
1002
{
1000
REACTOR
1002
}
1001
GENIUS_GENOBJ-N-CHA_13
1002
{
1000
OWNER
1000
GEN
1002
}
1001
GENIUS_GENFIL_13
1070
     0
1040
0.5
1040
0.5
1040
0.0
1040
0.0
1002
{
1002
}
  0
LINE
  5
C71
  8
0
 10
344.27162826631928
 20
390.02135374108849
 30
0.0
 11
345.97162826631012
 21
390.02135374108849
 31
0.0
  0
LINE
  5
C74
  8
0
 10
343.47162826631012
 20
389.22135374107938
 30
0.0
 11
343.47162826631012
 21
372.8213537410976
 31
0.0
  0
LINE
  5
C75
  8
2
 10
365.47162826630392
 20
387.52135374108849
 30
0.0
 11
346.67873504749679
 21
387.52135374108798
 31
0.0
1001
GENIUS_GENODEF_13
1002
{
1000
HIER
1070
     0
1002
}
1002
{
1000
MANEDIT
1070
     0
1002
}
1002
{
1000
NOSEL
1070
     0
1002
}
1002
{
1000
BEHIND
1070
     0
1002
}
1002
{
1000
REACTOR
1002
}
1001
GENIUS_GENOBJ-N-CEN_13
1002
{
1000
OWNER
1000
GEN
1002
}
1001
GENIUS_GENOREF_13
1005
0
  0
CIRCLE
  5
C77
  8
0
 10
235.03863937769879
 20
240.52100953375549
 30
0.0
 40
30.99999999989814
  0
LINE
  5
C7C
  8
1
 10
357.04141717120979
 20
276.5213537410869
 30
0.0
 11
357.04141717116499
 21
204.52135374128369
 31
0.0
1001
GENIUS_GENODEF_13
1002
{
1000
HIER
1070
     0
1002
}
1002
{
1000
MANEDIT
1070
     0
1002
}
1002
{
1000
NOSEL
1070
     0
1002
}
1002
{
1000
BEHIND
1070
     0
1002
}
1002
{
1000
REACTOR
1002
}
1001
GENIUS_GENOBJ-N-CEN_13
1002
{
1000
OWNER
1000
GEN
1002
}
  0
LINE
  5
C7E
  8
0
 10
347.04327162308329
 20
231.02135374121809
 30
0.0
 11
347.04327162307891
 21
250.02135374118711
 31
0.0
  0
LINE
  5
C7F
  8
2
 10
357.04141717120717
 20
247.02135374118609
 30
0.0
 11
347.54327162307948
 21
247.02135374118811
 31
0.0
1001
GENIUS_GEFPARTINS_13
1002
{
1011
371.03956271928558
1021
0.0
1031
0.0
1021
242.02135374118319
1031
0.0
1013
-1.0
1023
0.0
1033
0.0
1023
0.0000000000001844
1033
0.0
1002
}
  0
LINE
  5
C80
  8
2
 10
347.54327162307948
 20
247.02135374118811
 30
0.0
 11
347.04327162307948
 21
247.52135374118811
 31
0.0
1001
GENIUS_GENODEF_13
1002
{
1000
HIER
1070
     0
1002
}
1002
{
1000
MANEDIT
1070
     0
1002
}
1002
{
1000
NOSEL
1070
     0
1002
}
1002
{
1000
BEHIND
1070
     0
1002
}
1002
{
1000
REACTOR
1002
}
1001
GENIUS_GENOBJ-N-CHA_13
1002
{
1000
OWNER
1000
GEN
1002
}
1001
GENIUS_GENFIL_13
1070
     0
1040
0.5
1040
0.5
1040
0.0
1040
0.0
1002
{
1002
}
  0
LINE
  5
C81
  8
0
 10
348.0258192166711
 20
251.02120143634369
 30
0.0
 11
351.54141717124321
 21
251.10905365718469
 31
0.0
  0
ARC
  5
C82
  8
0
 10
348.04327162310858
 20
250.02135374115619
 30
0.0
 40
1.0
 50
90.999999999988745
 51
179.9999999982347
1001
GENIUS_GENODEF_13
1002
{
1000
HIER
1070
     0
1002
}
1002
{
1000
MANEDIT
1070
     0
1002
}
1002
{
1000
NOSEL
1070
     0
1002
}
1002
{
1000
BEHIND
1070
     0
1002
}
1002
{
1000
REACTOR
1002
}
1001
GENIUS_GENOBJ-N-FIL_13
1002
{
1000
OWNER
1000
GEN
1002
}
  0
LINE
  5
C84
  8
0
 10
367.03956271933328
 20
240.52135374118771
 30
0.0
 11
367.03956271933538
 21
250.0213537411839
 31
0.0
  0
LINE
  5
C85
  8
2
 10
366.53956271933492
 20
247.02135374118831
 30
0.0
 11
367.03956271933492
 21
247.52135374118831
 31
0.0
1001
GENIUS_GENODEF_13
1002
{
1000
HIER
1070
     0
1002
}
1002
{
1000
MANEDIT
1070
     0
1002
}
1002
{
1000
NOSEL
1070
     0
1002
}
1002
{
1000
BEHIND
1070
     0
1002
}
1002
{
1000
REACTOR
1002
}
1001
GENIUS_GENOBJ-N-CHA_13
1002
{
1000
OWNER
1000
GEN
1002
}
1001
GENIUS_GENFIL_13
1070
     0
1040
0.5
1040
0.5
1040
0.0
1040
0.0
1002
{
1002
}
  0
ARC
  5
C86
  8
0
 10
366.0395627192778
 20
250.02135374114499
 30
0.0
 40
1.0
 50
0.0000000016935818
 51
88.999999999939575
1001
GENIUS_GENODEF_13
1002
{
1000
HIER
1070
     0
1002
}
1002
{
1000
MANEDIT
1070
     0
1002
}
1002
{
1000
NOSEL
1070
     0
1002
}
1002
{
1000
BEHIND
1070
     0
1002
}
1002
{
1000
REACTOR
1002
}
1001
GENIUS_GENOBJ-N-FIL_13
1002
{
1000
OWNER
1000
GEN
1002
}
  0
LINE
  5
C87
  8
0
 10
366.05701512571682
 20
251.0212014363324
 30
0.0
 11
362.5414171711447
 21
251.10905365717781
 31
0.0
  0
LINE
  5
C89
  8
0
 10
355.04141717128931
 20
271.5213537410869
 30
0.0
 11
359.04141717111992
 21
271.5213537410869
 31
0.0
  0
ARC
  5
C8A
  8
0
 10
355.04141717128931
 20
268.0213537410869
 30
0.0
 40
3.5
 50
90.0
 51
179.9999999998445
1001
GENIUS_GENODEF_13
1002
{
1000
HIER
1070
     0
1002
}
1002
{
1000
MANEDIT
1070
     0
1002
}
1002
{
1000
NOSEL
1070
     0
1002
}
1002
{
1000
BEHIND
1070
     0
1002
}
1002
{
1000
REACTOR
1002
}
1001
GENIUS_GENOBJ-N-FIL_13
1002
{
1000
OWNER
1000
GEN
1002
}
  0
ARC
  5
C8E
  8
0
 10
359.04141717111992
 20
268.0213537410869
 30
0.0
 40
3.5
 50
0.0000000000838649
 51
90.0
1001
GENIUS_GENODEF_13
1002
{
1000
HIER
1070
     0
1002
}
1002
{
1000
MANEDIT
1070
     0
1002
}
1002
{
1000
NOSEL
1070
     0
1002
}
1002
{
1000
BEHIND
1070
     0
1002
}
1002
{
1000
REACTOR
1002
}
1001
GENIUS_GENOBJ-N-FIL_13
1002
{
1000
OWNER
1000
GEN
1002
}
  0
CIRCLE
  5
C92
  8
0
 10
235.03863937769879
 20
240.52100953375549
 30
0.0
 40
24.5
  0
LINE
  5
C97
  8
2
 10
365.47162826631018
 20
374.52135374108832
 30
0.0
 11
346.67873504749679
 21
374.52135374108872
 31
0.0
1001
GENIUS_GENODEF_13
1002
{
1000
HIER
1070
     0
1002
}
1002
{
1000
MANEDIT
1070
     0
1002
}
1002
{
1000
NOSEL
1070
     0
1002
}
1002
{
1000
BEHIND
1070
     0
1002
}
1002
{
1000
REACTOR
1002
}
1001
GENIUS_GENOBJ-N-CEN_13
1002
{
1000
OWNER
1000
GEN
1002
}
1001
GENIUS_GENOREF_13
1005
0
  0
LINE
  5
C9B
  8
0
 10
344.27162826631928
 20
372.02135374108832
 30
0.0
 11
345.97162826631012
 21
372.02135374108832
 31
0.0
  0
LINE
  5
C9C
  8
0
 10
343.47162826631012
 20
372.82135374109743
 30
0.0
 11
344.27162826631007
 21
372.02135374109741
 31
0.0
1001
GENIUS_GENODEF_13
1002
{
1000
HIER
1070
     0
1002
}
1002
{
1000
MANEDIT
1070
     0
1002
}
1002
{
1000
NOSEL
1070
     0
1002
}
1002
{
1000
BEHIND
1070
     0
1002
}
1002
{
1000
REACTOR
1002
}
1001
GENIUS_GENOBJ-N-CHA_13
1002
{
1000
OWNER
1000
GEN
1002
}
1001
GENIUS_GENFIL_13
1070
     0
1040
0.5
1040
0.5
1040
0.0
1040
0.0
1002
{
1002
}
  0
LINE
  5
CA5
  8
2
 10
366.53956271933208
 20
234.0213537411783
 30
0.0
 11
367.03956271933203
 21
233.5213537411779
 31
0.0
1001
GENIUS_GENODEF_13
1002
{
1000
HIER
1070
     0
1002
}
1002
{
1000
MANEDIT
1070
     0
1002
}
1002
{
1000
NOSEL
1070
     0
1002
}
1002
{
1000
BEHIND
1070
     0
1002
}
1002
{
1000
REACTOR
1002
}
1001
GENIUS_GENOBJ-N-CHA_13
1002
{
1000
OWNER
1000
GEN
1002
}
1001
GENIUS_GENFIL_13
1070
     0
1040
0.5
1040
0.5
1040
0.0
1040
0.0
1002
{
1002
}
  0
ARC
  5
CA6
  8
0
 10
366.03956271927382
 20
231.02135374122179
 30
0.0
 40
1.0
 50
271.0000000000357
 51
359.99999999828168
1001
GENIUS_GENODEF_13
1002
{
1000
HIER
1070
     0
1002
}
1002
{
1000
MANEDIT
1070
     0
1002
}
1002
{
1000
NOSEL
1070
     0
1002
}
1002
{
1000
BEHIND
1070
     0
1002
}
1002
{
1000
REACTOR
1002
}
1001
GENIUS_GENOBJ-N-FIL_13
1002
{
1000
OWNER
1000
GEN
1002
}
  0
ARC
  5
CA7
  8
0
 10
348.04327162310449
 20
231.02135374121829
 30
0.0
 40
1.0
 50
180.00000000174049
 51
268.99999999998658
1001
GENIUS_GENODEF_13
1002
{
1000
HIER
1070
     0
1002
}
1002
{
1000
MANEDIT
1070
     0
1002
}
1002
{
1000
NOSEL
1070
     0
1002
}
1002
{
1000
BEHIND
1070
     0
1002
}
1002
{
1000
REACTOR
1002
}
1001
GENIUS_GENOBJ-N-FIL_13
1002
{
1000
OWNER
1000
GEN
1002
}
  0
LINE
  5
CA8
  8
2
 10
357.04141717120439
 20
234.02135374118461
 30
0.0
 11
347.54327162307681
 21
234.02135374118669
 31
0.0
1001
GENIUS_GEFPARTINS_13
1002
{
1011
371.03956271928502
1021
0.0
1031
0.0
1021
239.0213537411814
1031
0.0
1013
-1.0
1023
0.0
1033
0.0
1023
0.0000000000002463
1033
0.0
1002
}
  0
LINE
  5
CAA
  8
2
 10
347.54327162307681
 20
234.02135374118669
 30
0.0
 11
347.04327162307652
 21
233.5213537411868
 31
0.0
1001
GENIUS_GENODEF_13
1002
{
1000
HIER
1070
     0
1002
}
1002
{
1000
MANEDIT
1070
     0
1002
}
1002
{
1000
NOSEL
1070
     0
1002
}
1002
{
1000
BEHIND
1070
     0
1002
}
1002
{
1000
REACTOR
1002
}
1001
GENIUS_GENOBJ-N-CHA_13
1002
{
1000
OWNER
1000
GEN
1002
}
1001
GENIUS_GENFIL_13
1070
     0
1040
0.5
1040
0.5
1040
0.0
1040
0.0
1002
{
1002
}
  0
LINE
  5
CAB
  8
2
 10
357.04141717120439
 20
234.02135374118461
 30
0.0
 11
366.53956271933208
 21
234.0213537411783
 31
0.0
1001
GENIUS_GEFPARTINS_13
1002
{
1011
338.04327162312819
1021
0.0
1031
0.0
1021
239.0213537411959
1031
0.0
1013
1.0
1023
0.0
1033
0.0
1023
-0.0000000000006386
1033
0.0
1002
}
  0
LINE
  5
CB1
  8
0
 10
348.0258192166666
 20
230.02150604603079
 30
0.0
 11
351.54141717123861
 21
229.93365382518829
 31
0.0
  0
LINE
  5
CB5
  8
0
 10
366.05701512571221
 20
230.0215060460344
 30
0.0
 11
362.54141717114021
 21
229.9336538251905
 31
0.0
  0
LINE
  5
CB6
  8
0
 10
355.0414171712759
 20
209.5213537412846
 30
0.0
 11
359.0414171711065
 21
209.52135374128289
 31
0.0
  0
ARC
  5
CB7
  8
0
 10
355.04141717127737
 20
213.0213537412846
 30
0.0
 40
3.5
 50
180.0000000001308
 51
269.99999999997539
1001
GENIUS_GENODEF_13
1002
{
1000
HIER
1070
     0
1002
}
1002
{
1000
MANEDIT
1070
     0
1002
}
1002
{
1000
NOSEL
1070
     0
1002
}
1002
{
1000
BEHIND
1070
     0
1002
}
1002
{
1000
REACTOR
1002
}
1001
GENIUS_GENOBJ-N-FIL_13
1002
{
1000
OWNER
1000
GEN
1002
}
  0
ARC
  5
CBB
  8
0
 10
359.04141717110809
 20
213.02135374128289
 30
0.0
 40
3.5
 50
269.99999999997539
 51
359.99999999989137
1001
GENIUS_GENODEF_13
1002
{
1000
HIER
1070
     0
1002
}
1002
{
1000
MANEDIT
1070
     0
1002
}
1002
{
1000
NOSEL
1070
     0
1002
}
1002
{
1000
BEHIND
1070
     0
1002
}
1002
{
1000
REACTOR
1002
}
1001
GENIUS_GENOBJ-N-FIL_13
1002
{
1000
OWNER
1000
GEN
1002
}
  0
LINE
  5
CBF
  8
0
 10
367.03956271933328
 20
240.52135374117859
 30
0.0
 11
367.03956271933129
 21
231.02135374118251
 31
0.0
  0
LINE
  5
CC0
  8
2
 10
347.54327162307948
 20
247.02135374118811
 30
0.0
 11
347.54327162307681
 21
234.02135374118669
 31
0.0
  0
LINE
  5
CC1
  8
2
 10
366.53956271933492
 20
247.02135374118831
 30
0.0
 11
366.53956271932628
 21
234.0213537411783
 31
0.0
  0
LINE
  5
CC4
  8
0
 10
367.03884916301041
 20
227.0214990078548
 30
0.0
 11
371.03699471167062
 21
227.0214990078548
 31
0.0
  0
ARC
  5
CC6
  8
0
 10
364.9716282662522
 20
371.52135374113158
 30
0.0
 40
1.0
 50
271.0000000000357
 51
359.99999999828168
1001
GENIUS_GENODEF_13
1002
{
1000
HIER
1070
     0
1002
}
1002
{
1000
MANEDIT
1070
     0
1002
}
1002
{
1000
NOSEL
1070
     0
1002
}
1002
{
1000
BEHIND
1070
     0
1002
}
1002
{
1000
REACTOR
1002
}
1001
GENIUS_GENOBJ-N-FIL_13
1002
{
1000
OWNER
1000
GEN
1002
}
  0
LINE
  5
CC7
  8
2
 10
365.4716282663104
 20
374.52135374108798
 30
0.0
 11
365.97162826631052
 21
374.02135374108769
 31
0.0
1001
GENIUS_GENODEF_13
1002
{
1000
HIER
1070
     0
1002
}
1002
{
1000
MANEDIT
1070
     0
1002
}
1002
{
1000
NOSEL
1070
     0
1002
}
1002
{
1000
BEHIND
1070
     0
1002
}
1002
{
1000
REACTOR
1002
}
1001
GENIUS_GENOBJ-N-CHA_13
1002
{
1000
OWNER
1000
GEN
1002
}
1001
GENIUS_GENFIL_13
1070
     0
1040
0.5
1040
0.5
1040
0.0
1040
0.0
1002
{
1002
}
  0
LINE
  5
CC8
  8
2
 10
365.4716282663133
 20
387.52135374109798
 30
0.0
 11
365.97162826631342
 21
388.0213537410981
 31
0.0
1001
GENIUS_GENODEF_13
1002
{
1000
HIER
1070
     0
1002
}
1002
{
1000
MANEDIT
1070
     0
1002
}
1002
{
1000
NOSEL
1070
     0
1002
}
1002
{
1000
BEHIND
1070
     0
1002
}
1002
{
1000
REACTOR
1002
}
1001
GENIUS_GENOBJ-N-CHA_13
1002
{
1000
OWNER
1000
GEN
1002
}
1001
GENIUS_GENFIL_13
1070
     0
1040
0.5
1040
0.5
1040
0.0
1040
0.0
1002
{
1002
}
  0
ARC
  5
CC9
  8
0
 10
364.97162826625629
 20
390.52135374105461
 30
0.0
 40
1.0
 50
0.0000000016935818
 51
88.999999999939575
1001
GENIUS_GENODEF_13
1002
{
1000
HIER
1070
     0
1002
}
1002
{
1000
MANEDIT
1070
     0
1002
}
1002
{
1000
NOSEL
1070
     0
1002
}
1002
{
1000
BEHIND
1070
     0
1002
}
1002
{
1000
REACTOR
1002
}
1001
GENIUS_GENOBJ-N-FIL_13
1002
{
1000
OWNER
1000
GEN
1002
}
  0
LINE
  5
CCF
  8
0
 10
353.97348271825439
 20
350.02135374119428
 30
0.0
 11
357.97348271808499
 21
350.02135374119263
 31
0.0
  0
ARC
  5
CD0
  8
0
 10
353.97348271825592
 20
353.52135374119428
 30
0.0
 40
3.5
 50
180.0000000001308
 51
269.99999999997539
1001
GENIUS_GENODEF_13
1002
{
1000
HIER
1070
     0
1002
}
1002
{
1000
MANEDIT
1070
     0
1002
}
1002
{
1000
NOSEL
1070
     0
1002
}
1002
{
1000
BEHIND
1070
     0
1002
}
1002
{
1000
REACTOR
1002
}
1001
GENIUS_GENOBJ-N-FIL_13
1002
{
1000
OWNER
1000
GEN
1002
}
  0
ARC
  5
CD1
  8
0
 10
357.97348271808647
 20
353.52135374119263
 30
0.0
 40
3.5
 50
269.99999999997539
 51
359.99999999989137
1001
GENIUS_GENODEF_13
1002
{
1000
HIER
1070
     0
1002
}
1002
{
1000
MANEDIT
1070
     0
1002
}
1002
{
1000
NOSEL
1070
     0
1002
}
1002
{
1000
BEHIND
1070
     0
1002
}
1002
{
1000
REACTOR
1002
}
1001
GENIUS_GENOBJ-N-FIL_13
1002
{
1000
OWNER
1000
GEN
1002
}
  0
ARC
  5
CD8
  8
0
 10
346.97533717008702
 20
390.52135374106598
 30
0.0
 40
1.0
 50
90.999999999988745
 51
179.9999999982347
1001
GENIUS_GENODEF_13
1002
{
1000
HIER
1070
     0
1002
}
1002
{
1000
MANEDIT
1070
     0
1002
}
1002
{
1000
NOSEL
1070
     0
1002
}
1002
{
1000
BEHIND
1070
     0
1002
}
1002
{
1000
REACTOR
1002
}
1001
GENIUS_GENOBJ-N-FIL_13
1002
{
1000
OWNER
1000
GEN
1002
}
  0
LINE
  5
CD9
  8
1
 10
355.97348271818822
 20
417.02135374099657
 30
0.0
 11
355.97348271814371
 21
345.02135374119348
 31
0.0
1001
GENIUS_GENODEF_13
1002
{
1000
HIER
1070
     0
1002
}
1002
{
1000
MANEDIT
1070
     0
1002
}
1002
{
1000
NOSEL
1070
     0
1002
}
1002
{
1000
BEHIND
1070
     0
1002
}
1002
{
1000
REACTOR
1002
}
1001
GENIUS_GENOBJ-N-CEN_13
1002
{
1000
OWNER
1000
GEN
1002
}
  0
ARC
  5
CDA
  8
0
 10
346.97533717008292
 20
371.52135374112811
 30
0.0
 40
1.0
 50
180.00000000174049
 51
268.99999999998658
1001
GENIUS_GENODEF_13
1002
{
1000
HIER
1070
     0
1002
}
1002
{
1000
MANEDIT
1070
     0
1002
}
1002
{
1000
NOSEL
1070
     0
1002
}
1002
{
1000
BEHIND
1070
     0
1002
}
1002
{
1000
REACTOR
1002
}
1001
GENIUS_GENOBJ-N-FIL_13
1002
{
1000
OWNER
1000
GEN
1002
}
  0
LINE
  5
CDB
  8
2
 10
365.4716282663133
 20
387.52135374109798
 30
0.0
 11
365.47162826630478
 21
374.52135374108798
 31
0.0
  0
LINE
  5
CDC
  8
2
 10
346.47533717005803
 20
387.52135374109781
 30
0.0
 11
346.47533717005518
 21
374.5213537410965
 31
0.0
  0
LINE
  5
CDE
  8
2
 10
355.97348271818282
 20
374.52135374109429
 30
0.0
 11
346.47533717005518
 21
374.5213537410965
 31
0.0
1001
GENIUS_GEFPARTINS_13
1002
{
1011
369.97162826626339
1021
0.0
1031
0.0
1021
379.5213537410911
1031
0.0
1013
-1.0
1023
0.0
1033
0.0
1023
0.0000000000002463
1033
0.0
1002
}
  0
LINE
  5
CE0
  8
0
 10
346.95788476364493
 20
370.5215060459405
 30
0.0
 11
350.4734827182171
 21
370.43365382509808
 31
0.0
  0
LINE
  5
CE2
  8
2
 10
346.47533717005518
 20
374.5213537410965
 30
0.0
 11
345.9753371700549
 21
374.02135374109662
 31
0.0
1001
GENIUS_GENODEF_13
1002
{
1000
HIER
1070
     0
1002
}
1002
{
1000
MANEDIT
1070
     0
1002
}
1002
{
1000
NOSEL
1070
     0
1002
}
1002
{
1000
BEHIND
1070
     0
1002
}
1002
{
1000
REACTOR
1002
}
1001
GENIUS_GENOBJ-N-CHA_13
1002
{
1000
OWNER
1000
GEN
1002
}
1001
GENIUS_GENFIL_13
1070
     0
1040
0.5
1040
0.5
1040
0.0
1040
0.0
1002
{
1002
}
  0
LINE
  5
CE5
  8
0
 10
364.98908067269059
 20
370.52150604594408
 30
0.0
 11
361.47348271811848
 21
370.43365382510018
 31
0.0
  0
LINE
  5
CE6
  8
2
 10
355.97348271818282
 20
374.52135374109429
 30
0.0
 11
365.4716282663104
 21
374.52135374108798
 31
0.0
1001
GENIUS_GEFPARTINS_13
1002
{
1011
336.97533717010663
1021
0.0
1031
0.0
1021
379.5213537411056
1031
0.0
1013
1.0
1023
0.0
1033
0.0
1023
-0.0000000000006386
1033
0.0
1002
}
  0
LINE
  5
CE7
  8
2
 10
355.97348271818561
 20
387.52135374109588
 30
0.0
 11
346.47533717005803
 21
387.52135374109781
 31
0.0
1001
GENIUS_GEFPARTINS_13
1002
{
1011
369.97162826626408
1021
0.0
1031
0.0
1021
382.52135374109298
1031
0.0
1013
-1.0
1023
0.0
1033
0.0
1023
0.0000000000001844
1033
0.0
1002
}
  0
LINE
  5
CE8
  8
0
 10
345.97533717006201
 20
371.52135374112783
 30
0.0
 11
345.97533717005717
 21
390.52135374109679
 31
0.0
  0
LINE
  5
CE9
  8
2
 10
346.47533717005803
 20
387.52135374109781
 30
0.0
 11
345.97533717005791
 21
388.02135374109793
 31
0.0
1001
GENIUS_GENODEF_13
1002
{
1000
HIER
1070
     0
1002
}
1002
{
1000
MANEDIT
1070
     0
1002
}
1002
{
1000
NOSEL
1070
     0
1002
}
1002
{
1000
BEHIND
1070
     0
1002
}
1002
{
1000
REACTOR
1002
}
1001
GENIUS_GENOBJ-N-CHA_13
1002
{
1000
OWNER
1000
GEN
1002
}
1001
GENIUS_GENFIL_13
1070
     0
1040
0.5
1040
0.5
1040
0.0
1040
0.0
1002
{
1002
}
  0
LINE
  5
CEA
  8
2
 10
355.97348271818561
 20
387.52135374109588
 30
0.0
 11
365.4716282663133
 21
387.52135374109798
 31
0.0
1001
GENIUS_GEFPARTINS_13
1002
{
1011
336.97533717010731
1021
0.0
1031
0.0
1021
382.5213537410927
1031
0.0
1013
1.0
1023
0.0
1033
0.0
1023
0.000000000000208
1033
0.0
1002
}
  0
LINE
  5
CF0
  8
0
 10
346.95788476364947
 20
391.52120143625348
 30
0.0
 11
350.47348271822159
 21
391.60905365709442
 31
0.0
  0
LINE
  5
CF4
  8
0
 10
364.98908067269508
 20
391.52120143624211
 30
0.0
 11
361.47348271812319
 21
391.60905365708749
 31
0.0
  0
LINE
  5
CF5
  8
0
 10
353.97348271826769
 20
412.02135374099652
 30
0.0
 11
357.97348271809841
 21
412.02135374099652
 31
0.0
  0
ARC
  5
CF6
  8
0
 10
353.97348271826769
 20
408.52135374099657
 30
0.0
 40
3.5
 50
90.0
 51
179.9999999998445
1001
GENIUS_GENODEF_13
1002
{
1000
HIER
1070
     0
1002
}
1002
{
1000
MANEDIT
1070
     0
1002
}
1002
{
1000
NOSEL
1070
     0
1002
}
1002
{
1000
BEHIND
1070
     0
1002
}
1002
{
1000
REACTOR
1002
}
1001
GENIUS_GENOBJ-N-FIL_13
1002
{
1000
OWNER
1000
GEN
1002
}
  0
ARC
  5
CFA
  8
0
 10
357.97348271809841
 20
408.52135374099657
 30
0.0
 40
3.5
 50
0.0000000000838649
 51
90.0
1001
GENIUS_GENODEF_13
1002
{
1000
HIER
1070
     0
1002
}
1002
{
1000
MANEDIT
1070
     0
1002
}
1002
{
1000
NOSEL
1070
     0
1002
}
1002
{
1000
BEHIND
1070
     0
1002
}
1002
{
1000
REACTOR
1002
}
1001
GENIUS_GENOBJ-N-FIL_13
1002
{
1000
OWNER
1000
GEN
1002
}
  0
LINE
  5
CFE
  8
0
 10
365.97162826631171
 20
381.02135374108838
 30
0.0
 11
365.97162826630972
 21
371.52135374109218
 31
0.0
  0
LINE
  5
CFF
  8
0
 10
365.97162826631171
 20
381.02135374109753
 30
0.0
 11
365.97162826631381
 21
390.52135374109361
 31
0.0
  0
LINE
  5
D00
  8
0
 10
367.03863937770728
 20
234.0214368761487
 30
0.0
 11
367.03863937770871
 21
240.52143687614881
 31
0.0
  0
LINE
  5
D05
  8
2
 10
366.53956271932628
 20
234.02143687614881
 30
0.0
 11
347.74574615889372
 21
234.02143687614921
 31
0.0
1001
GENIUS_GENODEF_13
1002
{
1000
HIER
1070
     0
1002
}
1002
{
1000
MANEDIT
1070
     0
1002
}
1002
{
1000
NOSEL
1070
     0
1002
}
1002
{
1000
BEHIND
1070
     0
1002
}
1002
{
1000
REACTOR
1002
}
1001
GENIUS_GENOBJ-N-CEN_13
1002
{
1000
OWNER
1000
GEN
1002
}
1001
GENIUS_GENOREF_13
1005
0
  0
LINE
  5
D07
  8
0
 10
345.33863937771622
 20
231.5214368761487
 30
0.0
 11
347.038639377707
 21
231.5214368761487
 31
0.0
  0
LINE
  5
D08
  8
0
 10
344.53863937770711
 20
232.32143687615789
 30
0.0
 11
345.33863937770712
 21
231.52143687615779
 31
0.0
1001
GENIUS_GENODEF_13
1002
{
1000
HIER
1070
     0
1002
}
1002
{
1000
MANEDIT
1070
     0
1002
}
1002
{
1000
NOSEL
1070
     0
1002
}
1002
{
1000
BEHIND
1070
     0
1002
}
1002
{
1000
REACTOR
1002
}
1001
GENIUS_GENOBJ-N-CHA_13
1002
{
1000
OWNER
1000
GEN
1002
}
1001
GENIUS_GENFIL_13
1070
     0
1040
0.5
1040
0.5
1040
0.0
1040
0.0
1002
{
1002
}
  0
LINE
  5
D09
  8
2
 10
366.53964585429549
 20
247.0214368761489
 30
0.0
 11
347.74574615889372
 21
247.0214368761485
 31
0.0
1001
GENIUS_GENODEF_13
1002
{
1000
HIER
1070
     0
1002
}
1002
{
1000
MANEDIT
1070
     0
1002
}
1002
{
1000
NOSEL
1070
     0
1002
}
1002
{
1000
BEHIND
1070
     0
1002
}
1002
{
1000
REACTOR
1002
}
1001
GENIUS_GENOBJ-N-CEN_13
1002
{
1000
OWNER
1000
GEN
1002
}
1001
GENIUS_GENOREF_13
1005
0
  0
LINE
  5
D0C
  8
0
 10
345.33863937770712
 20
249.5214368761489
 30
0.0
 11
345.33863937770712
 21
231.5214368761487
 31
0.0
  0
LINE
  5
D0D
  8
0
 10
347.03863937770728
 20
240.5214368761489
 30
0.0
 11
347.03863937770723
 21
249.52143687614881
 31
0.0
1001
GENIUS_GENOREF_13
1005
0
  0
LINE
  5
D0E
  8
0
 10
344.53863937770711
 20
248.7214368761399
 30
0.0
 11
344.53863937770711
 21
232.3214368761578
 31
0.0
  0
LINE
  5
D0F
  8
0
 10
344.53863937770711
 20
248.72143687613979
 30
0.0
 11
345.33863937770712
 21
249.52143687613989
 31
0.0
1001
GENIUS_GENODEF_13
1002
{
1000
HIER
1070
     0
1002
}
1002
{
1000
MANEDIT
1070
     0
1002
}
1002
{
1000
NOSEL
1070
     0
1002
}
1002
{
1000
BEHIND
1070
     0
1002
}
1002
{
1000
REACTOR
1002
}
1001
GENIUS_GENOBJ-N-CHA_13
1002
{
1000
OWNER
1000
GEN
1002
}
1001
GENIUS_GENFIL_13
1070
     0
1040
0.5
1040
0.5
1040
0.0
1040
0.0
1002
{
1002
}
  0
LINE
  5
D10
  8
0
 10
345.33863937771622
 20
249.5214368761489
 30
0.0
 11
347.038639377707
 21
249.5214368761489
 31
0.0
  0
ARC
  5
D89
  8
0
 10
485.33854227130212
 20
240.52302575281831
 30
0.0
 40
24.500000000044231
 50
36.287457085034021
 51
143.71254291494881
  0
ARC
  5
D8A
  8
0
 10
485.33854227130149
 20
240.5230257529644
 30
0.0
 40
30.999999999866748
 50
27.887820237552191
 51
152.11217976244779
  0
ARC
  5
D8B
  8
0
 10
485.33854227130149
 20
240.52302575296449
 30
0.0
 40
24.500000000038369
 50
213.4370454302659
 51
326.56295456975158
  0
ARC
  5
D8C
  8
0
 10
485.33854227130212
 20
240.52302575281831
 30
0.0
 40
30.999999999863672
 50
205.81608733408351
 51
334.18391266592653
  0
LINE
  5
D91
  8
1
 10
280.03863937770569
 20
252.77100953374861
 30
0.0
 11
280.03863937770569
 21
230.27100953374861
 31
0.0
  0
CIRCLE
  5
D92
  8
0
 10
280.03863937770569
 20
241.52100953374861
 30
0.0
 40
6.25
  0
LINE
  5
D93
  8
0
 10
283.79141612743842
 20
248.02100953374861
 30
0.0
 11
287.54419287717099
 21
241.52100953374861
 31
0.0
  0
LINE
  5
D94
  8
0
 10
272.53308587824068
 20
241.52100953374861
 30
0.0
 11
276.2858626279737
 21
248.02100953374861
 31
0.0
  0
CIRCLE
  5
D95
  8
3
 10
280.03863937770569
 20
241.52100953374861
 30
0.0
 40
2.2982985706837549
  0
CIRCLE
  5
D96
  8
0
 10
280.03863937770569
 20
241.52100953374861
 30
0.0
 40
3.063310458479747
  0
LINE
  5
D97
  8
0
 10
283.79141612743808
 20
235.02100953374861
 30
0.0
 11
276.28586262797319
 21
235.02100953374861
 31
0.0
  0
LINE
  5
D98
  8
0
 10
276.28586262797319
 20
235.02100953374861
 30
0.0
 11
272.53308587824068
 21
241.52100953374861
 31
0.0
  0
LINE
  5
D99
  8
0
 10
287.54419287717099
 20
241.52100953374861
 30
0.0
 11
283.79141612743808
 21
235.02100953374861
 31
0.0
  0
LINE
  5
D9A
  8
0
 10
276.2858626279737
 20
248.02100953374861
 30
0.0
 11
283.79141612743842
 21
248.02100953374861
 31
0.0
  0
LINE
  5
D9B
  8
1
 10
291.28863937770569
 20
241.52100953374861
 30
0.0
 11
268.78863937770569
 21
241.52100953374861
 31
0.0
  0
LINE
  5
D9C
  8
1
 10
190.03863937770541
 20
252.7710095337487
 30
0.0
 11
190.03863937770541
 21
230.2710095337487
 31
0.0
  0
CIRCLE
  5
D9D
  8
0
 10
190.03863937770541
 20
241.5210095337487
 30
0.0
 40
6.25
  0
LINE
  5
D9E
  8
0
 10
197.5441928771705
 20
241.52100953374861
 30
0.0
 11
193.7914161274374
 21
248.02100953374861
 31
0.0
  0
LINE
  5
D9F
  8
0
 10
186.28586262797279
 20
248.02100953374861
 30
0.0
 11
182.53308587824009
 21
241.52100953374861
 31
0.0
  0
LINE
  5
DA0
  8
1
 10
201.28863937770541
 20
241.5210095337487
 30
0.0
 11
178.78863937770541
 21
241.5210095337487
 31
0.0
  0
CIRCLE
  5
DA1
  8
0
 10
190.03863937770541
 20
241.5210095337487
 30
0.0
 40
3.063310458479747
  0
CIRCLE
  5
DA2
  8
3
 10
190.03863937770541
 20
241.5210095337487
 30
0.0
 40
2.2982985706837549
  0
LINE
  5
DA3
  8
0
 10
186.28586262797299
 20
235.02100953374861
 30
0.0
 11
193.79141612743791
 21
235.02100953374861
 31
0.0
  0
LINE
  5
DA4
  8
0
 10
182.53308587824009
 20
241.52100953374861
 30
0.0
 11
186.28586262797299
 21
235.02100953374861
 31
0.0
  0
LINE
  5
DA5
  8
0
 10
193.79141612743791
 20
235.02100953374861
 30
0.0
 11
197.5441928771705
 21
241.52100953374861
 31
0.0
  0
LINE
  5
DA6
  8
0
 10
193.7914161274374
 20
248.02100953374861
 30
0.0
 11
186.28586262797279
 21
248.02100953374861
 31
0.0
  0
POLYLINE
  5
DA7
  8
0
 66
     1
 10
0.0
 20
0.0
 30
0.0
 70
     1
  0
VERTEX
  5
DA8
  8
0
 10
232.53582596076859
 20
239.0760095336025
 30
0.0
  0
VERTEX
  5
DA9
  8
0
 10
235.03863937770561
 20
237.63100953360251
 30
0.0
  0
VERTEX
  5
DAA
  8
0
 10
237.54145279464259
 20
239.0760095336025
 30
0.0
  0
VERTEX
  5
DAB
  8
0
 10
237.54145279464259
 20
241.96600953360229
 30
0.0
  0
VERTEX
  5
DAC
  8
0
 10
235.03863937770561
 20
243.41100953360251
 30
0.0
  0
VERTEX
  5
DAD
  8
0
 10
232.53582596076859
 20
241.96600953360229
 30
0.0
  0
SEQEND
  5
DAE
  8
0
  0
CIRCLE
  5
DAF
  8
0
 10
235.03863937770561
 20
240.5210095336756
 30
0.0
 40
9.5631750174605372
  0
CIRCLE
  5
DB0
  8
0
 10
235.03863937770561
 20
240.5210095336756
 30
0.0
 40
8.0634104572566798
  0
CIRCLE
  5
DB1
  8
0
 10
235.03863937770561
 20
240.5210095336756
 30
0.0
 40
7.2634104572566107
  0
LINE
  5
DB2
  8
1
 10
271.03863937759689
 20
240.52100953375549
 30
0.0
 11
199.03863937780059
 21
240.52100953375549
 31
0.0
  0
LINE
  5
DB3
  8
1
 10
235.03863937769879
 20
276.52100953365363
 30
0.0
 11
235.03863937769879
 21
204.5210095338573
 31
0.0
  0
LINE
  5
DB4
  8
1
 10
521.33854227116831
 20
240.5230257529644
 30
0.0
 11
449.33854227143468
 21
240.5230257529644
 31
0.0
  0
LINE
  5
DB5
  8
1
 10
485.33854227130149
 20
276.52302575283107
 30
0.0
 11
485.33854227130149
 21
204.52302575309761
 31
0.0
  0
LINE
  5
DB6
  8
1
 10
543.33854227130178
 20
241.52302575283659
 30
0.0
 11
517.33854227130178
 21
241.52302575283659
 31
0.0
  0
LINE
  5
DB7
  8
1
 10
530.33854227130166
 20
254.52302575283659
 30
0.0
 11
530.33854227130166
 21
228.52302575283659
 31
0.0
  0
CIRCLE
  5
DB8
  8
0
 10
530.33854227130166
 20
241.52302575283659
 30
0.0
 40
8.0
  0
LINE
  5
DB9
  8
0
 10
527.83572885436479
 20
240.07802575283651
 30
0.0
 11
530.33854227130166
 21
238.6330257528366
 31
0.0
  0
LINE
  5
DBA
  8
0
 10
530.33854227130166
 20
244.4130257528366
 30
0.0
 11
527.83572885436479
 21
242.9680257528365
 31
0.0
  0
LINE
  5
DBB
  8
0
 10
527.83572885436479
 20
242.9680257528365
 30
0.0
 11
527.83572885436479
 21
240.07802575283651
 31
0.0
  0
LINE
  5
DBC
  8
0
 10
532.84135568823831
 20
240.0780257528356
 30
0.0
 11
532.84135568823831
 21
242.96802575283689
 31
0.0
  0
LINE
  5
DBD
  8
0
 10
530.33854227130166
 20
238.6330257528366
 30
0.0
 11
532.84135568823831
 21
240.0780257528356
 31
0.0
  0
LINE
  5
DBE
  8
0
 10
532.84135568823831
 20
242.96802575283689
 30
0.0
 11
530.33854227130166
 21
244.4130257528366
 31
0.0
  0
LINE
  5
DBF
  8
1
 10
453.33854227130172
 20
241.52302575283659
 30
0.0
 11
427.33854227130172
 21
241.52302575283659
 31
0.0
  0
LINE
  5
DC0
  8
1
 10
440.33854227130172
 20
254.52302575283659
 30
0.0
 11
440.33854227130172
 21
228.52302575283659
 31
0.0
  0
CIRCLE
  5
DC1
  8
0
 10
440.33854227130172
 20
241.52302575283659
 30
0.0
 40
8.0
  0
LINE
  5
DC2
  8
0
 10
437.83572885436519
 20
242.96802575283689
 30
0.0
 11
440.33854227130172
 21
244.4130257528366
 31
0.0
  0
LINE
  5
DC3
  8
0
 10
440.33854227130172
 20
238.6330257528366
 30
0.0
 11
437.83572885436519
 21
240.0780257528356
 31
0.0
  0
LINE
  5
DC4
  8
0
 10
437.83572885436519
 20
240.0780257528356
 30
0.0
 11
437.83572885436519
 21
242.96802575283689
 31
0.0
  0
LINE
  5
DC5
  8
0
 10
442.84135568823882
 20
242.9680257528365
 30
0.0
 11
442.84135568823882
 21
240.07802575283651
 31
0.0
  0
LINE
  5
DC6
  8
0
 10
440.33854227130172
 20
244.4130257528366
 30
0.0
 11
442.84135568823882
 21
242.9680257528365
 31
0.0
  0
LINE
  5
DC7
  8
0
 10
442.84135568823882
 20
240.07802575283651
 30
0.0
 11
440.33854227130172
 21
238.6330257528366
 31
0.0
  0
ARC
  5
DCD
  8
0
 10
372.07042044953278
 20
245.71315807847861
 30
0.0
 40
9.3871521352487513
 50
159.7438419995828
 51
200.25615800041709
  0
LINE
  5
DCE
  8
0
 10
362.53893074698613
 20
236.21315807848021
 30
0.0
 11
362.53893074698613
 21
248.71315807847751
 31
0.0
  0
LINE
  5
DCF
  8
0
 10
362.53893074698613
 20
236.21315807848009
 30
0.0
 11
362.5389307469863
 21
248.71315807847759
 31
0.0
  0
LINE
  5
DD0
  8
0
 10
362.68326831428431
 20
235.9631580784791
 30
0.0
 11
362.53893074698613
 21
236.21315807848021
 31
0.0
  0
ARC
  5
DD1
  8
0
 10
372.07042044953278
 20
239.2131580784791
 30
0.0
 40
9.3871521352487513
 50
159.7438419995828
 51
200.25615800041709
  0
LINE
  5
DD2
  8
0
 10
362.68326831428431
 20
248.96315807847861
 30
0.0
 11
362.53893074698613
 21
248.71315807847751
 31
0.0
  0
LINE
  5
DD3
  8
0
 10
362.68326831428431
 20
235.9631580784791
 30
0.0
 11
367.03893074698613
 21
235.9631580784791
 31
0.0
  0
LINE
  5
DD4
  8
0
 10
363.26382489788489
 20
242.46315807847901
 30
0.0
 11
367.03893074698613
 21
242.46315807847881
 31
0.0
  0
LINE
  5
DD5
  8
0
 10
362.68326831428431
 20
248.96315807847861
 30
0.0
 11
367.03893074698613
 21
248.96315807847861
 31
0.0
  0
LINE
  5
DD6
  8
0
 10
362.53893074698613
 20
245.5213669525258
 30
0.0
 11
360.6035616798676
 21
245.5213368774258
 31
0.0
  0
LINE
  5
DD7
  8
3
 10
362.5389307469863
 20
244.7563669524335
 30
0.0
 11
359.8385735678483
 21
244.7563249896298
 31
0.0
  0
LINE
  5
DD8
  8
3
 10
359.83867410985857
 20
238.286324990411
 30
0.0
 11
362.53893074698613
 21
238.2863669516523
 31
0.0
  0
LINE
  5
DD9
  8
0
 10
362.53893074698613
 20
237.52136695155991
 30
0.0
 11
360.60368599765468
 21
237.52133687839179
 31
0.0
  0
LINE
  5
DDA
  8
0
 10
361.47163156666232
 20
419.76940724055208
 30
0.0
 11
361.47163156666232
 21
432.26940724055032
 31
0.0
  0
LINE
  5
DDB
  8
0
 10
362.19652571756097
 20
433.52496074001681
 30
0.0
 11
365.97163156666232
 21
433.52496074001681
 31
0.0
  0
LINE
  5
DDC
  8
0
 10
362.19652571756097
 20
433.52496074001681
 30
0.0
 11
361.47163156666232
 21
432.26940724055049
 31
0.0
  0
ARC
  5
DDD
  8
0
 10
364.93853870691021
 20
431.64857236515053
 30
0.0
 40
3.3225695729499738
 50
154.38424746782451
 51
214.38424746804091
  0
LINE
  5
DDE
  8
0
 10
362.1965257175608
 20
429.77218399028339
 30
0.0
 11
365.97163156666232
 21
429.77218399028538
 31
0.0
  0
ARC
  5
DDF
  8
0
 10
374.03541255035248
 20
426.01940724055282
 30
0.0
 40
12.41944341639239
 50
162.41204622600139
 51
197.5879537740075
  0
LINE
  5
DE0
  8
0
 10
362.19652571756149
 20
422.26663049082009
 30
0.0
 11
365.97163156666232
 21
422.26663049081827
 31
0.0
  0
LINE
  5
DE1
  8
0
 10
362.19652571756097
 20
418.5138537410869
 30
0.0
 11
365.97163156666232
 21
418.5138537410869
 31
0.0
  0
LINE
  5
DE2
  8
0
 10
362.19652571756097
 20
418.5138537410869
 30
0.0
 11
361.47163156666232
 21
419.76940724055322
 31
0.0
  0
ARC
  5
DE3
  8
0
 10
364.93853870691021
 20
420.3902421159533
 30
0.0
 40
3.3225695729499738
 50
145.615752531959
 51
205.61575253217549
  0
LINE
  5
DE4
  8
0
 10
361.47163156666232
 20
430.0213537410869
 30
0.0
 11
359.53662826631057
 21
430.0213537410869
 31
0.0
  0
LINE
  5
DE5
  8
3
 10
361.47163156666232
 20
429.25635374108691
 30
0.0
 11
358.7716282663107
 21
429.25635374108691
 31
0.0
  0
LINE
  5
DE6
  8
3
 10
361.47163156666232
 20
422.78635374108688
 30
0.0
 11
358.7716282663107
 21
422.78635374108688
 31
0.0
  0
LINE
  5
DE7
  8
0
 10
361.47163156666232
 20
422.0213537410869
 30
0.0
 11
359.53662826631057
 21
422.0213537410869
 31
0.0
  0
LINE
  5
DE8
  8
2
 10
365.97162826631171
 20
331.02135374108678
 30
0.0
 11
369.97162826631057
 21
331.02135374108678
 31
0.0
  0
LINE
  5
DE9
  8
2
 10
369.97162826631057
 20
341.02135374108678
 30
0.0
 11
365.97162826631171
 21
341.02135374108678
 31
0.0
  0
LINE
  5
DEA
  8
2
 10
371.2716282663107
 20
333.13135374108691
 30
0.0
 11
369.60308598835257
 21
336.0213537410869
 31
0.0
  0
LINE
  5
DEB
  8
2
 10
371.2716282663107
 20
338.91135374108688
 30
0.0
 11
369.60308598835257
 21
336.0213537410869
 31
0.0
  0
LINE
  5
DEC
  8
0
 10
369.74662826631072
 20
332.0213537410869
 30
0.0
 11
370.37162826631072
 21
332.0213537410869
 31
0.0
  0
LINE
  5
DED
  8
0
 10
369.74662826631072
 20
340.0213537410869
 30
0.0
 11
370.37162826631072
 21
340.0213537410869
 31
0.0
  0
ARC
  5
DEE
  8
0
 10
374.03541255035248
 20
336.01940724055282
 30
0.0
 40
12.41944341639239
 50
162.41204622600139
 51
197.5879537740075
  0
LINE
  5
DEF
  8
0
 10
361.47163156666232
 20
329.76940724055208
 30
0.0
 11
361.47163156666232
 21
342.26940724055032
 31
0.0
  0
LINE
  5
DF0
  8
2
 10
366.62162826631072
 20
340.0213537410869
 30
0.0
 11
366.62162826631072
 21
332.0213537410869
 31
0.0
  0
LINE
  5
DF1
  8
0
 10
365.97162826631109
 20
343.52885374108689
 30
0.0
 11
365.97162826631109
 21
328.5138537410869
 31
0.0
  0
LINE
  5
DF2
  8
0
 10
359.53662826631057
 20
340.0213537410869
 30
0.0
 11
359.53662826631057
 21
332.0213537410869
 31
0.0
  0
LINE
  5
DF3
  8
0
 10
358.7716282663107
 20
332.78635374108688
 30
0.0
 11
358.7716282663107
 21
339.25635374108691
 31
0.0
  0
LINE
  5
DF4
  8
2
 10
361.47163156666232
 20
332.0213537410869
 30
0.0
 11
366.62162826631072
 21
332.0213537410869
 31
0.0
  0
LINE
  5
DF5
  8
2
 10
366.62162826631072
 20
332.78635374108688
 30
0.0
 11
361.47163156666232
 21
332.78635374108688
 31
0.0
  0
LINE
  5
DF6
  8
0
 10
362.19652571756097
 20
328.5138537410869
 30
0.0
 11
365.97163156666232
 21
328.5138537410869
 31
0.0
  0
LINE
  5
DF7
  8
0
 10
362.19652571756149
 20
332.26663049082009
 30
0.0
 11
365.97163156666232
 21
332.26663049081827
 31
0.0
  0
LINE
  5
DF8
  8
3
 10
361.47163156666232
 20
332.78635374108688
 30
0.0
 11
358.7716282663107
 21
332.78635374108688
 31
0.0
  0
LINE
  5
DF9
  8
0
 10
361.47163156666232
 20
332.0213537410869
 30
0.0
 11
359.53662826631057
 21
332.0213537410869
 31
0.0
  0
ARC
  5
DFA
  8
0
 10
364.93853870691021
 20
330.3902421159533
 30
0.0
 40
3.3225695729499738
 50
145.615752531959
 51
205.61575253217549
  0
LINE
  5
DFB
  8
0
 10
362.19652571756097
 20
328.5138537410869
 30
0.0
 11
361.47163156666232
 21
329.76940724055322
 31
0.0
  0
LINE
  5
DFC
  8
0
 10
358.7716282663107
 20
332.78635374108688
 30
0.0
 11
359.53662826631057
 21
332.0213537410869
 31
0.0
  0
LINE
  5
DFD
  8
2
 10
369.74662826631072
 20
332.0213537410869
 30
0.0
 11
366.62162826631072
 21
332.78635374108688
 31
0.0
  0
LINE
  5
DFE
  8
2
 10
366.62162826631072
 20
332.0213537410869
 30
0.0
 11
369.74662826631072
 21
332.0213537410869
 31
0.0
  0
LINE
  5
DFF
  8
2
 10
361.47163156666232
 20
340.0213537410869
 30
0.0
 11
366.62162826631072
 21
340.0213537410869
 31
0.0
  0
LINE
  5
E00
  8
2
 10
366.62162826631072
 20
339.25635374108691
 30
0.0
 11
361.47163156666232
 21
339.25635374108691
 31
0.0
  0
LINE
  5
E01
  8
0
 10
362.1965257175608
 20
339.77218399028339
 30
0.0
 11
365.97163156666232
 21
339.7721839902855
 31
0.0
  0
LINE
  5
E02
  8
0
 10
362.19652571756097
 20
343.52496074001681
 30
0.0
 11
365.97163156666232
 21
343.52496074001681
 31
0.0
  0
LINE
  5
E03
  8
3
 10
361.47163156666232
 20
339.25635374108691
 30
0.0
 11
358.7716282663107
 21
339.25635374108691
 31
0.0
  0
LINE
  5
E04
  8
0
 10
361.47163156666232
 20
340.0213537410869
 30
0.0
 11
359.53662826631057
 21
340.0213537410869
 31
0.0
  0
ARC
  5
E05
  8
0
 10
364.93853870691021
 20
341.64857236515041
 30
0.0
 40
3.3225695729499738
 50
154.38424746782451
 51
214.38424746804091
  0
LINE
  5
E06
  8
0
 10
362.19652571756097
 20
343.52496074001681
 30
0.0
 11
361.47163156666232
 21
342.26940724055049
 31
0.0
  0
LINE
  5
E07
  8
0
 10
358.7716282663107
 20
339.25635374108691
 30
0.0
 11
359.53662826631057
 21
340.0213537410869
 31
0.0
  0
LINE
  5
E08
  8
2
 10
369.74662826631072
 20
340.0213537410869
 30
0.0
 11
366.62162826631072
 21
339.25635374108691
 31
0.0
  0
LINE
  5
E09
  8
2
 10
366.62162826631072
 20
340.0213537410869
 30
0.0
 11
369.74662826631072
 21
340.0213537410869
 31
0.0
  0
LINE
  5
E0A
  8
0
 10
370.37162826631072
 20
340.0213537410869
 30
0.0
 11
370.37162826631072
 21
332.0213537410869
 31
0.0
  0
LINE
  5
E0B
  8
0
 10
374.37162826631072
 20
344.0213537410869
 30
0.0
 11
374.37162826631072
 21
328.0213537410869
 31
0.0
  0
LINE
  5
E0C
  8
0
 10
374.77162826631059
 20
344.0213537410869
 30
0.0
 11
374.77162826631059
 21
328.0213537410869
 31
0.0
  0
LINE
  5
E0D
  8
0
 10
374.77162826631059
 20
328.0213537410869
 30
0.0
 11
374.37162826631072
 21
328.0213537410869
 31
0.0
  0
LINE
  5
E0E
  8
0
 10
374.37162826631072
 20
328.0213537410869
 30
0.0
 11
370.37162826631072
 21
332.0213537410869
 31
0.0
  0
LINE
  5
E0F
  8
0
 10
374.37162826631072
 20
344.0213537410869
 30
0.0
 11
370.37162826631072
 21
340.0213537410869
 31
0.0
  0
LINE
  5
E10
  8
2
 10
371.2716282663107
 20
334.57635374108679
 30
0.0
 11
374.77162826631059
 21
334.57635374108679
 31
0.0
  0
LINE
  5
E11
  8
2
 10
371.2716282663107
 20
333.13135374108691
 30
0.0
 11
374.77162826631059
 21
333.13135374108691
 31
0.0
  0
LINE
  5
E12
  8
2
 10
371.2716282663107
 20
337.46635374108678
 30
0.0
 11
374.77162826631059
 21
337.46635374108678
 31
0.0
  0
LINE
  5
E13
  8
2
 10
371.2716282663107
 20
338.91135374108688
 30
0.0
 11
374.77162826631059
 21
338.91135374108688
 31
0.0
  0
LINE
  5
E14
  8
2
 10
371.2716282663107
 20
338.91135374108688
 30
0.0
 11
371.2716282663107
 21
333.13135374108691
 31
0.0
  0
LINE
  5
E16
  8
0
 10
374.37162826631072
 20
344.0213537410869
 30
0.0
 11
374.77162826631059
 21
344.0213537410869
 31
0.0
  0
LINE
  5
E1B
  8
0
 10
350.47348271826769
 20
408.52135374100601
 30
0.0
 11
350.47348271825592
 21
353.52135374118632
 31
0.0
  0
LINE
  5
E1C
  8
0
 10
361.47348271808647
 20
353.52135374118598
 30
0.0
 11
361.47348271809841
 21
408.52135374100169
 31
0.0
  0
LINE
  5
E22
  8
0
 10
351.54141717128931
 20
268.02135374109639
 30
0.0
 11
351.54141717127737
 21
213.02135374127661
 31
0.0
  0
LINE
  5
E23
  8
0
 10
362.54141717110809
 20
213.0213537412763
 30
0.0
 11
362.54141717111992
 21
268.02135374109201
 31
0.0
  0
TEXT
  5
F43
  8
0
 62
     3
 10
0.0
 20
0.0
 30
0.0
 40
10.0
  1
C-ROS
  7
STANDARD1
  0
ENDSEC
  0
EOF
