  0
SECTION
  2
HEADER
  9
$ACADVER
  1
AC1009
  9
$INSBASE
 10
0.0
 20
0.0
 30
0.0
  9
$EXTMIN
 10
0.0
 20
-2.960436562073669
 30
0.0
  9
$EXTMAX
 10
428.80073661127602
 20
483.29922948885411
 30
0.0
  9
$LIMMIN
 10
0.0
 20
0.0
  9
$LIMMAX
 10
187.5
 20
139.0
  9
$ORTHOMODE
 70
     1
  9
$REGENMODE
 70
     1
  9
$FILLMODE
 70
     1
  9
$QTEXTMODE
 70
     0
  9
$MIRRTEXT
 70
     0
  9
$DRAGMODE
 70
     2
  9
$LTSCALE
 40
4.0
  9
$OSMODE
 70
  3071
  9
$ATTMODE
 70
     1
  9
$TEXTSIZE
 40
0.2
  9
$TRACEWID
 40
0.05
  9
$TEXTSTYLE
  7
STANDARD
  9
$CLAYER
  8
0
  9
$CELTYPE
  6
BYLAYER
  9
$CECOLOR
 62
   256
  9
$DIMSCALE
 40
1.0
  9
$DIMASZ
 40
3.0
  9
$DIMEXO
 40
1.0
  9
$DIMDLI
 40
6.0
  9
$DIMRND
 40
0.0
  9
$DIMDLE
 40
0.0
  9
$DIMEXE
 40
1.0
  9
$DIMTP
 40
495.0
  9
$DIMTM
 40
0.0
  9
$DIMTXT
 40
3.0
  9
$DIMCEN
 40
0.0
  9
$DIMTSZ
 40
0.0
  9
$DIMTOL
 70
     0
  9
$DIMLIM
 70
     0
  9
$DIMTIH
 70
     0
  9
$DIMTOH
 70
     0
  9
$DIMSE1
 70
     0
  9
$DIMSE2
 70
     0
  9
$DIMTAD
 70
     1
  9
$DIMZIN
 70
     0
  9
$DIMBLK
  1

  9
$DIMASO
 70
     0
  9
$DIMSHO
 70
     0
  9
$DIMPOST
  1

  9
$DIMAPOST
  1

  9
$DIMALT
 70
     0
  9
$DIMALTD
 70
     2
  9
$DIMALTF
 40
25.399999999999999
  9
$DIMLFAC
 40
1.0
  9
$DIMTOFL
 70
     1
  9
$DIMTVP
 40
0.0
  9
$DIMTIX
 70
     1
  9
$DIMSOXD
 70
     0
  9
$DIMSAH
 70
     0
  9
$DIMBLK1
  1

  9
$DIMBLK2
  1

  9
$DIMSTYLE
  2
STANDARD
  9
$DIMCLRD
 70
     0
  9
$DIMCLRE
 70
     0
  9
$DIMCLRT
 70
     4
  9
$DIMTFAC
 40
1.0
  9
$DIMGAP
 40
1.0
  9
$LUNITS
 70
     2
  9
$LUPREC
 70
     4
  9
$SKETCHINC
 40
0.1
  9
$FILLETRAD
 40
0.0
  9
$AUNITS
 70
     0
  9
$AUPREC
 70
     3
  9
$MENU
  1
C:\R13\WIN\SUPPORT\ACAD-I
  9
$ELEVATION
 40
0.0
  9
$PELEVATION
 40
0.0
  9
$THICKNESS
 40
0.0
  9
$LIMCHECK
 70
     0
  9
$BLIPMODE
 70
     0
  9
$CHAMFERA
 40
0.0
  9
$CHAMFERB
 40
0.0
  9
$SKPOLY
 70
     0
  9
$TDCREATE
 40
2450837.486061343
  9
$TDUPDATE
 40
2456598.49532816
  9
$TDINDWG
 40
0.2635987616
  9
$TDUSRTIMER
 40
0.2635987616
  9
$USRTIMER
 70
     1
  9
$ANGBASE
 50
0.0
  9
$ANGDIR
 70
     0
  9
$PDMODE
 70
     0
  9
$PDSIZE
 40
0.0
  9
$PLINEWID
 40
0.0
  9
$COORDS
 70
     1
  9
$SPLFRAME
 70
     0
  9
$SPLINETYPE
 70
     6
  9
$SPLINESEGS
 70
     8
  9
$ATTDIA
 70
     0
  9
$ATTREQ
 70
     1
  9
$HANDLING
 70
     1
  9
$HANDSEED
  5
13F1
  9
$SURFTAB1
 70
     6
  9
$SURFTAB2
 70
     6
  9
$SURFTYPE
 70
     6
  9
$SURFU
 70
     6
  9
$SURFV
 70
     6
  9
$UCSNAME
  2

  9
$UCSORG
 10
0.0
 20
0.0
 30
0.0
  9
$UCSXDIR
 10
1.0
 20
0.0
 30
0.0
  9
$UCSYDIR
 10
0.0
 20
1.0
 30
0.0
  9
$PUCSNAME
  2

  9
$PUCSORG
 10
0.0
 20
0.0
 30
0.0
  9
$PUCSXDIR
 10
1.0
 20
0.0
 30
0.0
  9
$PUCSYDIR
 10
0.0
 20
1.0
 30
0.0
  9
$USERI1
 70
     4
  9
$USERI2
 70
     1
  9
$USERI3
 70
     0
  9
$USERI4
 70
     0
  9
$USERI5
 70
     0
  9
$USERR1
 40
1.0
  9
$USERR2
 40
3.0
  9
$USERR3
 40
3.0
  9
$USERR4
 40
3.0
  9
$USERR5
 40
10.0
  9
$WORLDVIEW
 70
     1
  9
$SHADEDGE
 70
     3
  9
$SHADEDIF
 70
    70
  9
$TILEMODE
 70
     1
  9
$MAXACTVP
 70
    16
  9
$PLIMCHECK
 70
     0
  9
$PEXTMIN
 10
1.0000000000000000E+020
 20
1.0000000000000000E+020
 30
1.0000000000000000E+020
  9
$PEXTMAX
 10
-1.0000000000000000E+020
 20
-1.0000000000000000E+020
 30
-1.0000000000000000E+020
  9
$PLIMMIN
 10
0.0
 20
0.0
  9
$PLIMMAX
 10
12.0
 20
9.0
  9
$UNITMODE
 70
     0
  9
$VISRETAIN
 70
     0
  9
$PLINEGEN
 70
     0
  9
$PSLTSCALE
 70
     0
  0
ENDSEC
  0
SECTION
  2
TABLES
  0
TABLE
  2
VPORT
 70
     1
  0
VPORT
  2
*ACTIVE
 70
     0
 10
0.0
 20
0.0
 11
1.0
 21
1.0
 12
227.87462286835139
 22
240.17470366861099
 13
0.0
 23
0.0
 14
5.0
 24
5.0
 15
5.0
 25
5.0
 16
0.0
 26
0.0
 36
1.0
 17
0.0
 27
0.0
 37
0.0
 40
490.63979475509069
 41
1.831871345029239
 42
50.0
 43
0.0
 44
0.0
 50
0.0
 51
0.0
 71
     0
 72
   100
 73
     1
 74
     0
 75
     0
 76
     0
 77
     0
 78
     0
  0
ENDTAB
  0
TABLE
  2
LTYPE
 70
     3
  0
LTYPE
  2
CONTINUOUS
 70
     0
  3
Solid Line
 72
    65
 73
     0
 40
0.0
  0
LTYPE
  2
CENTER
 70
     0
  3
____ _ ____ _ ____ _ ____ _ ____ _ ____ _ ____
 72
    65
 73
     4
 40
2.0
 49
1.25
 49
-0.25
 49
0.25
 49
-0.25
  0
LTYPE
  2
PHANTOM2
 70
     0
  3
___ _ _ ___ _ _ ___ _ _ ___ _ _
 72
    65
 73
     6
 40
1.25
 49
0.625
 49
-0.125
 49
0.125
 49
-0.125
 49
0.125
 49
-0.125
  0
ENDTAB
  0
TABLE
  2
LAYER
 70
     3
  0
LAYER
  2
0
 70
     0
 62
     7
  6
CONTINUOUS
  0
LAYER
  2
1
 70
     0
 62
     1
  6
CENTER
  0
LAYER
  2
3
 70
     0
 62
     3
  6
CONTINUOUS
  0
ENDTAB
  0
TABLE
  2
STYLE
 70
     2
  0
STYLE
  2
STANDARD
 70
     0
 40
0.0
 41
1.0
 50
0.0
 71
     0
 42
0.2
  3
SIMPLEX
  4
BIGFONT
  0
STYLE
  2
STANDARD1
 70
     0
 40
0.0
 41
1.0
 50
0.0
 71
     0
 42
3.0
  3
txt
  4

  0
ENDTAB
  0
TABLE
  2
VIEW
 70
     0
  0
ENDTAB
  0
TABLE
  2
UCS
 70
     0
  0
ENDTAB
  0
TABLE
  2
APPID
 70
    48
  0
APPID
  2
ACAD
 70
     0
  0
APPID
  2
GENIUS_GENOBJ_13
 70
     0
  0
APPID
  2
GENIUS_GENODEF_13
 70
     0
  0
APPID
  2
GENIUS_GENOENT_13
 70
     0
  0
APPID
  2
GENIUS_GENOLIS_13
 70
     0
  0
APPID
  2
GENIUS_GENOREF_13
 70
     0
  0
APPID
  2
GENIUS_GENOBJ-N-TIT_13
 70
     0
  0
APPID
  2
GENIUS_GENTITLE_13
 70
     0
  0
APPID
  2
GENIUS_GENZVEED_13
 70
     0
  0
APPID
  2
GENIUS_GENOBJ-N-FIL_13
 70
     0
  0
APPID
  2
GENIUS_GENOBJ-N-CRS_13
 70
     0
  0
APPID
  2
GENIUS_GENOBJ-N-SEC_13
 70
     0
  0
APPID
  2
GENIUS_GENOBJ-N-LEADER_13
 70
     0
  0
APPID
  2
GENIUS_GENOBJ-N-ZOO_13
 70
     0
  0
APPID
  2
GENIUS_GENZOO_13
 70
     0
  0
APPID
  2
GENIUS_GENOBJ-N-REV_13
 70
     0
  0
APPID
  2
GENIUS_GENOBJ-N-RSSYM_13
 70
     0
  0
APPID
  2
GENIUS_GENSYMENT_13
 70
     0
  0
APPID
  2
GENIUS_GENBH_13
 70
     0
  0
APPID
  2
GENIUS_GENOBJ-NBEHI-BHF_13
 70
     0
  0
APPID
  2
GENIUS_GENOBJ-NBEHI-BHB_13
 70
     0
  0
APPID
  2
GENIUS_GENOBJ-F-PART_13
 70
     0
  0
APPID
  2
GENIUS_GEFSTDP_13
 70
     0
  0
APPID
  2
GENIUS_GEFINERT_13
 70
     0
  0
APPID
  2
GENIUS_GENOBJ-F-INER_13
 70
     0
  0
APPID
  2
GENIUS_GENOBJ-F-TOL_13
 70
     0
  0
APPID
  2
GENIUS_GENCFG_13
 70
     0
  0
APPID
  2
GENIUS_GEVCFG0_13
 70
     0
  0
APPID
  2
GENIUS_GENCFG0_13
 70
     0
  0
APPID
  2
GENIUS_GENCFG1_13
 70
     0
  0
APPID
  2
GENIUS_GENCFG2_13
 70
     0
  0
APPID
  2
GENIUS_GENCFG3_13
 70
     0
  0
APPID
  2
GENIUS_GENREC_13
 70
     0
  0
APPID
  2
GENIUS_GENOBJ-N-REC_13
 70
     0
  0
APPID
  2
GENIUS_GENOBJ-N-CEN_13
 70
     0
  0
APPID
  2
GEVIT
 70
     0
  0
APPID
  2
GENIUS_GENOBJ-F-ROD_13
 70
     0
  0
APPID
  2
GENIUS_GENOBJ-F-SPR_13
 70
     0
  0
APPID
  2
GENIUS_GEFSPRING_13
 70
     0
  0
APPID
  2
GENIUS_GENOBJ-N-FITL_13
 70
     0
  0
APPID
  2
GENIUS_GENFIL_13
 70
     0
  0
APPID
  2
GENIUS_GENOBJ-N-CHA_13
 70
     0
  0
APPID
  2
GENIUS_GENOBJ-F-EDG_13
 70
     0
  0
APPID
  2
GENIUS_GEFPARTINS_13
 70
     0
  0
APPID
  2
ACAD_EXEMPT_FROM_CAD_STANDARDS
 70
     0
  0
APPID
  2
ACAD_DSTYLE_DIMRADIAL_EXTENSION
 70
     0
  0
APPID
  2
ACAD_MLEADERVER
 70
     0
  0
APPID
  2
ACAD_NAV_VCDISPLAY
 70
     0
  0
ENDTAB
  0
TABLE
  2
DIMSTYLE
 70
     1
  0
DIMSTYLE
  2
STANDARD
 70
     0
  3

  4

  5

  6

  7

 40
1.0
 41
0.18
 42
0.0625
 43
0.38
 44
0.18
 45
0.0
 46
0.0
 47
0.0
 48
0.0
140
0.18
141
0.09
142
0.0
143
25.399999999999999
144
1.0
145
0.0
146
1.0
147
0.09
 71
     0
 72
     0
 73
     1
 74
     1
 75
     0
 76
     0
 77
     0
 78
     0
170
     0
171
     2
172
     0
173
     0
174
     0
175
     0
176
     0
177
     0
178
     0
  0
ENDTAB
  0
ENDSEC
  0
SECTION
  2
BLOCKS
  0
BLOCK
  8
0
  2
$MODEL_SPACE
 70
     0
 10
0.0
 20
0.0
 30
0.0
  3
$MODEL_SPACE
  1

  0
ENDBLK
  5
9D1
  8
0
  0
BLOCK
 67
     1
  8
0
  2
$PAPER_SPACE
 70
     0
 10
0.0
 20
0.0
 30
0.0
  3
$PAPER_SPACE
  1

  0
ENDBLK
  5
9CF
 67
     1
  8
0
  0
ENDSEC
  0
SECTION
  2
ENTITIES
  0
LINE
  5
79E
  8
0
 10
169.50000329417091
 20
296.79932453882219
 30
0.0
 11
169.50000329417071
 21
268.79932453882219
 31
0.0
  0
LINE
  5
79F
  8
0
 10
137.90592341913541
 20
268.79932453882537
 30
0.0
 11
169.50000329417071
 21
268.7993245388331
 31
0.0
  0
LINE
  5
7A0
  8
0
 10
137.40000939724689
 20
296.79932453882492
 30
0.0
 11
169.50000329417091
 21
296.79932453882219
 31
0.0
  0
LINE
  5
7A1
  8
0
 10
82.094083169207664
 20
268.79932453882242
 30
0.0
 11
50.50000329417071
 21
268.7993245388231
 31
0.0
  0
LINE
  5
7A2
  8
0
 10
50.50000329417071
 20
296.79932453882219
 30
0.0
 11
50.50000329417071
 21
268.79932453882219
 31
0.0
  0
LINE
  5
7A3
  8
1
 10
258.99852874784779
 20
282.29945245148969
 30
0.0
 11
222.5004539600144
 21
282.29888528150309
 31
0.0
  0
LINE
  5
7A4
  8
1
 10
260.80012497546539
 20
283.29948044791831
 30
0.0
 11
240.80137730191109
 21
283.2991696729112
 31
0.0
  0
LINE
  5
7A5
  8
0
 10
253.9988092939785
 20
268.7993747556024
 30
0.0
 11
253.99837418172351
 21
296.79937475222158
 31
0.0
  0
LINE
  5
7A7
  8
0
 10
250.0002570135301
 20
268.79936335684067
 30
0.0
 11
250.0002570135301
 21
296.79931262214569
 31
0.0
  0
LINE
  5
7AA
  8
1
 10
240.0032317534955
 20
318.29922948883461
 30
0.0
 11
240.00323175347501
 21
214.99960890742119
 31
0.0
1001
GENIUS_GENODEF_13
1002
{
1000
HIER
1070
     0
1002
}
1002
{
1000
MANEDIT
1070
     0
1002
}
1002
{
1000
NOSEL
1070
     0
1002
}
1002
{
1000
BEHIND
1070
     0
1002
}
1002
{
1000
REACTOR
1002
}
1001
GENIUS_GENOBJ-N-CEN_13
1002
{
1000
OWNER
1000
GEN
1002
}
  0
LINE
  5
7AB
  8
0
 10
230.00508620539159
 20
272.79922948896558
 30
0.0
 11
230.0050862053867
 21
291.79922948893471
 31
0.0
  0
LINE
  5
7AE
  8
0
 10
230.98763379897889
 20
292.7990771840914
 30
0.0
 11
234.50323175355101
 21
292.88692940493218
 31
0.0
  0
ARC
  5
7AF
  8
0
 10
231.0050862054164
 20
291.79922948890379
 30
0.0
 40
1.0
 50
90.999999999988745
 51
179.9999999982347
1001
GENIUS_GENODEF_13
1002
{
1000
HIER
1070
     0
1002
}
1002
{
1000
MANEDIT
1070
     0
1002
}
1002
{
1000
NOSEL
1070
     0
1002
}
1002
{
1000
BEHIND
1070
     0
1002
}
1002
{
1000
REACTOR
1002
}
1001
GENIUS_GENOBJ-N-FIL_13
1002
{
1000
OWNER
1000
GEN
1002
}
  0
ARC
  5
7B2
  8
0
 10
249.0013773015859
 20
291.79922948889248
 30
0.0
 40
1.0
 50
0.0000000016935818
 51
88.999999999939575
1001
GENIUS_GENODEF_13
1002
{
1000
HIER
1070
     0
1002
}
1002
{
1000
MANEDIT
1070
     0
1002
}
1002
{
1000
NOSEL
1070
     0
1002
}
1002
{
1000
BEHIND
1070
     0
1002
}
1002
{
1000
REACTOR
1002
}
1001
GENIUS_GENOBJ-N-FIL_13
1002
{
1000
OWNER
1000
GEN
1002
}
  0
LINE
  5
7B3
  8
0
 10
249.01882970802461
 20
292.79907718407998
 30
0.0
 11
245.5032317534525
 21
292.88692940492541
 31
0.0
  0
LINE
  5
7B4
  8
0
 10
238.00323175359711
 20
313.2992294888345
 30
0.0
 11
242.00323175342771
 21
313.2992294888345
 31
0.0
  0
ARC
  5
7B5
  8
0
 10
238.00323175359711
 20
309.79922948883461
 30
0.0
 40
3.5
 50
90.0
 51
179.9999999998445
1001
GENIUS_GENODEF_13
1002
{
1000
HIER
1070
     0
1002
}
1002
{
1000
MANEDIT
1070
     0
1002
}
1002
{
1000
NOSEL
1070
     0
1002
}
1002
{
1000
BEHIND
1070
     0
1002
}
1002
{
1000
REACTOR
1002
}
1001
GENIUS_GENOBJ-N-FIL_13
1002
{
1000
OWNER
1000
GEN
1002
}
  0
ARC
  5
7B6
  8
0
 10
242.00323175342771
 20
309.79922948883461
 30
0.0
 40
3.5
 50
0.0000000000838649
 51
90.0
1001
GENIUS_GENODEF_13
1002
{
1000
HIER
1070
     0
1002
}
1002
{
1000
MANEDIT
1070
     0
1002
}
1002
{
1000
NOSEL
1070
     0
1002
}
1002
{
1000
BEHIND
1070
     0
1002
}
1002
{
1000
REACTOR
1002
}
1001
GENIUS_GENOBJ-N-FIL_13
1002
{
1000
OWNER
1000
GEN
1002
}
  0
CIRCLE
  5
7B7
  8
0
 10
110.000003294164
 20
282.2996809035397
 30
0.0
 40
24.5
  0
ARC
  5
7B9
  8
0
 10
249.00137730158181
 20
272.7992294889695
 30
0.0
 40
1.0
 50
271.00000000003598
 51
359.99999999828168
1001
GENIUS_GENODEF_13
1002
{
1000
HIER
1070
     0
1002
}
1002
{
1000
MANEDIT
1070
     0
1002
}
1002
{
1000
NOSEL
1070
     0
1002
}
1002
{
1000
BEHIND
1070
     0
1002
}
1002
{
1000
REACTOR
1002
}
1001
GENIUS_GENOBJ-N-FIL_13
1002
{
1000
OWNER
1000
GEN
1002
}
  0
ARC
  5
7BA
  8
0
 10
231.0050862054124
 20
272.79922948896592
 30
0.0
 40
1.0
 50
180.0000000017406
 51
268.99999999998681
1001
GENIUS_GENODEF_13
1002
{
1000
HIER
1070
     0
1002
}
1002
{
1000
MANEDIT
1070
     0
1002
}
1002
{
1000
NOSEL
1070
     0
1002
}
1002
{
1000
BEHIND
1070
     0
1002
}
1002
{
1000
REACTOR
1002
}
1001
GENIUS_GENOBJ-N-FIL_13
1002
{
1000
OWNER
1000
GEN
1002
}
  0
LINE
  5
7BE
  8
0
 10
230.98763379897429
 20
271.79938179377842
 30
0.0
 11
234.5032317535464
 21
271.71152957293589
 31
0.0
  0
LINE
  5
7BF
  8
0
 10
249.01882970802001
 20
271.799381793782
 30
0.0
 11
245.50323175344801
 21
271.7115295729381
 31
0.0
  0
LINE
  5
7C0
  8
0
 10
238.00323175358369
 20
251.2992294890322
 30
0.0
 11
242.0032317534143
 21
251.29922948903041
 31
0.0
  0
ARC
  5
7C1
  8
0
 10
238.00323175358531
 20
254.79922948903231
 30
0.0
 40
3.5
 50
180.0000000001308
 51
269.9999999999755
1001
GENIUS_GENODEF_13
1002
{
1000
HIER
1070
     0
1002
}
1002
{
1000
MANEDIT
1070
     0
1002
}
1002
{
1000
NOSEL
1070
     0
1002
}
1002
{
1000
BEHIND
1070
     0
1002
}
1002
{
1000
REACTOR
1002
}
1001
GENIUS_GENOBJ-N-FIL_13
1002
{
1000
OWNER
1000
GEN
1002
}
  0
ARC
  5
7C2
  8
0
 10
242.00323175341589
 20
254.79922948903041
 30
0.0
 40
3.5
 50
269.9999999999755
 51
359.99999999989137
1001
GENIUS_GENODEF_13
1002
{
1000
HIER
1070
     0
1002
}
1002
{
1000
MANEDIT
1070
     0
1002
}
1002
{
1000
NOSEL
1070
     0
1002
}
1002
{
1000
BEHIND
1070
     0
1002
}
1002
{
1000
REACTOR
1002
}
1001
GENIUS_GENOBJ-N-FIL_13
1002
{
1000
OWNER
1000
GEN
1002
}
  0
LINE
  5
7C7
  8
0
 10
228.3013773016784
 20
273.29931263824483
 30
0.0
 11
230.00137730166929
 21
273.29931263824483
 31
0.0
  0
LINE
  5
7C8
  8
0
 10
227.50137730166929
 20
274.09931263825399
 30
0.0
 11
228.30137730166931
 21
273.29931263825392
 31
0.0
1001
GENIUS_GENODEF_13
1002
{
1000
HIER
1070
     0
1002
}
1002
{
1000
MANEDIT
1070
     0
1002
}
1002
{
1000
NOSEL
1070
     0
1002
}
1002
{
1000
BEHIND
1070
     0
1002
}
1002
{
1000
REACTOR
1002
}
1001
GENIUS_GENOBJ-N-CHA_13
1002
{
1000
OWNER
1000
GEN
1002
}
1001
GENIUS_GENFIL_13
1070
     0
1040
0.5
1040
0.5
1040
0.0
1040
0.0
1002
{
1002
}
  0
LINE
  5
7CA
  8
0
 10
228.30137730166931
 20
291.299312638245
 30
0.0
 11
228.30137730166931
 21
273.29931263825432
 31
0.0
  0
LINE
  5
7CC
  8
0
 10
227.50137730166929
 20
290.49931263823601
 30
0.0
 11
227.5013773016687
 21
274.09931263825479
 31
0.0
  0
LINE
  5
7CD
  8
0
 10
227.50137730166929
 20
290.49931263823589
 30
0.0
 11
228.30137730166931
 21
291.29931263823602
 31
0.0
1001
GENIUS_GENODEF_13
1002
{
1000
HIER
1070
     0
1002
}
1002
{
1000
MANEDIT
1070
     0
1002
}
1002
{
1000
NOSEL
1070
     0
1002
}
1002
{
1000
BEHIND
1070
     0
1002
}
1002
{
1000
REACTOR
1002
}
1001
GENIUS_GENOBJ-N-CHA_13
1002
{
1000
OWNER
1000
GEN
1002
}
1001
GENIUS_GENFIL_13
1070
     0
1040
0.5
1040
0.5
1040
0.0
1040
0.0
1002
{
1002
}
  0
LINE
  5
7CE
  8
0
 10
228.3013773016784
 20
291.299312638245
 30
0.0
 11
230.00137730166929
 21
291.299312638245
 31
0.0
  0
CIRCLE
  5
7CF
  8
0
 10
323.80073661122037
 20
283.29999999990508
 30
0.0
 40
8.0
  0
LINE
  5
7D0
  8
0
 10
326.30355002815742
 20
281.85499999990498
 30
0.0
 11
323.80073661122037
 21
280.4099999999051
 31
0.0
  0
LINE
  5
7D1
  8
0
 10
323.80073661122037
 20
280.4099999999051
 30
0.0
 11
321.29792319428378
 21
281.85499999990412
 31
0.0
  0
LINE
  5
7D2
  8
0
 10
323.80073661122037
 20
286.18999999990513
 30
0.0
 11
326.30355002815742
 21
284.74499999990502
 31
0.0
  0
LINE
  5
7D3
  8
0
 10
321.29792319428378
 20
284.7449999999053
 30
0.0
 11
323.80073661122037
 21
286.18999999990513
 31
0.0
  0
LINE
  5
7D4
  8
0
 10
326.30355002815742
 20
284.74499999990502
 30
0.0
 11
326.30355002815742
 21
281.85499999990498
 31
0.0
  0
LINE
  5
7D5
  8
0
 10
321.29792319428378
 20
281.85499999990412
 30
0.0
 11
321.29792319428378
 21
284.7449999999053
 31
0.0
  0
LINE
  5
7D6
  8
0
 10
416.30355002815679
 20
284.7449999999053
 30
0.0
 11
413.80073661122032
 21
286.18999999990513
 31
0.0
  0
LINE
  5
7D7
  8
0
 10
413.80073661122032
 20
280.4099999999051
 30
0.0
 11
416.30355002815679
 21
281.85499999990412
 31
0.0
  0
CIRCLE
  5
7D8
  8
0
 10
413.80073661122032
 20
283.29999999990508
 30
0.0
 40
8.0
  0
LINE
  5
7D9
  8
0
 10
416.30355002815679
 20
281.85499999990412
 30
0.0
 11
416.30355002815679
 21
284.7449999999053
 31
0.0
  0
LINE
  5
7DA
  8
0
 10
411.29792319428333
 20
284.74499999990502
 30
0.0
 11
411.29792319428333
 21
281.85499999990498
 31
0.0
  0
LINE
  5
7DB
  8
0
 10
413.80073661122032
 20
286.18999999990513
 30
0.0
 11
411.29792319428333
 21
284.74499999990502
 31
0.0
  0
LINE
  5
7DC
  8
0
 10
411.29792319428333
 20
281.85499999990498
 30
0.0
 11
413.80073661122032
 21
280.4099999999051
 31
0.0
  0
LINE
  5
7DD
  8
0
 10
61.247226544438043
 20
289.7996809036058
 30
0.0
 11
57.494449794705361
 21
283.29968090360592
 31
0.0
  0
LINE
  5
7DE
  8
0
 10
57.494449794705361
 20
283.29968090360592
 30
0.0
 11
61.247226544438263
 21
276.79968090360592
 31
0.0
  0
LINE
  5
7DF
  8
0
 10
68.752780043903158
 20
276.79968090360592
 30
0.0
 11
72.505556793635705
 21
283.29968090360592
 31
0.0
  0
LINE
  5
7E0
  8
0
 10
61.247226544438263
 20
276.79968090360592
 30
0.0
 11
68.752780043903158
 21
276.79968090360592
 31
0.0
  0
LINE
  5
7E1
  8
0
 10
72.505556793635705
 20
283.29968090360592
 30
0.0
 11
68.752780043902703
 21
289.7996809036058
 31
0.0
  0
LINE
  5
7E2
  8
0
 10
68.752780043902703
 20
289.7996809036058
 30
0.0
 11
61.247226544438043
 21
289.7996809036058
 31
0.0
  0
LINE
  5
7E3
  8
0
 10
151.24722654443889
 20
289.7996809036058
 30
0.0
 11
158.75278004390361
 21
289.7996809036058
 31
0.0
  0
LINE
  5
7E4
  8
0
 10
158.75278004390341
 20
276.79968090360592
 30
0.0
 11
151.24722654443849
 21
276.79968090360592
 31
0.0
  0
LINE
  5
7E5
  8
0
 10
151.24722654443849
 20
276.79968090360592
 30
0.0
 11
147.4944497947059
 21
283.29968090360592
 31
0.0
  0
LINE
  5
7E6
  8
0
 10
147.4944497947059
 20
283.29968090360592
 30
0.0
 11
151.24722654443889
 21
289.7996809036058
 31
0.0
  0
LINE
  5
7E7
  8
0
 10
162.50555679363629
 20
283.29968090360592
 30
0.0
 11
158.75278004390341
 21
276.79968090360592
 31
0.0
  0
LINE
  5
7E8
  8
0
 10
158.75278004390361
 20
289.7996809036058
 30
0.0
 11
162.50555679363629
 21
283.29968090360592
 31
0.0
  0
ARC
  5
7E9
  8
0
 10
368.80073661125653
 20
282.2992294888216
 30
0.0
 40
24.500000000044171
 50
51.223805580705147
 51
128.7761944192948
  0
ARC
  5
7EA
  8
0
 10
368.80073661125613
 20
282.2992294889678
 30
0.0
 40
30.999999999866748
 50
38.034371942243837
 51
141.96562805775611
  0
LINE
  5
7EB
  8
0
 10
50.000000000003183
 20
243.99968090358431
 30
0.0
 11
170.00000000001361
 21
243.9996809036389
 31
0.0
  0
LINE
  5
7EC
  8
0
 10
50.00000000000864
 20
235.9996809036391
 30
0.0
 11
170.0000000000102
 21
235.99968090358519
 31
0.0
  0
LINE
  5
7ED
  8
0
 10
428.80073661127602
 20
301.39938643302418
 30
0.0
 11
308.80073661123629
 21
301.39938643302418
 31
0.0
  0
LINE
  5
7EE
  8
0
 10
134.41723591142349
 20
301.39938643306181
 30
0.0
 11
170.00000000003931
 21
301.39938643307789
 31
0.0
  0
LINE
  5
7EF
  8
0
 10
428.80073661120372
 20
220.0000000000596
 30
0.0
 11
308.8007366112011
 21
220.00000000000591
 31
0.0
  0
LINE
  5
7F0
  8
0
 10
50.0
 20
219.99968090363299
 30
0.0
 11
170.0000000000029
 21
219.9996809035791
 31
0.0
  0
LINE
  5
7F1
  8
0
 10
49.999999999983629
 20
256.9418292092617
 30
0.0
 11
170.0000000000193
 21
256.9418292092617
 31
0.0
  0
LINE
  5
7F2
  8
1
 10
263.80079784512822
 20
239.99952707231111
 30
0.0
 11
215.00150991471341
 21
239.9987687448733
 31
0.0
1001
GENIUS_GENOREF_13
1005
0
  0
LINE
  5
7F3
  8
0
 10
308.8007366112011
 20
220.0000000000596
 30
0.0
 11
308.80073661116438
 21
301.39938643302412
 31
0.0
  0
LINE
  5
7F4
  8
0
 10
308.8007366112011
 20
220.0000000000596
 30
0.0
 11
308.80073661120031
 21
301.39938643302412
 31
0.0
  0
LINE
  5
7F5
  8
0
 10
254.0006645227719
 20
268.74937478442092
 30
0.0
 11
254.0002897783983
 21
292.86462860164642
 31
0.0
  0
ARC
  5
7F6
  8
0
 10
229.26269304735649
 20
211.84697311106879
 30
0.0
 40
24.999999999999979
 50
34.669850964629831
 51
51.357560446795063
  0
ARC
  5
7F7
  8
0
 10
250.74040448478959
 20
211.8473068687687
 30
0.0
 40
24.999999999998131
 50
128.64422027434901
 51
145.3319297565134
  0
LINE
  5
7F8
  8
0
 10
220.00167259486639
 20
224.0489208869258
 30
0.0
 11
220.00150991410979
 21
234.517624358891
 31
0.0
  0
LINE
  5
7F9
  8
0
 10
258.79988238488062
 20
298.91046247578657
 30
0.0
 11
258.80104570316382
 21
224.049523818452
 31
0.0
  0
ARC
  5
7FA
  8
0
 10
254.8013599252987
 20
223.999387221603
 30
0.0
 40
4.0000000000000018
 50
269.22525140409363
 51
0.7181726552278135
  0
LINE
  5
7FB
  8
0
 10
234.52019991056079
 20
220.00500155547971
 30
0.0
 11
224.05149652586769
 21
219.99922282025631
 31
0.0
  0
ARC
  5
7FC
  8
0
 10
224.0013599290175
 20
223.99890859812149
 30
0.0
 40
3.9999999999999969
 50
179.28360806589271
 51
270.718172655243
  0
ARC
  5
7FD
  8
0
 10
234.50139868674151
 20
221.5048837221795
 30
0.0
 40
1.500000000000465
 50
270.7181726552609
 51
0.0008903605199369
  0
LINE
  5
7FE
  8
0
 10
231.0013521583106
 20
224.49901737612501
 30
0.0
 11
235.00135215782771
 21
224.49907953501881
 31
0.0
  0
ARC
  5
7FF
  8
0
 10
231.00133661858709
 20
225.4990173760043
 30
0.0
 40
1.0000000000000011
 50
145.33192975650411
 51
270.00089036056693
  0
ARC
  5
800
  8
0
 10
235.00136769755031
 20
223.4990795351394
 30
0.0
 40
1.0000000000000879
 50
0.0008903605721489
 51
90.000890360532665
  0
LINE
  5
801
  8
0
 10
236.0013676974298
 20
223.49909507486291
 30
0.0
 11
236.001398686561
 21
221.50490703176351
 31
0.0
  0
ARC
  5
802
  8
0
 10
249.00133661641379
 20
225.49929709102591
 30
0.0
 40
1.0
 50
270.00089036056693
 51
34.669850964629831
  0
LINE
  5
803
  8
0
 10
254.74727391803921
 20
219.9997529003407
 30
0.0
 11
245.48111651944791
 21
219.9996089068176
 31
0.0
  0
ARC
  5
804
  8
0
 10
245.50139877217029
 20
221.49947177729089
 30
0.0
 40
1.5000000000000011
 50
180.00089036056701
 51
269.22525140409363
  0
ARC
  5
805
  8
0
 10
245.00136769634389
 20
223.49923493237341
 30
0.0
 40
1.0000000000002549
 50
90.000890360581522
 51
180.0008903605422
  0
LINE
  5
806
  8
0
 10
244.00139877235151
 20
221.49944846770569
 30
0.0
 11
244.0013676964644
 21
223.49921939265039
 31
0.0
  0
LINE
  5
807
  8
0
 10
245.0013521566201
 20
224.4992349322529
 30
0.0
 11
249.00135215613719
 21
224.4992970911467
 31
0.0
  0
LINE
  5
808
  8
0
 10
219.9937710753596
 20
245.47798983007229
 30
0.0
 11
220.0011297367268
 21
254.36408561628349
 31
0.0
  0
ARC
  5
809
  8
0
 10
240.10085799400159
 20
256.29915878378711
 30
0.0
 40
10.60000000000535
 50
269.69853448584348
 51
0.0008903605388676
  0
ARC
  5
80A
  8
0
 10
211.84926092851529
 20
229.25986403848569
 30
0.0
 40
24.999999999998082
 50
38.644220274349273
 51
55.331929756512537
  0
ARC
  5
80B
  8
0
 10
225.50097143575081
 20
248.99893190468799
 30
0.0
 40
1.0
 50
55.331929756504522
 51
180.0008903605669
  0
LINE
  5
80C
  8
0
 10
224.26273452649309
 20
256.17255242708057
 30
0.0
 11
231.12111801012711
 21
249.35987483306769
 31
0.0
  0
ARC
  5
80D
  8
0
 10
268.15329541220268
 20
229.2607389876101
 30
0.0
 40
24.999999999998131
 50
124.66985096462059
 51
141.35756044678459
  0
ARC
  5
80E
  8
0
 10
254.50097143225011
 20
248.99938255666819
 30
0.0
 40
1.0000000000000011
 50
0.00089036056706
 51
124.6698509646304
  0
CIRCLE
  5
80F
  8
0
 10
240.00111129150929
 20
239.9991572317644
 30
0.0
 40
3.399999999999999
  0
LINE
  5
810
  8
0
 10
239.70123172440361
 20
232.2491525707853
 30
0.0
 11
237.6262081449851
 21
232.24912032549059
 31
0.0
  0
ARC
  5
811
  8
0
 10
240.00082691474299
 20
258.29915722981838
 30
0.0
 40
12.59999999998303
 50
225.19155388176901
 51
270.27438118990619
  0
LINE
  5
812
  8
0
 10
232.25114819965751
 20
237.62401321952561
 30
0.0
 11
232.25107438523571
 21
242.37406037829419
 31
0.0
  0
ARC
  5
813
  8
0
 10
211.8489271708153
 20
250.73757547591859
 30
0.0
 40
25.000000000000028
 50
304.66985096463043
 51
321.35756044679408
  0
LINE
  5
814
  8
0
 10
224.50118899199941
 20
234.99891636665501
 30
0.0
 11
224.50125115089321
 21
230.99891636713801
 31
0.0
  0
ARC
  5
815
  8
0
 10
225.50125115077239
 20
230.99893190686129
 30
0.0
 40
1.0000000000000011
 50
180.0008903605669
 51
304.66985096463043
  0
ARC
  5
816
  8
0
 10
223.50118899211989
 20
234.9989008269313
 30
0.0
 40
1.0000000000002589
 50
0.0008903605819196
 51
90.000890360542428
  0
ARC
  5
817
  8
0
 10
221.50139266441661
 20
234.49886975058939
 30
0.0
 40
1.5
 50
90.000890360566856
 51
179.28360806589279
  0
LINE
  5
818
  8
0
 10
221.50136935483141
 20
235.9988697504082
 30
0.0
 11
223.5011734523967
 21
235.9989008268108
 31
0.0
  0
ARC
  5
819
  8
0
 10
237.62627030387679
 20
228.24912032597419
 30
0.0
 40
3.999999999999388
 50
90.000890360539174
 51
128.6442202743242
  0
ARC
  5
81A
  8
0
 10
228.25114820014201
 20
237.62395106063281
 30
0.0
 40
3.9999999999984359
 50
321.35756044676708
 51
0.0008903605530147
  0
ARC
  5
81B
  8
0
 10
223.5010335948858
 20
244.9989008257248
 30
0.0
 40
1.0000000000000879
 50
270.00089036057182
 51
0.0008903605326591
  0
ARC
  5
81C
  8
0
 10
221.49362574628739
 20
245.49886963122179
 30
0.0
 40
1.500000000000002
 50
180.79757541343
 51
270.00089036056693
  0
LINE
  5
81D
  8
0
 10
223.50104913460939
 20
243.9989008258454
 30
0.0
 11
221.49364905587271
 21
243.99886963140281
 31
0.0
  0
LINE
  5
81E
  8
0
 10
224.50097143587149
 20
248.9989163649646
 30
0.0
 11
224.50103359476529
 21
244.99891636544751
 31
0.0
  0
ARC
  5
81F
  8
0
 10
228.2510743857207
 20
242.37399821939829
 30
0.0
 40
3.999999999999388
 50
0.0008903605390711
 51
38.644220274325491
  0
LINE
  5
821
  8
0
 10
247.75114819778551
 20
237.6242540852395
 30
0.0
 11
247.75107438336639
 21
242.37430124400601
 31
0.0
  0
LINE
  5
822
  8
0
 10
255.5009714321294
 20
248.9993980963915
 30
0.0
 11
255.50125114715101
 21
230.99939809856491
 31
0.0
  0
ARC
  5
823
  8
0
 10
268.15296165450729
 20
250.73845042504379
 30
0.0
 40
24.999999999998121
 50
218.64422027434929
 51
235.33192975651249
  0
ARC
  5
824
  8
0
 10
242.37631746264231
 20
228.2491941403955
 30
0.0
 40
3.9999999999984399
 50
51.357560446766179
 51
90.000890360553825
  0
LINE
  5
825
  8
0
 10
242.3762553037497
 20
232.249194139911
 30
0.0
 11
240.30123172433321
 21
232.24916189461709
 31
0.0
  0
LINE
  5
826
  8
0
 10
240.30123172433321
 20
232.24916189461709
 30
0.0
 11
240.00122706245031
 21
232.549157232666
 31
0.0
  0
LINE
  5
827
  8
0
 10
240.00122706245031
 20
232.549157232666
 30
0.0
 11
239.70123172440361
 21
232.2491525707853
 31
0.0
  0
ARC
  5
828
  8
0
 10
251.75114819730189
 20
237.62431624413119
 30
0.0
 40
3.999999999999388
 50
180.00089036053899
 51
218.64422027432499
  0
ARC
  5
829
  8
0
 10
254.5012511472718
 20
230.9993825588414
 30
0.0
 40
0.9999999999999928
 50
235.33192975650451
 51
0.0008903605671618
  0
ARC
  5
82A
  8
0
 10
251.75107438288279
 20
242.37436340289969
 30
0.0
 40
3.999999999999388
 50
141.3575604468094
 51
180.00089036059489
  0
LINE
  5
82C
  8
0
 10
258.80079784573178
 20
239.99944937369401
 30
0.0
 11
258.80079784573178
 21
239.99944937369401
 31
0.0
  0
ARC
  5
82D
  8
0
 10
222.50088752160639
 20
254.3988852848658
 30
0.0
 40
2.4999999999999951
 50
45.19155388176906
 51
180.79757541343
  0
LINE
  5
82E
  8
0
 10
250.70085799272701
 20
256.29932350485018
 30
0.0
 11
250.7006769549493
 21
267.94932350343032
 31
0.0
  0
ARC
  5
830
  8
0
 10
253.20066452286861
 20
268.7493623526517
 30
0.0
 40
0.7999999999999982
 50
199.47211099551939
 51
0.0008903598891184
  0
ARC
  5
831
  8
0
 10
251.50067695485259
 20
267.94933593520898
 30
0.0
 40
0.7999999999999972
 50
90.000890360566856
 51
180.0008903605669
  0
LINE
  5
832
  8
0
 10
251.50066452307391
 20
268.74933593511253
 30
0.0
 11
252.069293673109
 21
268.74934477145217
 31
0.0
  0
ARC
  5
833
  8
0
 10
252.0692998889991
 20
268.3493447715
 30
0.0
 40
0.4000000000004845
 50
19.472110995616269
 51
90.000890360661302
  0
LINE
  5
834
  8
0
 10
170.0000000000029
 20
219.9996809035791
 30
0.0
 11
170.00000000003931
 21
301.39938643302418
 31
0.0
  0
LINE
  5
835
  8
0
 10
170.0000000000029
 20
219.99968090363279
 30
0.0
 11
170.00000000003931
 21
301.39938643302418
 31
0.0
  0
ARC
  5
836
  8
0
 10
256.29990681415558
 20
298.89941051764998
 30
0.0
 40
2.5000000000001301
 50
0.2532930428727733
 51
90.000890360563602
  0
ARC
  5
837
  8
0
 10
255.40023829445491
 20
296.1776934495357
 30
0.0
 40
0.8000000000000326
 50
0.0008903605446689
 51
110.000890364556
  0
ARC
  5
838
  8
0
 10
254.4002897783586
 20
292.86463481753452
 30
0.0
 40
0.4000000000085749
 50
70.000890360207976
 51
180.0008903603696
  0
LINE
  5
839
  8
0
 10
254.53709199465229
 20
293.24051399177
 30
0.0
 11
255.12667115717991
 21
293.02593510138843
 31
0.0
  0
ARC
  5
83A
  8
0
 10
255.40027558979381
 20
293.77769344983119
 30
0.0
 40
0.7999999999996034
 50
250.00089035774371
 51
0.000890360577136
  0
LINE
  5
83B
  8
0
 10
256.20027558969662
 20
293.77770588161019
 30
0.0
 11
256.20023829435843
 21
296.17770588131413
 31
0.0
  0
LINE
  5
83C
  8
0
 10
254.62823872249859
 20
296.79938454013728
 30
0.0
 11
250.0002570135301
 21
296.79931262256622
 31
0.0
  0
LINE
  5
83D
  8
0
 10
253.20015715089889
 20
301.39936234870009
 30
0.0
 11
256.29986796484729
 21
301.39941051734831
 31
0.0
  0
ARC
  5
83E
  8
0
 10
252.80022241778431
 20
297.19935613331057
 30
0.0
 40
0.399999999998883
 50
180.00089035954309
 51
270.00089036072808
  0
ARC
  5
83F
  8
0
 10
253.2001695826724
 20
300.59936234879859
 30
0.0
 40
0.7999999999980929
 50
90.000890360198824
 51
180.00089036070329
  0
LINE
  5
840
  8
0
 10
252.40022241783379
 20
297.19934991742838
 30
0.0
 11
252.4001695827709
 21
300.59934991701778
 31
0.0
  0
LINE
  5
841
  8
0
 10
255.1266104977243
 20
296.92944329413598
 30
0.0
 11
254.90185408749551
 21
296.84763469545709
 31
0.0
  0
ARC
  5
842
  8
0
 10
254.62822629071991
 20
297.59938454003742
 30
0.0
 40
0.7999999999968054
 50
270.00089036056357
 51
290.0008903680756
  0
LINE
  5
843
  8
0
 10
428.80073661120372
 20
220.0000000000596
 30
0.0
 11
428.80073661123998
 21
301.39938643302412
 31
0.0
  0
LINE
  5
844
  8
0
 10
428.80073661123993
 20
301.39938643302412
 30
0.0
 11
428.80073661118462
 21
220.0000000000596
 31
0.0
  0
LINE
  5
845
  8
0
 10
49.999999999963649
 20
301.39938643302418
 30
0.0
 11
50.000000000019547
 21
219.99968090363299
 31
0.0
  0
LINE
  5
846
  8
0
 10
50.0
 20
219.99968090363299
 30
0.0
 11
49.999999999963649
 21
301.39938643302418
 31
0.0
  0
LINE
  5
847
  8
0
 10
49.999999999963649
 20
301.39938643302418
 30
0.0
 11
85.582770676889652
 21
301.39938643302531
 31
0.0
  0
LINE
  5
849
  8
0
 10
250.0002570135301
 20
268.79936335684067
 30
0.0
 11
253.99880929318999
 21
268.79942549323732
 31
0.0
  0
LINE
  5
84A
  8
0
 10
50.50000329417071
 20
296.79932453882219
 30
0.0
 11
82.599997191093252
 21
296.79932453882219
 31
0.0
  0
ARC
  5
84B
  8
0
 10
110.0000032941708
 20
282.29968090360592
 30
0.0
 40
30.99999999995093
 50
305.11539219182481
 51
234.88460780817519
  0
LINE
  5
85C
  8
0
 10
220.0016056301437
 20
170.0000000000143
 30
0.0
 11
220.0016056301437
 21
49.999999999987871
 31
0.0
  0
LINE
  5
85D
  8
0
 10
258.80099457414269
 20
50.000000000011397
 30
0.0
 11
258.80099457406988
 21
170.0000000000143
 31
0.0
  0
LINE
  5
85E
  8
0
 10
220.0016056301437
 20
49.999999999987871
 30
0.0
 11
258.80099457406988
 21
50.000000000011397
 31
0.0
  0
LINE
  5
85F
  8
0
 10
220.00319325624429
 20
49.999999999987871
 30
0.0
 11
258.80099457406988
 21
50.000000000011397
 31
0.0
  0
LINE
  5
860
  8
0
 10
258.80094600115387
 20
363.29922948884712
 30
0.0
 11
258.80094600115387
 21
483.29922948885019
 31
0.0
  0
LINE
  5
861
  8
0
 10
220.00161881887331
 20
483.29922948885019
 30
0.0
 11
220.00161881887331
 21
363.29922948882358
 31
0.0
  0
LINE
  5
862
  8
0
 10
252.40019600030229
 20
363.2992294888432
 30
0.0
 11
252.4001960003751
 21
483.29922948885411
 31
0.0
  0
LINE
  5
864
  8
0
 10
250.0013773016708
 20
482.79922948883728
 30
0.0
 11
250.0013773016708
 21
363.79922948883728
 31
0.0
  0
LINE
  5
869
  8
0
 10
243.56637730166969
 20
382.29922948883728
 30
0.0
 11
243.56637730166969
 21
374.29922948883728
 31
0.0
  0
LINE
  5
86A
  8
0
 10
242.80137730166959
 20
375.0642294888371
 30
0.0
 11
242.80137730166959
 21
381.53422948883718
 31
0.0
  0
LINE
  5
86E
  8
0
 10
220.00161881887331
 20
363.29922948882358
 30
0.0
 11
258.80094600115387
 21
363.29922948884712
 31
0.0
  0
LINE
  5
870
  8
0
 10
243.56637730166969
 20
374.29922948883728
 30
0.0
 11
245.5013773016704
 21
374.29922948883728
 31
0.0
  0
LINE
  5
871
  8
1
 10
240.80137730166959
 20
378.29922948883728
 30
0.0
 11
260.80094600115387
 21
378.29922948883728
 31
0.0
  0
LINE
  5
872
  8
3
 10
245.5013773016704
 20
374.9640839495097
 30
0.0
 11
242.90152284099699
 21
374.96408394950959
 31
0.0
  0
LINE
  5
873
  8
0
 10
242.80137730166959
 20
375.0642294888371
 30
0.0
 11
243.56637730166969
 21
374.29922948883728
 31
0.0
  0
LINE
  5
874
  8
0
 10
250.0013773016708
 20
363.79922948883728
 30
0.0
 11
252.40019600030271
 21
363.79922948883819
 31
0.0
  0
ARC
  5
87F
  8
0
 10
242.00323175344559
 20
395.79922948894301
 30
0.0
 40
3.5
 50
269.9999999999755
 51
359.99999999989137
1001
GENIUS_GENODEF_13
1002
{
1000
HIER
1070
     0
1002
}
1002
{
1000
MANEDIT
1070
     0
1002
}
1002
{
1000
NOSEL
1070
     0
1002
}
1002
{
1000
BEHIND
1070
     0
1002
}
1002
{
1000
REACTOR
1002
}
1001
GENIUS_GENOBJ-N-FIL_13
1002
{
1000
OWNER
1000
GEN
1002
}
  0
LINE
  5
880
  8
0
 10
243.56637730166969
 20
382.29922948883728
 30
0.0
 11
245.5013773016704
 21
382.29922948883728
 31
0.0
  0
LINE
  5
881
  8
3
 10
245.5013773016704
 20
381.62272948883731
 30
0.0
 11
242.88987730166971
 21
381.62272948883742
 31
0.0
  0
ARC
  5
882
  8
0
 10
238.00323175361501
 20
395.79922948894477
 30
0.0
 40
3.5
 50
180.0000000001308
 51
269.9999999999755
1001
GENIUS_GENODEF_13
1002
{
1000
HIER
1070
     0
1002
}
1002
{
1000
MANEDIT
1070
     0
1002
}
1002
{
1000
NOSEL
1070
     0
1002
}
1002
{
1000
BEHIND
1070
     0
1002
}
1002
{
1000
REACTOR
1002
}
1001
GENIUS_GENOBJ-N-FIL_13
1002
{
1000
OWNER
1000
GEN
1002
}
  0
LINE
  5
883
  8
0
 10
242.80137730166959
 20
381.53422948883718
 30
0.0
 11
243.56637730166969
 21
382.29922948883728
 31
0.0
  0
LINE
  5
884
  8
0
 10
238.00323175361339
 20
392.29922948894477
 30
0.0
 11
242.003231753444
 21
392.29922948894301
 31
0.0
  0
LINE
  5
88B
  8
1
 10
240.00323175355331
 20
468.79922948884888
 30
0.0
 11
240.00323175347521
 21
377.79922948884888
 31
0.0
1001
GENIUS_GENODEF_13
1002
{
1000
HIER
1070
     0
1002
}
1002
{
1000
MANEDIT
1070
     0
1002
}
1002
{
1000
NOSEL
1070
     0
1002
}
1002
{
1000
BEHIND
1070
     0
1002
}
1002
{
1000
REACTOR
1002
}
1001
GENIUS_GENOBJ-N-CEN_13
1002
{
1000
OWNER
1000
GEN
1002
}
  0
LINE
  5
894
  8
1
 10
258.99852874784779
 20
423.29922948883882
 30
0.0
 11
222.50137730166909
 21
423.29922948883882
 31
0.0
  0
LINE
  5
898
  8
0
 10
230.98763379900399
 20
412.79938179369111
 30
0.0
 11
234.5032317535761
 21
412.71152957284841
 31
0.0
  0
LINE
  5
89A
  8
0
 10
227.50137730166921
 20
415.09922948884793
 30
0.0
 11
228.30137730166911
 21
414.29922948884769
 31
0.0
1001
GENIUS_GENODEF_13
1002
{
1000
HIER
1070
     0
1002
}
1002
{
1000
MANEDIT
1070
     0
1002
}
1002
{
1000
NOSEL
1070
     0
1002
}
1002
{
1000
BEHIND
1070
     0
1002
}
1002
{
1000
REACTOR
1002
}
1001
GENIUS_GENOBJ-N-CHA_13
1002
{
1000
OWNER
1000
GEN
1002
}
1001
GENIUS_GENFIL_13
1070
     0
1040
0.5
1040
0.5
1040
0.0
1040
0.0
1002
{
1002
}
  0
ARC
  5
89B
  8
0
 10
231.00508620544201
 20
413.79922948887838
 30
0.0
 40
1.0
 50
180.0000000017406
 51
268.99999999998681
1001
GENIUS_GENODEF_13
1002
{
1000
HIER
1070
     0
1002
}
1002
{
1000
MANEDIT
1070
     0
1002
}
1002
{
1000
NOSEL
1070
     0
1002
}
1002
{
1000
BEHIND
1070
     0
1002
}
1002
{
1000
REACTOR
1002
}
1001
GENIUS_GENOBJ-N-FIL_13
1002
{
1000
OWNER
1000
GEN
1002
}
  0
LINE
  5
89C
  8
0
 10
228.3013773016782
 20
414.29922948883859
 30
0.0
 11
230.00137730166921
 21
414.29922948883859
 31
0.0
  0
LINE
  5
8A0
  8
0
 10
230.98763379900859
 20
433.79907718400392
 30
0.0
 11
234.50323175358059
 21
433.88692940484481
 31
0.0
  0
LINE
  5
8A1
  8
0
 10
230.00508620542109
 20
413.79922948887821
 30
0.0
 11
230.00508620541629
 21
432.79922948884717
 31
0.0
  0
LINE
  5
8A2
  8
0
 10
228.30137730166911
 20
432.29922948883882
 30
0.0
 11
228.30137730166911
 21
414.29922948884769
 31
0.0
  0
LINE
  5
8A3
  8
0
 10
227.50137730166921
 20
431.49922948882971
 30
0.0
 11
227.50137730166901
 21
415.09922948884793
 31
0.0
  0
ARC
  5
8A4
  8
0
 10
231.0050862054461
 20
432.79922948881631
 30
0.0
 40
1.0
 50
90.999999999988745
 51
179.9999999982347
1001
GENIUS_GENODEF_13
1002
{
1000
HIER
1070
     0
1002
}
1002
{
1000
MANEDIT
1070
     0
1002
}
1002
{
1000
NOSEL
1070
     0
1002
}
1002
{
1000
BEHIND
1070
     0
1002
}
1002
{
1000
REACTOR
1002
}
1001
GENIUS_GENOBJ-N-FIL_13
1002
{
1000
OWNER
1000
GEN
1002
}
  0
LINE
  5
8A5
  8
0
 10
227.50137730166921
 20
431.49922948882971
 30
0.0
 11
228.30137730166911
 21
432.29922948882972
 31
0.0
1001
GENIUS_GENODEF_13
1002
{
1000
HIER
1070
     0
1002
}
1002
{
1000
MANEDIT
1070
     0
1002
}
1002
{
1000
NOSEL
1070
     0
1002
}
1002
{
1000
BEHIND
1070
     0
1002
}
1002
{
1000
REACTOR
1002
}
1001
GENIUS_GENOBJ-N-CHA_13
1002
{
1000
OWNER
1000
GEN
1002
}
1001
GENIUS_GENFIL_13
1070
     0
1040
0.5
1040
0.5
1040
0.0
1040
0.0
1002
{
1002
}
  0
LINE
  5
8A7
  8
0
 10
228.3013773016782
 20
432.29922948883882
 30
0.0
 11
230.00137730166921
 21
432.29922948883882
 31
0.0
  0
LINE
  5
8B2
  8
0
 10
249.01882970804971
 20
412.79938179369441
 30
0.0
 11
245.50323175347759
 21
412.71152957285062
 31
0.0
  0
ARC
  5
8B3
  8
0
 10
249.0013773016112
 20
413.79922948888202
 30
0.0
 40
1.0
 50
271.00000000003598
 51
359.99999999828168
1001
GENIUS_GENODEF_13
1002
{
1000
HIER
1070
     0
1002
}
1002
{
1000
MANEDIT
1070
     0
1002
}
1002
{
1000
NOSEL
1070
     0
1002
}
1002
{
1000
BEHIND
1070
     0
1002
}
1002
{
1000
REACTOR
1002
}
1001
GENIUS_GENOBJ-N-FIL_13
1002
{
1000
OWNER
1000
GEN
1002
}
  0
LINE
  5
8C7
  8
0
 10
249.0188297080542
 20
433.79907718399249
 30
0.0
 11
245.5032317534822
 21
433.88692940483799
 31
0.0
  0
ARC
  5
8C8
  8
0
 10
249.00137730161529
 20
432.799229488805
 30
0.0
 40
1.0
 50
0.0000000016935818
 51
88.999999999939575
1001
GENIUS_GENODEF_13
1002
{
1000
HIER
1070
     0
1002
}
1002
{
1000
MANEDIT
1070
     0
1002
}
1002
{
1000
NOSEL
1070
     0
1002
}
1002
{
1000
BEHIND
1070
     0
1002
}
1002
{
1000
REACTOR
1002
}
1001
GENIUS_GENOBJ-N-FIL_13
1002
{
1000
OWNER
1000
GEN
1002
}
  0
ARC
  5
8CB
  8
0
 10
242.00323175345741
 20
450.79922948874702
 30
0.0
 40
3.5
 50
0.0000000000838649
 51
90.0
1001
GENIUS_GENODEF_13
1002
{
1000
HIER
1070
     0
1002
}
1002
{
1000
MANEDIT
1070
     0
1002
}
1002
{
1000
NOSEL
1070
     0
1002
}
1002
{
1000
BEHIND
1070
     0
1002
}
1002
{
1000
REACTOR
1002
}
1001
GENIUS_GENOBJ-N-FIL_13
1002
{
1000
OWNER
1000
GEN
1002
}
  0
ARC
  5
8CC
  8
0
 10
238.00323175362681
 20
450.79922948874702
 30
0.0
 40
3.5
 50
90.0
 51
179.9999999998445
1001
GENIUS_GENODEF_13
1002
{
1000
HIER
1070
     0
1002
}
1002
{
1000
MANEDIT
1070
     0
1002
}
1002
{
1000
NOSEL
1070
     0
1002
}
1002
{
1000
BEHIND
1070
     0
1002
}
1002
{
1000
REACTOR
1002
}
1001
GENIUS_GENOBJ-N-FIL_13
1002
{
1000
OWNER
1000
GEN
1002
}
  0
LINE
  5
8CD
  8
0
 10
238.00323175362681
 20
454.2992294887469
 30
0.0
 11
242.00323175345741
 21
454.2992294887469
 31
0.0
  0
LINE
  5
8CF
  8
0
 10
258.80094600115387
 20
483.29922948885019
 30
0.0
 11
220.00161881887331
 21
483.29922948885019
 31
0.0
  0
LINE
  5
8D0
  8
0
 10
250.0013773016708
 20
482.79922948883728
 30
0.0
 11
252.40019600037479
 21
482.79922948883723
 31
0.0
  0
LINE
  5
8D3
  8
0
 10
244.0013789215453
 20
170.0000000000143
 30
0.0
 11
244.0013789215453
 21
50.000000000002423
 31
0.0
  0
LINE
  5
8D4
  8
0
 10
236.00137911576351
 20
170.0000000000143
 30
0.0
 11
236.00137911576351
 21
49.999999999997527
 31
0.0
  0
LINE
  5
8D5
  8
0
 10
220.0016056301437
 20
170.0000000000143
 30
0.0
 11
258.80099457406988
 21
170.0000000000143
 31
0.0
  0
ARC
  5
8D6
  8
0
 10
258.06515828536078
 20
378.29922948883888
 30
0.0
 40
12.41944341639239
 50
162.41204622600139
 51
197.5879537740073
  0
LINE
  5
8D7
  8
0
 10
245.5013773016704
 20
372.04922948883819
 30
0.0
 11
245.5013773016704
 21
384.54922948883637
 31
0.0
  0
LINE
  5
8D8
  8
0
 10
246.22627145256911
 20
370.79367598937313
 30
0.0
 11
250.0013773016704
 21
370.79367598937313
 31
0.0
  0
LINE
  5
8D9
  8
0
 10
246.22627145256959
 20
374.5464527391062
 30
0.0
 11
250.0013773016704
 21
374.54645273910438
 31
0.0
  0
LINE
  5
8DA
  8
0
 10
246.22627145256911
 20
370.79367598937313
 30
0.0
 11
245.5013773016704
 21
372.04922948883927
 31
0.0
  0
ARC
  5
8DB
  8
0
 10
248.96828444191831
 20
372.67006436423941
 30
0.0
 40
3.3225695729499738
 50
145.615752531959
 51
205.61575253217549
  0
LINE
  5
8DC
  8
0
 10
246.22627145256911
 20
385.8047829883028
 30
0.0
 11
250.0013773016704
 21
385.8047829883028
 31
0.0
  0
LINE
  5
8DD
  8
0
 10
246.22627145256891
 20
382.0520062385695
 30
0.0
 11
250.0013773016704
 21
382.05200623857149
 31
0.0
  0
LINE
  5
8DE
  8
0
 10
246.22627145256911
 20
385.8047829883028
 30
0.0
 11
245.5013773016704
 21
384.5492294888366
 31
0.0
  0
ARC
  5
8DF
  8
0
 10
248.96828444191831
 20
383.92839461343652
 30
0.0
 40
3.3225695729499738
 50
154.38424746782451
 51
214.38424746804091
  0
LINE
  5
8E2
  8
0
 10
243.56605979478221
 20
472.29924563506171
 30
0.0
 11
243.56605979478221
 21
464.29924563506171
 31
0.0
  0
LINE
  5
8E3
  8
0
 10
242.80105979478211
 20
465.06424563506158
 30
0.0
 11
242.80105979478211
 21
471.53424563506161
 31
0.0
  0
LINE
  5
8EA
  8
0
 10
245.5010597947828
 20
462.04924563506262
 30
0.0
 11
245.5010597947828
 21
474.5492456350608
 31
0.0
  0
ARC
  5
8EB
  8
0
 10
258.06484077847301
 20
468.2992456350633
 30
0.0
 40
12.41944341639239
 50
162.41204622600139
 51
197.5879537740073
  0
LINE
  5
8ED
  8
3
 10
245.5010597947828
 20
464.96410009573412
 30
0.0
 11
242.90120533410951
 21
464.96410009573412
 31
0.0
  0
LINE
  5
8EE
  8
0
 10
243.56605979478221
 20
464.29924563506171
 30
0.0
 11
245.5010597947828
 21
464.29924563506171
 31
0.0
  0
LINE
  5
8EF
  8
0
 10
242.80105979478211
 20
465.06424563506158
 30
0.0
 11
243.56605979478221
 21
464.29924563506171
 31
0.0
  0
ARC
  5
8F3
  8
0
 10
248.96796693503069
 20
462.67008051046378
 30
0.0
 40
3.3225695729499738
 50
145.615752531959
 51
205.61575253217549
  0
LINE
  5
8F4
  8
0
 10
246.2259539456816
 20
460.7936921355975
 30
0.0
 11
245.5010597947828
 21
462.0492456350637
 31
0.0
  0
LINE
  5
8F5
  8
0
 10
246.2259539456816
 20
460.7936921355975
 30
0.0
 11
250.0010597947828
 21
460.7936921355975
 31
0.0
  0
LINE
  5
8F9
  8
0
 10
246.22595394568199
 20
464.54646888533063
 30
0.0
 11
250.0010597947828
 21
464.54646888532869
 31
0.0
  0
LINE
  5
8FC
  8
1
 10
240.80105979478199
 20
468.29924563506171
 30
0.0
 11
260.80094600115387
 21
468.29924563506171
 31
0.0
  0
LINE
  5
8FD
  8
3
 10
245.5010597947828
 20
471.62274563506168
 30
0.0
 11
242.8895597947822
 21
471.62274563506168
 31
0.0
  0
LINE
  5
8FE
  8
0
 10
243.56605979478221
 20
472.29924563506171
 30
0.0
 11
245.5010597947828
 21
472.29924563506171
 31
0.0
  0
LINE
  5
8FF
  8
0
 10
242.80105979478211
 20
471.53424563506161
 30
0.0
 11
243.56605979478221
 21
472.29924563506171
 31
0.0
  0
ARC
  5
903
  8
0
 10
248.96796693503069
 20
473.92841075966089
 30
0.0
 40
3.3225695729499738
 50
154.38424746782451
 51
214.38424746804091
  0
LINE
  5
904
  8
0
 10
246.2259539456816
 20
475.80479913452717
 30
0.0
 11
245.5010597947828
 21
474.54924563506103
 31
0.0
  0
LINE
  5
908
  8
0
 10
246.22595394568131
 20
472.05202238479387
 30
0.0
 11
250.0010597947828
 21
472.05202238479598
 31
0.0
  0
LINE
  5
90B
  8
0
 10
246.2259539456816
 20
475.80479913452717
 30
0.0
 11
250.0010597947828
 21
475.80479913452717
 31
0.0
  0
LINE
  5
90D
  8
0
 10
245.50323175345741
 20
450.79922948875219
 30
0.0
 11
245.50323175344559
 21
395.79922948893642
 31
0.0
  0
LINE
  5
90E
  8
0
 10
234.50323175362681
 20
450.79922948875651
 30
0.0
 11
234.50323175361501
 21
395.7992294889367
 31
0.0
  0
LINE
  5
924
  8
0
 10
245.64509753113481
 20
276.79968090360592
 30
0.0
 11
250.0007599638366
 21
276.79968090360592
 31
0.0
  0
LINE
  5
927
  8
0
 10
245.64509753113481
 20
289.79968090360541
 30
0.0
 11
250.0007599638366
 21
289.79968090360541
 31
0.0
  0
LINE
  5
928
  8
0
 10
246.22565411473539
 20
283.29968090360569
 30
0.0
 11
250.00025701352999
 21
283.29968090360558
 31
0.0
  0
LINE
  5
92A
  8
0
 10
245.5007599638366
 20
277.04928329672413
 30
0.0
 11
245.5007599638368
 21
289.54928329672163
 31
0.0
  0
ARC
  5
92B
  8
0
 10
255.03224966638331
 20
280.0496809036058
 30
0.0
 40
9.3871521352487513
 50
159.74384199958271
 51
200.2561580004172
  0
LINE
  5
92C
  8
0
 10
245.5007599638366
 20
277.049680903607
 30
0.0
 11
245.5007599638366
 21
289.54968090360433
 31
0.0
  0
LINE
  5
92D
  8
0
 10
245.64509753113481
 20
276.79968090360592
 30
0.0
 11
245.5007599638366
 21
277.049680903607
 31
0.0
  0
LINE
  5
92E
  8
3
 10
245.50074532929401
 20
286.62302706708857
 30
0.0
 11
242.8897955958943
 21
286.62298649365192
 31
0.0
  0
LINE
  5
92F
  8
0
 10
243.56631514268361
 20
287.29952706662129
 30
0.0
 11
245.50074532929401
 21
287.29952706708838
 31
0.0
  0
LINE
  5
930
  8
0
 10
242.8013270306644
 20
286.5345151788253
 30
0.0
 11
243.56631514268361
 21
287.29952706662129
 31
0.0
  0
LINE
  5
931
  8
0
 10
245.64509753113481
 20
289.79968090360541
 30
0.0
 11
245.5007599638366
 21
289.54968090360433
 31
0.0
  0
ARC
  5
932
  8
0
 10
255.03224966638331
 20
286.54968090360541
 30
0.0
 40
9.3871521352487513
 50
159.74384199958271
 51
200.2561580004172
  0
LINE
  5
933
  8
3
 10
245.50074532882681
 20
279.97602706708841
 30
0.0
 11
242.8897074509091
 21
279.975986492282
 31
0.0
  0
LINE
  5
934
  8
0
 10
243.5664394604708
 20
279.29952706708838
 30
0.0
 11
245.50074532929389
 21
279.29952706708849
 31
0.0
  0
LINE
  5
935
  8
0
 10
242.8014275722077
 20
280.06423081227678
 30
0.0
 11
243.5664394604708
 21
279.29952706708838
 31
0.0
  0
LINE
  5
936
  8
0
 10
242.8013270306644
 20
286.53420075196738
 30
0.0
 11
242.8014275722077
 21
280.06423081227678
 31
0.0
  0
LINE
  5
937
  8
0
 10
243.5664394604708
 20
279.29952706708838
 30
0.0
 11
243.56631514268361
 21
287.29952706612249
 31
0.0
  0
LINE
  5
949
  8
1
 10
333.30629011068572
 20
283.29999999990508
 30
0.0
 11
314.29518311175502
 21
283.29999999990508
 31
0.0
  0
LINE
  5
94A
  8
1
 10
323.80073661122037
 20
292.80555349937038
 30
0.0
 11
323.80073661122037
 21
273.79444650043968
 31
0.0
  0
LINE
  5
94B
  8
1
 10
423.30629011068578
 20
283.29999999990508
 30
0.0
 11
404.29518311175508
 21
283.29999999990508
 31
0.0
  0
LINE
  5
94C
  8
1
 10
413.80073661122032
 20
292.80555349937038
 30
0.0
 11
413.80073661122032
 21
273.79444650043968
 31
0.0
  0
LINE
  5
94D
  8
1
 10
404.80073661108679
 20
282.30000000003292
 30
0.0
 11
332.80073661135339
 21
282.30000000003292
 31
0.0
  0
LINE
  5
94E
  8
1
 10
368.8007366112202
 20
318.29999999989963
 30
0.0
 11
368.8007366112202
 21
246.30000000016611
 31
0.0
  0
CIRCLE
  5
94F
  8
0
 10
65.00000329417071
 20
283.29968090360597
 30
0.0
 40
6.25
  0
CIRCLE
  5
950
  8
3
 10
65.00000329417071
 20
283.29968090360597
 30
0.0
 40
3.3233461634825971
  0
CIRCLE
  5
951
  8
0
 10
65.00000329417071
 20
283.29968090360597
 30
0.0
 40
3.9998461634825162
  0
CIRCLE
  5
952
  8
0
 10
155.00000329417091
 20
283.29968090360592
 30
0.0
 40
6.25
  0
CIRCLE
  5
954
  8
3
 10
155.00000329417091
 20
283.29968090360592
 30
0.0
 40
3.3233461634827099
  0
CIRCLE
  5
955
  8
0
 10
110.0000032941708
 20
282.29968090353287
 30
0.0
 40
8.1996317347030185
  0
CIRCLE
  5
956
  8
0
 10
110.0000032941708
 20
282.29968090353287
 30
0.0
 40
8.9996317347121817
  0
CIRCLE
  5
957
  8
0
 10
110.0000032941708
 20
282.29968090353287
 30
0.0
 40
10.58724850139936
  0
POLYLINE
  5
958
  8
0
 66
     1
 10
0.0
 20
0.0
 30
0.0
 70
     1
  0
VERTEX
  5
959
  8
0
 10
107.49718987723379
 20
280.85468090345972
 30
0.0
  0
VERTEX
  5
95A
  8
0
 10
110.0000032941708
 20
279.40968090345979
 30
0.0
  0
VERTEX
  5
95B
  8
0
 10
112.5028167111078
 20
280.85468090345972
 30
0.0
  0
VERTEX
  5
95C
  8
0
 10
112.5028167111078
 20
283.7446809034596
 30
0.0
  0
VERTEX
  5
95D
  8
0
 10
110.0000032941708
 20
285.1896809034597
 30
0.0
  0
VERTEX
  5
95E
  8
0
 10
107.49718987723379
 20
283.7446809034596
 30
0.0
  0
SEQEND
  5
95F
  8
0
  0
LINE
  5
960
  8
1
 10
146.00000329412171
 20
282.29968090360592
 30
0.0
 11
74.000003294219937
 21
282.29968090360592
 31
0.0
  0
LINE
  5
961
  8
1
 10
110.0000032941708
 20
318.2996809035568
 30
0.0
 11
110.0000032941708
 21
246.299680903655
 31
0.0
  0
LINE
  5
962
  8
1
 10
164.50555679363629
 20
283.29968090360592
 30
0.0
 11
145.49444979470559
 21
283.29968090360592
 31
0.0
  0
LINE
  5
963
  8
1
 10
155.00000329417091
 20
292.80523440307121
 30
0.0
 11
155.00000329417091
 21
273.79412740414051
 31
0.0
  0
LINE
  5
964
  8
1
 10
74.50555679363606
 20
283.29968090360597
 30
0.0
 11
55.494449794705361
 21
283.29968090360597
 31
0.0
  0
LINE
  5
965
  8
1
 10
65.00000329417071
 20
292.80523440307132
 30
0.0
 11
65.00000329417071
 21
273.79412740414062
 31
0.0
  0
LINE
  5
966
  8
0
 10
234.50323175358531
 20
254.7992294890243
 30
0.0
 11
234.50323175359711
 21
309.79922948884411
 31
0.0
  0
LINE
  5
967
  8
0
 10
245.50323175342771
 20
309.79922948883973
 30
0.0
 11
245.50323175342339
 21
289.55396216875408
 31
0.0
  0
LINE
  5
1247
  8
0
 10
245.50323175342069
 20
277.04500203157897
 30
0.0
 11
245.50323175341589
 21
254.7992294890239
 31
0.0
  0
CIRCLE
  5
1265
  8
0
 10
155.00000329417091
 20
283.29968090360592
 30
0.0
 40
3.999846163482629
  0
LINE
  5
12C5
  8
1
 10
240.0032317534756
 20
175.0000000000143
 30
0.0
 11
240.0032317534756
 21
45.0
 31
0.0
  0
LINE
  5
12CA
  8
1
 10
245.5032317534756
 20
150.00000000001279
 30
0.0
 11
234.5032317534756
 21
150.00000000001279
 31
0.0
  0
LINE
  5
12CB
  8
1
 10
245.5032317534756
 20
70.000000000012875
 30
0.0
 11
234.5032317534756
 21
70.000000000012875
 31
0.0
  0
CIRCLE
  5
12CC
  8
0
 10
240.0032317534756
 20
150.00000000001279
 30
0.0
 40
3.5
  0
CIRCLE
  5
12CD
  8
0
 10
240.0032317534756
 20
70.000000000012875
 30
0.0
 40
3.5
  0
LINE
  5
12EA
  8
1
 10
245.50323175347521
 20
383.29922948884888
 30
0.0
 11
234.50323175347521
 21
383.29922948884888
 31
0.0
  0
LINE
  5
12EB
  8
1
 10
245.50323175347521
 20
463.29922948884882
 30
0.0
 11
234.50323175347521
 21
463.29922948884882
 31
0.0
  0
ARC
  5
12EC
  8
0
 10
240.00323175347521
 20
463.29922948884882
 30
0.0
 40
3.5
 50
36.929115932090887
 51
22.19565077484604
  0
ARC
  5
12ED
  8
0
 10
240.00323175347521
 20
383.29922948884888
 30
0.0
 40
3.5
 50
337.7953472098111
 51
323.07953578425168
  0
TEXT
  5
138F
  8
0
 62
     3
 10
0.0
 20
0.0
 30
0.0
 40
10.0
  1
C-SRU
  7
STANDARD1
  0
ENDSEC
  0
EOF
