  0
SECTION
  2
HEADER
  9
$ACADVER
  1
AC1009
  9
$INSBASE
 10
0.0
 20
0.0
 30
0.0
  9
$EXTMIN
 10
0.0
 20
-2.960436562073669
 30
0.0
  9
$EXTMAX
 10
320.92833174915609
 20
211.43586000905131
 30
0.0
  9
$LIMMIN
 10
0.0
 20
0.0
  9
$LIMMAX
 10
375.0
 20
270.0
  9
$ORTHOMODE
 70
     1
  9
$REGENMODE
 70
     1
  9
$FILLMODE
 70
     1
  9
$QTEXTMODE
 70
     0
  9
$MIRRTEXT
 70
     0
  9
$DRAGMODE
 70
     2
  9
$LTSCALE
 40
10.0
  9
$OSMODE
 70
    37
  9
$ATTMODE
 70
     1
  9
$TEXTSIZE
 40
4.0
  9
$TRACEWID
 40
0.05
  9
$TEXTSTYLE
  7
STANDARD
  9
$CLAYER
  8
0
  9
$CELTYPE
  6
BYLAYER
  9
$CECOLOR
 62
   256
  9
$DIMSCALE
 40
1.0
  9
$DIMASZ
 40
3.0
  9
$DIMEXO
 40
2.0
  9
$DIMDLI
 40
0.38
  9
$DIMRND
 40
0.0
  9
$DIMDLE
 40
0.0
  9
$DIMEXE
 40
2.0
  9
$DIMTP
 40
0.0
  9
$DIMTM
 40
0.0
  9
$DIMTXT
 40
3.2000000000000002
  9
$DIMCEN
 40
0.0
  9
$DIMTSZ
 40
0.0
  9
$DIMTOL
 70
     0
  9
$DIMLIM
 70
     0
  9
$DIMTIH
 70
     0
  9
$DIMTOH
 70
     0
  9
$DIMSE1
 70
     0
  9
$DIMSE2
 70
     0
  9
$DIMTAD
 70
     1
  9
$DIMZIN
 70
     0
  9
$DIMBLK
  1

  9
$DIMASO
 70
     1
  9
$DIMSHO
 70
     0
  9
$DIMPOST
  1

  9
$DIMAPOST
  1

  9
$DIMALT
 70
     0
  9
$DIMALTD
 70
     2
  9
$DIMALTF
 40
25.399999999999999
  9
$DIMLFAC
 40
1.0
  9
$DIMTOFL
 70
     0
  9
$DIMTVP
 40
1.6000000000000001
  9
$DIMTIX
 70
     1
  9
$DIMSOXD
 70
     0
  9
$DIMSAH
 70
     0
  9
$DIMBLK1
  1

  9
$DIMBLK2
  1

  9
$DIMSTYLE
  2
STANDARD
  9
$DIMCLRD
 70
     4
  9
$DIMCLRE
 70
     4
  9
$DIMCLRT
 70
     4
  9
$DIMTFAC
 40
1.0
  9
$DIMGAP
 40
0.09
  9
$LUNITS
 70
     2
  9
$LUPREC
 70
     1
  9
$SKETCHINC
 40
0.1
  9
$FILLETRAD
 40
0.0
  9
$AUNITS
 70
     0
  9
$AUPREC
 70
     0
  9
$MENU
  1
E:\r13\win\SUPPORT\ACAD
  9
$ELEVATION
 40
0.0
  9
$PELEVATION
 40
0.0
  9
$THICKNESS
 40
0.0
  9
$LIMCHECK
 70
     0
  9
$BLIPMODE
 70
     0
  9
$CHAMFERA
 40
3.0
  9
$CHAMFERB
 40
3.0
  9
$SKPOLY
 70
     0
  9
$TDCREATE
 40
2449930.6999537041
  9
$TDUPDATE
 40
2456892.686242199
  9
$TDINDWG
 40
0.0097519444
  9
$TDUSRTIMER
 40
0.0097519444
  9
$USRTIMER
 70
     1
  9
$ANGBASE
 50
0.0
  9
$ANGDIR
 70
     0
  9
$PDMODE
 70
     0
  9
$PDSIZE
 40
0.0
  9
$PLINEWID
 40
0.0
  9
$COORDS
 70
     1
  9
$SPLFRAME
 70
     0
  9
$SPLINETYPE
 70
     6
  9
$SPLINESEGS
 70
     8
  9
$ATTDIA
 70
     0
  9
$ATTREQ
 70
     1
  9
$HANDLING
 70
     1
  9
$HANDSEED
  5
33A
  9
$SURFTAB1
 70
     6
  9
$SURFTAB2
 70
     6
  9
$SURFTYPE
 70
     6
  9
$SURFU
 70
     6
  9
$SURFV
 70
     6
  9
$UCSNAME
  2

  9
$UCSORG
 10
0.0
 20
0.0
 30
0.0
  9
$UCSXDIR
 10
1.0
 20
0.0
 30
0.0
  9
$UCSYDIR
 10
0.0
 20
1.0
 30
0.0
  9
$PUCSNAME
  2

  9
$PUCSORG
 10
0.0
 20
0.0
 30
0.0
  9
$PUCSXDIR
 10
1.0
 20
0.0
 30
0.0
  9
$PUCSYDIR
 10
0.0
 20
1.0
 30
0.0
  9
$USERI1
 70
     0
  9
$USERI2
 70
     1
  9
$USERI3
 70
     1
  9
$USERI4
 70
     0
  9
$USERI5
 70
     0
  9
$USERR1
 40
0.0
  9
$USERR2
 40
0.0
  9
$USERR3
 40
0.0
  9
$USERR4
 40
0.0
  9
$USERR5
 40
0.0
  9
$WORLDVIEW
 70
     1
  9
$SHADEDGE
 70
     3
  9
$SHADEDIF
 70
    70
  9
$TILEMODE
 70
     1
  9
$MAXACTVP
 70
    16
  9
$PLIMCHECK
 70
     0
  9
$PEXTMIN
 10
1.0000000000000000E+020
 20
1.0000000000000000E+020
 30
1.0000000000000000E+020
  9
$PEXTMAX
 10
-1.0000000000000000E+020
 20
-1.0000000000000000E+020
 30
-1.0000000000000000E+020
  9
$PLIMMIN
 10
0.0
 20
0.0
  9
$PLIMMAX
 10
12.0
 20
9.0
  9
$UNITMODE
 70
     0
  9
$VISRETAIN
 70
     0
  9
$PLINEGEN
 70
     0
  9
$PSLTSCALE
 70
     0
  0
ENDSEC
  0
SECTION
  2
TABLES
  0
TABLE
  2
VPORT
 70
     1
  0
VPORT
  2
*ACTIVE
 70
     0
 10
0.0
 20
0.0
 11
1.0
 21
1.0
 12
218.1849791376913
 22
125.0
 13
0.0
 23
0.0
 14
10.0
 24
10.0
 15
10.0
 25
10.0
 16
0.0
 26
0.0
 36
1.0
 17
0.0
 27
0.0
 37
0.0
 40
250.0
 41
1.7454798331015291
 42
50.0
 43
0.0
 44
0.0
 50
0.0
 51
0.0
 71
     0
 72
   500
 73
     1
 74
     0
 75
     0
 76
     0
 77
     0
 78
     2
  0
ENDTAB
  0
TABLE
  2
LTYPE
 70
     4
  0
LTYPE
  2
CONTINUOUS
 70
     0
  3
Solid Line
 72
    65
 73
     0
 40
0.0
  0
LTYPE
  2
CENTER
 70
     0
  3
____ _ ____ _ ____ _ ____ _ ____ _ ____ _ ____
 72
    65
 73
     4
 40
2.0
 49
1.25
 49
-0.25
 49
0.25
 49
-0.25
  0
LTYPE
  2
HIDDEN
 70
     0
  3
_ _ _ _ _ _ _ _ _ _ _ _ _ _ _ _ _ _ _ _ _ _ _
 72
    65
 73
     2
 40
0.375
 49
0.25
 49
-0.125
  0
LTYPE
  2
PHANTOM2
 70
     0
  3
___ _ _ ___ _ _ ___ _ _ ___ _ _
 72
    65
 73
     6
 40
1.25
 49
0.625
 49
-0.125
 49
0.125
 49
-0.125
 49
0.125
 49
-0.125
  0
ENDTAB
  0
TABLE
  2
LAYER
 70
     5
  0
LAYER
  2
0
 70
     0
 62
     7
  6
CONTINUOUS
  0
LAYER
  2
1
 70
     0
 62
     1
  6
CENTER
  0
LAYER
  2
2
 70
     0
 62
     2
  6
HIDDEN
  0
LAYER
  2
3
 70
     0
 62
     3
  6
CONTINUOUS
  0
LAYER
  2
DEFPOINTS
 70
     0
 62
     7
  6
CONTINUOUS
  0
ENDTAB
  0
TABLE
  2
STYLE
 70
     2
  0
STYLE
  2
STANDARD
 70
     0
 40
0.0
 41
1.0
 50
0.0
 71
     0
 42
4.0
  3
SIMPLEX
  4
BIGFONT
  0
STYLE
  2
STANDARD1
 70
     0
 40
0.0
 41
1.0
 50
0.0
 71
     0
 42
3.0
  3
txt
  4

  0
ENDTAB
  0
TABLE
  2
VIEW
 70
     1
  0
VIEW
  2
ALL
 70
     0
 40
270.0
 10
220.78595317725751
 20
135.0
 41
441.57190635451502
 11
0.0
 21
0.0
 31
1.0
 12
0.0
 22
0.0
 32
0.0
 42
50.0
 43
0.0
 44
0.0
 50
0.0
 71
     0
  0
ENDTAB
  0
TABLE
  2
UCS
 70
     0
  0
ENDTAB
  0
TABLE
  2
APPID
 70
     4
  0
APPID
  2
ACAD
 70
     0
  0
APPID
  2
ACAD_NAV_VCDISPLAY
 70
     0
  0
APPID
  2
ACAD_EXEMPT_FROM_CAD_STANDARDS
 70
     0
  0
APPID
  2
ACAD_MLEADERVER
 70
     0
  0
ENDTAB
  0
TABLE
  2
DIMSTYLE
 70
     1
  0
DIMSTYLE
  2
STANDARD
 70
     0
  3

  4

  5

  6

  7

 40
1.0
 41
0.18
 42
0.0625
 43
0.38
 44
0.18
 45
0.0
 46
0.0
 47
0.0
 48
0.0
140
0.18
141
0.09
142
0.0
143
25.399999999999999
144
1.0
145
0.0
146
1.0
147
0.09
 71
     0
 72
     0
 73
     1
 74
     1
 75
     0
 76
     0
 77
     0
 78
     0
170
     0
171
     2
172
     0
173
     0
174
     0
175
     0
176
     0
177
     0
178
     0
  0
ENDTAB
  0
ENDSEC
  0
SECTION
  2
BLOCKS
  0
BLOCK
  8
0
  2
$MODEL_SPACE
 70
     0
 10
0.0
 20
0.0
 30
0.0
  3
$MODEL_SPACE
  1

  0
ENDBLK
  5
DE
  8
0
  0
BLOCK
 67
     1
  8
0
  2
$PAPER_SPACE
 70
     0
 10
0.0
 20
0.0
 30
0.0
  3
$PAPER_SPACE
  1

  0
ENDBLK
  5
DC
 67
     1
  8
0
  0
ENDSEC
  0
SECTION
  2
ENTITIES
  0
LINE
  5
3A
  8
0
 10
110.928331749156
 20
211.43586000905131
 30
0.0
 11
120.928331749156
 21
211.43586000905131
 31
0.0
  0
LINE
  5
3B
  8
0
 10
282.92833174915609
 20
208.43586000905131
 30
0.0
 11
282.92833174915609
 21
190.93586000905131
 31
0.0
  0
LINE
  5
3C
  8
0
 10
279.92833174915609
 20
187.93586000905131
 30
0.0
 11
269.92833174915609
 21
187.93586000905131
 31
0.0
  0
LINE
  5
3D
  8
0
 10
120.928331749156
 20
187.93586000905131
 30
0.0
 11
120.928331749156
 21
211.43586000905131
 31
0.0
  0
LINE
  5
3E
  8
0
 10
269.92833174915609
 20
187.93586000905131
 30
0.0
 11
269.92833174915609
 21
211.43586000905131
 31
0.0
  0
ARC
  5
3F
  8
0
 10
279.92833174915609
 20
208.43586000905131
 30
0.0
 40
3.0
 50
0.0
 51
90.0
  0
ARC
  5
40
  8
0
 10
279.92833174915609
 20
190.93586000905131
 30
0.0
 40
3.0
 50
270.0
 51
359.99999999999989
  0
ARC
  5
41
  8
0
 10
110.928331749156
 20
208.43586000905131
 30
0.0
 40
3.0
 50
90.0
 51
180.0
  0
ARC
  5
42
  8
0
 10
110.928331749156
 20
190.93586000905131
 30
0.0
 40
3.0
 50
180.0
 51
270.0
  0
LINE
  5
43
  8
0
 10
120.928331749156
 20
210.93586000905131
 30
0.0
 11
269.92833174915609
 21
210.93586000905131
 31
0.0
  0
LINE
  5
44
  8
0
 10
120.928331749156
 20
188.43586000905131
 30
0.0
 11
269.92833174915609
 21
188.43586000905131
 31
0.0
  0
LINE
  5
45
  8
0
 10
269.92833174915609
 20
211.43586000905131
 30
0.0
 11
279.92833174915609
 21
211.43586000905131
 31
0.0
  0
LINE
  5
46
  8
0
 10
120.928331749156
 20
187.93586000905131
 30
0.0
 11
110.928331749156
 21
187.93586000905131
 31
0.0
  0
LINE
  5
47
  8
3
 10
120.928331749156
 20
205.18586000905131
 30
0.0
 11
269.92833174915609
 21
205.18586000905131
 31
0.0
  0
LINE
  5
48
  8
3
 10
120.928331749156
 20
194.18586000905131
 30
0.0
 11
269.92833174915609
 21
194.18586000905131
 31
0.0
  0
LINE
  5
49
  8
3
 10
120.928331749156
 20
206.18586000905131
 30
0.0
 11
269.92833174915609
 21
206.18586000905131
 31
0.0
  0
LINE
  5
4A
  8
3
 10
120.928331749156
 20
193.18586000905131
 30
0.0
 11
269.92833174915609
 21
193.18586000905131
 31
0.0
  0
LINE
  5
4B
  8
2
 10
283.22833174915598
 20
207.18586000905131
 30
0.0
 11
304.92833174915609
 21
207.18586000905131
 31
0.0
  0
LINE
  5
4C
  8
2
 10
283.22833174915598
 20
192.18586000905131
 30
0.0
 11
304.92833174915609
 21
192.18586000905131
 31
0.0
  0
LINE
  5
4D
  8
2
 10
313.92833174915609
 20
204.93586000905131
 30
0.0
 11
313.92833174915609
 21
194.43586000905131
 31
0.0
  0
LINE
  5
4E
  8
2
 10
304.92833174915609
 20
205.93586000905131
 30
0.0
 11
312.92833174915609
 21
205.93586000905131
 31
0.0
  0
LINE
  5
4F
  8
2
 10
304.92833174915609
 20
193.43586000905131
 30
0.0
 11
312.92833174915609
 21
193.43586000905131
 31
0.0
  0
LINE
  5
50
  8
2
 10
304.92833174915609
 20
207.18586000905131
 30
0.0
 11
304.92833174915609
 21
204.18586000905131
 31
0.0
  0
LINE
  5
51
  8
2
 10
299.07397567289502
 20
202.18586000905131
 30
0.0
 11
305.67833174915609
 21
202.18586000905131
 31
0.0
  0
LINE
  5
52
  8
2
 10
299.07397567289502
 20
197.18586000905131
 30
0.0
 11
305.67833174915609
 21
197.18586000905131
 31
0.0
  0
ARC
  5
53
  8
2
 10
305.67833174915609
 20
199.68586000905131
 30
0.0
 40
2.5
 50
270.0
 51
90.0
  0
ARC
  5
54
  8
2
 10
297.92833174915609
 20
199.68586000905131
 30
0.0
 40
2.75
 50
65.380022671342374
 51
294.61997732865763
  0
LINE
  5
55
  8
2
 10
296.42833174915609
 20
203.18586000905131
 30
0.0
 11
303.92833174915609
 21
203.18586000905131
 31
0.0
  0
LINE
  5
56
  8
2
 10
296.42833174915609
 20
196.18586000905131
 30
0.0
 11
303.92833174915609
 21
196.18586000905131
 31
0.0
  0
LINE
  5
57
  8
1
 10
297.92833174915609
 20
207.18586000905131
 30
0.0
 11
297.92833174915609
 21
192.18586000905131
 31
0.0
  0
LINE
  5
58
  8
2
 10
304.92833174915609
 20
195.18586000905131
 30
0.0
 11
304.92833174915609
 21
192.18586000905131
 31
0.0
  0
ARC
  5
59
  8
2
 10
296.42833174915609
 20
199.68586000905131
 30
0.0
 40
3.5
 50
90.0
 51
270.0
  0
ARC
  5
5A
  8
2
 10
303.92833174915609
 20
204.18586000905131
 30
0.0
 40
1.0
 50
270.0
 51
0.0
  0
ARC
  5
5B
  8
2
 10
303.92833174915609
 20
195.18586000905131
 30
0.0
 40
1.0
 50
0.0
 51
90.0
  0
ARC
  5
5C
  8
2
 10
312.92833174915609
 20
204.93586000905131
 30
0.0
 40
1.0
 50
0.0
 51
90.0
  0
ARC
  5
5D
  8
2
 10
312.92833174915609
 20
194.43586000905131
 30
0.0
 40
1.0
 50
269.99999999999989
 51
0.0
  0
CIRCLE
  5
5E
  8
2
 10
297.92833174915609
 20
199.68586000905131
 30
0.0
 40
2.149999999999999
  0
LINE
  5
5F
  8
0
 10
315.92833174915609
 20
193.04640353087891
 30
0.0
 11
315.92833174915597
 21
206.3244762745758
 31
0.0
  0
LINE
  5
60
  8
0
 10
283.22833174915598
 20
211.33586000905129
 30
0.0
 11
283.22833174915598
 21
188.03586000905131
 31
0.0
  0
LINE
  5
61
  8
0
 10
283.42833174915609
 20
188.03586000905131
 30
0.0
 11
283.42833174915609
 21
188.03586000905131
 31
0.0
  0
LINE
  5
62
  8
0
 10
283.22833174915598
 20
192.18586000905131
 30
0.0
 11
282.92833174915609
 21
192.18586000905131
 31
0.0
  0
LINE
  5
63
  8
0
 10
283.22833174915598
 20
207.18586000905131
 30
0.0
 11
282.92833174915609
 21
207.18586000905131
 31
0.0
  0
CIRCLE
  5
64
  8
2
 10
92.928331749155987
 20
199.68586000905131
 30
0.0
 40
2.149999999999999
  0
ARC
  5
65
  8
2
 10
77.92833174915593
 20
194.43586000905131
 30
0.0
 40
1.0
 50
180.0
 51
270.00000000000011
  0
ARC
  5
66
  8
2
 10
77.92833174915593
 20
204.93586000905131
 30
0.0
 40
1.0
 50
90.0
 51
180.0
  0
ARC
  5
67
  8
2
 10
86.92833174915593
 20
195.18586000905131
 30
0.0
 40
1.0
 50
90.0
 51
180.0
  0
ARC
  5
68
  8
2
 10
86.92833174915593
 20
204.18586000905131
 30
0.0
 40
1.0
 50
180.0
 51
270.0
  0
ARC
  5
69
  8
2
 10
94.42833174915593
 20
199.68586000905131
 30
0.0
 40
3.5
 50
270.0
 51
90.0
  0
LINE
  5
6A
  8
2
 10
85.92833174915593
 20
195.18586000905131
 30
0.0
 11
85.92833174915593
 21
192.18586000905131
 31
0.0
  0
LINE
  5
6B
  8
1
 10
92.928331749155987
 20
207.18586000905131
 30
0.0
 11
92.928331749155987
 21
192.18586000905131
 31
0.0
  0
LINE
  5
6C
  8
2
 10
94.42833174915593
 20
196.18586000905131
 30
0.0
 11
86.92833174915593
 21
196.18586000905131
 31
0.0
  0
LINE
  5
6D
  8
2
 10
94.42833174915593
 20
203.18586000905131
 30
0.0
 11
86.92833174915593
 21
203.18586000905131
 31
0.0
  0
ARC
  5
6E
  8
2
 10
92.928331749155987
 20
199.68586000905131
 30
0.0
 40
2.75
 50
245.3800226713424
 51
114.6199773286576
  0
ARC
  5
6F
  8
2
 10
85.178331749155987
 20
199.68586000905131
 30
0.0
 40
2.5
 50
90.0
 51
270.0
  0
LINE
  5
70
  8
2
 10
91.782687825416986
 20
197.18586000905131
 30
0.0
 11
85.178331749155987
 21
197.18586000905131
 31
0.0
  0
LINE
  5
71
  8
2
 10
91.782687825416986
 20
202.18586000905131
 30
0.0
 11
85.178331749155987
 21
202.18586000905131
 31
0.0
  0
LINE
  5
72
  8
2
 10
85.92833174915593
 20
207.18586000905131
 30
0.0
 11
85.92833174915593
 21
204.18586000905131
 31
0.0
  0
LINE
  5
73
  8
2
 10
85.92833174915593
 20
193.43586000905131
 30
0.0
 11
77.92833174915593
 21
193.43586000905131
 31
0.0
  0
LINE
  5
74
  8
2
 10
85.92833174915593
 20
205.93586000905131
 30
0.0
 11
77.92833174915593
 21
205.93586000905131
 31
0.0
  0
LINE
  5
75
  8
2
 10
76.92833174915593
 20
204.93586000905131
 30
0.0
 11
76.92833174915593
 21
194.43586000905131
 31
0.0
  0
LINE
  5
76
  8
2
 10
107.628331749156
 20
192.18586000905131
 30
0.0
 11
85.92833174915593
 21
192.18586000905131
 31
0.0
  0
LINE
  5
77
  8
2
 10
107.628331749156
 20
207.18586000905131
 30
0.0
 11
85.92833174915593
 21
207.18586000905131
 31
0.0
  0
LINE
  5
78
  8
0
 10
107.9283317491559
 20
208.43586000905131
 30
0.0
 11
107.9283317491559
 21
190.93586000905131
 31
0.0
  0
LINE
  5
79
  8
1
 10
69.928331749156001
 20
199.68586000905131
 30
0.0
 11
320.92833174915609
 21
199.68586000905131
 31
0.0
  0
LINE
  5
7A
  8
0
 10
269.92833174915609
 20
106.5431558697906
 30
0.0
 11
277.89788933389002
 21
105.8459099278094
 31
0.0
  0
LINE
  5
7B
  8
0
 10
269.92833174915609
 20
106.5431558697906
 30
0.0
 11
270.71273343388498
 21
115.5089081526163
 31
0.0
  0
LINE
  5
7C
  8
0
 10
312.06934833030027
 20
210.32198979223179
 30
0.0
 11
283.22833174915598
 21
211.33586000905129
 31
0.0
  0
LINE
  5
7D
  8
0
 10
312.07021771112687
 20
189.04892077622
 30
0.0
 11
283.42833174915609
 21
188.03586000905131
 31
0.0
  0
ARC
  5
7E
  8
0
 10
311.92833174915597
 20
206.3244762745758
 30
0.0
 40
4.0
 50
0.0
 51
87.979667620683173
  0
ARC
  5
7F
  8
0
 10
311.92833174915609
 20
193.04640353087891
 30
0.0
 40
4.0
 50
272.03279313608562
 51
0.0000000000001908
  0
LINE
  5
80
  8
0
 10
78.787315168011801
 20
210.32198979223179
 30
0.0
 11
107.628331749156
 21
211.33586000905129
 31
0.0
  0
LINE
  5
81
  8
0
 10
107.628331749156
 20
211.33586000905129
 30
0.0
 11
107.628331749156
 21
188.0287860281793
 31
0.0
  0
LINE
  5
82
  8
0
 10
78.786445787185144
 20
189.04892077622
 30
0.0
 11
107.628331749156
 21
188.0287860281793
 31
0.0
  0
ARC
  5
83
  8
0
 10
78.928331749156044
 20
193.04640353087891
 30
0.0
 40
4.0
 50
179.9999999999998
 51
267.9672068639145
  0
LINE
  5
84
  8
0
 10
74.928331749156044
 20
193.04640353087891
 30
0.0
 11
74.928331749156101
 21
206.3244762745758
 31
0.0
  0
ARC
  5
85
  8
0
 10
78.928331749156101
 20
206.3244762745758
 30
0.0
 40
4.0
 50
92.020332379316812
 51
180.0
  0
LINE
  5
86
  8
0
 10
107.628331749156
 20
207.18586000905131
 30
0.0
 11
107.928331749156
 21
207.18586000905131
 31
0.0
  0
LINE
  5
87
  8
0
 10
107.628331749156
 20
192.18586000905131
 30
0.0
 11
107.928331749156
 21
192.18586000905131
 31
0.0
  0
LINE
  5
88
  8
0
 10
283.27106366671319
 20
109.8930073554839
 30
0.0
 11
283.05871254247899
 21
107.46582289893639
 31
0.0
  0
LINE
  5
89
  8
0
 10
270.71273343388498
 20
115.5089081526163
 30
0.0
 11
279.18038836766482
 21
114.76808433926119
 31
0.0
  0
ARC
  5
8A
  8
0
 10
278.78818752530037
 20
110.28520819784841
 30
0.0
 40
4.5
 50
355.0
 51
84.999999999999957
  0
LINE
  5
8B
  8
0
 10
277.89788933389002
 20
105.8459099278094
 30
0.0
 11
277.98504507663768
 21
106.8421046259011
 31
0.0
  0
LINE
  5
8C
  8
0
 10
283.22833174915598
 20
105.8459099278094
 30
0.0
 11
283.22833174915598
 21
114.4459099278093
 31
0.0
  0
LINE
  5
8D
  8
0
 10
315.92833174915597
 20
105.8459099278094
 30
0.0
 11
315.92833174915597
 21
109.0756476612009
 31
0.0
  0
LINE
  5
8E
  8
0
 10
283.22833174915598
 20
105.8459099278094
 30
0.0
 11
315.92833174915597
 21
105.8459099278094
 31
0.0
  0
LINE
  5
8F
  8
0
 10
283.22833174915598
 20
114.4459099278093
 30
0.0
 11
313.16683820973429
 21
112.0661517438368
 31
0.0
  0
ARC
  5
90
  8
0
 10
312.92833174915597
 20
109.0756476612009
 30
0.0
 40
3.0
 50
0.0
 51
85.440049912588137
  0
ARC
  5
91
  8
2
 10
289.88455031971938
 20
234.2771621199818
 30
0.0
 40
128.00038385815441
 50
267.01918609877538
 51
280.8378298579762
  0
ARC
  5
92
  8
2
 10
289.88468342800871
 20
234.27576951210759
 30
0.0
 40
126.9989912509668
 50
266.99560063566059
 51
280.83761193550401
  0
LINE
  5
93
  8
2
 10
313.95244129088411
 20
108.5598805233969
 30
0.0
 11
313.76380829255982
 21
109.54192817597961
 31
0.0
  0
ARC
  5
94
  8
0
 10
289.73969481954481
 20
228.7623254575615
 30
0.0
 40
122.4855584884163
 50
264.49298413292792
 51
266.95270552955049
  0
ARC
  5
95
  8
0
 10
287.41156456646831
 20
157.43313736605319
 30
0.0
 40
50.156553268725361
 50
265.02130496006549
 51
265.21577302160182
  0
LINE
  5
96
  8
1
 10
297.92833174915609
 20
118.28149274989519
 30
0.0
 11
297.92833174915609
 21
100.8459099278093
 31
0.0
  0
LINE
  5
97
  8
1
 10
92.928331749156044
 20
118.28149274989519
 30
0.0
 11
92.928331749156044
 21
100.8459099278093
 31
0.0
  0
ARC
  5
98
  8
0
 10
103.4450989318437
 20
157.43313736605319
 30
0.0
 40
50.156553268725361
 50
274.78422697839818
 51
274.97869503993451
  0
ARC
  5
99
  8
0
 10
101.11696867876719
 20
228.7623254575615
 30
0.0
 40
122.4855584884163
 50
273.04729447044951
 51
275.50701586707208
  0
LINE
  5
9A
  8
2
 10
76.904222207427964
 20
108.5598805233969
 30
0.0
 11
77.092855205752244
 21
109.54192817597961
 31
0.0
  0
ARC
  5
9B
  8
2
 10
100.9719800703035
 20
234.27576951210759
 30
0.0
 40
126.9989912509668
 50
259.16238806449599
 51
273.00439936433941
  0
ARC
  5
9C
  8
2
 10
100.97211317859271
 20
234.2771621199818
 30
0.0
 40
128.00038385815441
 50
259.16217014202391
 51
272.98081390122451
  0
ARC
  5
9D
  8
0
 10
77.928331749156101
 20
109.0756476612009
 30
0.0
 40
3.0
 50
94.559950087411863
 51
180.0
  0
LINE
  5
9E
  8
0
 10
107.628331749156
 20
114.4459099278093
 30
0.0
 11
77.689825288577779
 21
112.0661517438368
 31
0.0
  0
LINE
  5
9F
  8
0
 10
107.628331749156
 20
105.8459099278094
 30
0.0
 11
74.928331749156101
 21
105.8459099278094
 31
0.0
  0
LINE
  5
A0
  8
0
 10
74.928331749156101
 20
105.8459099278094
 30
0.0
 11
74.928331749156101
 21
109.0756476612009
 31
0.0
  0
LINE
  5
A1
  8
0
 10
107.628331749156
 20
105.8459099278094
 30
0.0
 11
107.628331749156
 21
114.4459099278093
 31
0.0
  0
LINE
  5
A2
  8
0
 10
112.958774164422
 20
105.8459099278094
 30
0.0
 11
112.8716184216744
 21
106.8421046259011
 31
0.0
  0
ARC
  5
A3
  8
0
 10
112.0684759730117
 20
110.28520819784841
 30
0.0
 40
4.5
 50
95.000000000000057
 51
185.0
  0
LINE
  5
A4
  8
0
 10
120.143930064427
 20
115.5089081526163
 30
0.0
 11
111.6762751306472
 21
114.76808433926119
 31
0.0
  0
LINE
  5
A5
  8
0
 10
107.5855998315988
 20
109.8930073554839
 30
0.0
 11
107.7979509558331
 21
107.46582289893639
 31
0.0
  0
LINE
  5
A6
  8
0
 10
120.928331749156
 20
106.5431558697906
 30
0.0
 11
120.143930064427
 21
115.5089081526163
 31
0.0
  0
LINE
  5
A7
  8
0
 10
120.9283317491559
 20
106.5431558697906
 30
0.0
 11
112.958774164422
 21
105.8459099278094
 31
0.0
  0
ARC
  5
A8
  8
0
 10
195.428331749156
 20
-315.47852068209011
 30
0.0
 40
428.54701665005229
 50
79.988651395110523
 51
100.01134860488941
  0
ARC
  5
A9
  8
0
 10
195.428331749156
 20
-282.14963492022071
 30
0.0
 40
404.72219857062328
 50
79.279684868038871
 51
100.7203151319611
  0
TEXT
  5
1BD
  8
0
 62
     3
 10
0.0
 20
0.0
 30
0.0
 40
10.0
  1
CA-205
  7
STANDARD1
  0
LINE
  5
240
  8
0
 10
15.73595391201331
 20
105.8459099278094
 30
0.0
 11
39.235953912012633
 21
105.8459099278093
 31
0.0
  0
LINE
  5
241
  8
0
 10
38.73595391201269
 20
122.5725636504026
 30
0.0
 11
16.23595391201269
 21
122.5725636504026
 31
0.0
  0
LINE
  5
242
  8
0
 10
39.143027892884618
 20
107.5959099278094
 30
0.0
 11
39.143027892884618
 21
113.6421427055482
 31
0.0
  0
LINE
  5
243
  8
0
 10
38.343027892884479
 20
114.44214270554821
 30
0.0
 11
16.63595391201255
 21
114.44214270554821
 31
0.0
  0
LINE
  5
244
  8
0
 10
15.83595391201259
 20
113.6421427055482
 30
0.0
 11
15.83595391201259
 21
107.5959099278094
 31
0.0
  0
LINE
  5
245
  8
0
 10
38.73595391201269
 20
122.5725636504026
 30
0.0
 11
38.73595391201269
 21
114.33899932171261
 31
0.0
  0
LINE
  5
246
  8
0
 10
16.23595391201269
 20
122.5725636504026
 30
0.0
 11
16.23595391201269
 21
114.3349630285758
 31
0.0
  0
ARC
  5
247
  8
0
 10
37.393027892884618
 20
107.5959099278094
 30
0.0
 40
1.75
 50
270.0
 51
0.0
  0
ARC
  5
248
  8
0
 10
17.585953912012599
 20
107.5959099278094
 30
0.0
 40
1.75
 50
180.0
 51
270.0
  0
ARC
  5
249
  8
0
 10
16.63595391201255
 20
113.6421427055482
 30
0.0
 40
0.8000000000000113
 50
90.0
 51
180.0
  0
ARC
  5
24A
  8
0
 10
38.34302789288455
 20
113.6421427055482
 30
0.0
 40
0.8000000000000397
 50
0.0
 51
90.0
  0
LINE
  5
24B
  8
1
 10
27.485953912012629
 20
127.5725636504026
 30
0.0
 11
27.485953912012629
 21
100.8459099278093
 31
0.0
  0
LINE
  5
24C
  8
3
 10
21.985953912012281
 20
115.5089081526154
 30
0.0
 11
21.985953912012281
 21
122.5725636504026
 31
0.0
  0
LINE
  5
24D
  8
3
 10
32.985953912012278
 20
115.5089081526154
 30
0.0
 11
32.985953912012278
 21
122.5725636504026
 31
0.0
  0
LINE
  5
24E
  8
3
 10
20.985953912012292
 20
115.5089081526154
 30
0.0
 11
20.985953912012292
 21
122.5725636504026
 31
0.0
  0
LINE
  5
24F
  8
3
 10
33.985953912012278
 20
115.5089081526154
 30
0.0
 11
33.985953912012278
 21
122.5725636504026
 31
0.0
  0
ARC
  5
250
  8
0
 10
18.730256819392249
 20
112.5146052037515
 30
0.0
 40
2.994308368628626
 50
89.890986658884387
 51
140.72124331342661
  0
LINE
  5
251
  8
0
 10
15.73595391201331
 20
105.8459099278094
 30
0.0
 11
15.735953912012629
 21
112.52032405834029
 31
0.0
  0
ARC
  5
252
  8
0
 10
36.241651004633127
 20
112.5146052037514
 30
0.0
 40
2.9943083686286971
 50
0.1094297548724838
 51
14.31200482822433
  0
LINE
  5
253
  8
0
 10
39.235953912012633
 20
112.52032405834019
 30
0.0
 11
39.235953912012633
 21
105.8459099278094
 31
0.0
  0
LINE
  5
254
  8
0
 10
18.735953912012629
 20
115.5089081526155
 30
0.0
 11
36.235953912012633
 21
115.5089081526154
 31
0.0
  0
ARC
  5
2AF
  8
0
 10
18.730256819392249
 20
112.5146052037515
 30
0.0
 40
2.994308368628626
 50
165.1503085628153
 51
179.8905702451307
  0
ARC
  5
2B1
  8
0
 10
36.241651004633127
 20
112.5146052037514
 30
0.0
 40
2.9943083686286971
 50
39.343643739292567
 51
90.109013341109062
  0
ENDSEC
  0
EOF
