  0
SECTION
  2
HEADER
  9
$ACADVER
  1
AC1009
  9
$INSBASE
 10
0.0
 20
0.0
 30
0.0
  9
$EXTMIN
 10
0.0
 20
-2.960436562073669
 30
0.0
  9
$EXTMAX
 10
352.65053732854813
 20
274.7176843153274
 30
0.0
  9
$LIMMIN
 10
0.0
 20
0.0
  9
$LIMMAX
 10
375.0
 20
270.0
  9
$ORTHOMODE
 70
     1
  9
$REGENMODE
 70
     1
  9
$FILLMODE
 70
     1
  9
$QTEXTMODE
 70
     0
  9
$MIRRTEXT
 70
     1
  9
$DRAGMODE
 70
     2
  9
$LTSCALE
 40
10.0
  9
$OSMODE
 70
    37
  9
$ATTMODE
 70
     1
  9
$TEXTSIZE
 40
5.0
  9
$TRACEWID
 40
0.05
  9
$TEXTSTYLE
  7
STANDARD
  9
$CLAYER
  8
0
  9
$CELTYPE
  6
BYLAYER
  9
$CECOLOR
 62
   256
  9
$DIMSCALE
 40
2.0
  9
$DIMASZ
 40
3.0
  9
$DIMEXO
 40
2.0
  9
$DIMDLI
 40
0.38
  9
$DIMRND
 40
0.0
  9
$DIMDLE
 40
0.0
  9
$DIMEXE
 40
2.0
  9
$DIMTP
 40
0.0
  9
$DIMTM
 40
0.0
  9
$DIMTXT
 40
3.2000000000000002
  9
$DIMCEN
 40
0.0
  9
$DIMTSZ
 40
0.0
  9
$DIMTOL
 70
     0
  9
$DIMLIM
 70
     0
  9
$DIMTIH
 70
     0
  9
$DIMTOH
 70
     0
  9
$DIMSE1
 70
     0
  9
$DIMSE2
 70
     0
  9
$DIMTAD
 70
     1
  9
$DIMZIN
 70
     8
  9
$DIMBLK
  1

  9
$DIMASO
 70
     0
  9
$DIMSHO
 70
     0
  9
$DIMPOST
  1

  9
$DIMAPOST
  1

  9
$DIMALT
 70
     0
  9
$DIMALTD
 70
     2
  9
$DIMALTF
 40
25.399999999999999
  9
$DIMLFAC
 40
1.0
  9
$DIMTOFL
 70
     0
  9
$DIMTVP
 40
1.6000000000000001
  9
$DIMTIX
 70
     1
  9
$DIMSOXD
 70
     0
  9
$DIMSAH
 70
     0
  9
$DIMBLK1
  1

  9
$DIMBLK2
  1

  9
$DIMSTYLE
  2
STANDARD
  9
$DIMCLRD
 70
     0
  9
$DIMCLRE
 70
     0
  9
$DIMCLRT
 70
     0
  9
$DIMTFAC
 40
1.0
  9
$DIMGAP
 40
1.1999999999999991
  9
$LUNITS
 70
     2
  9
$LUPREC
 70
     4
  9
$SKETCHINC
 40
0.1
  9
$FILLETRAD
 40
0.0
  9
$AUNITS
 70
     0
  9
$AUPREC
 70
     4
  9
$MENU
  1
ACAD
  9
$ELEVATION
 40
0.0
  9
$PELEVATION
 40
0.0
  9
$THICKNESS
 40
0.0
  9
$LIMCHECK
 70
     0
  9
$BLIPMODE
 70
     0
  9
$CHAMFERA
 40
0.0
  9
$CHAMFERB
 40
0.0
  9
$SKPOLY
 70
     0
  9
$TDCREATE
 40
2448055.7149187499
  9
$TDUPDATE
 40
2456615.6445865161
  9
$TDINDWG
 40
3.3352677083
  9
$TDUSRTIMER
 40
3.3352677083
  9
$USRTIMER
 70
     1
  9
$ANGBASE
 50
0.0
  9
$ANGDIR
 70
     0
  9
$PDMODE
 70
     0
  9
$PDSIZE
 40
0.0
  9
$PLINEWID
 40
0.0
  9
$COORDS
 70
     1
  9
$SPLFRAME
 70
     0
  9
$SPLINETYPE
 70
     6
  9
$SPLINESEGS
 70
     8
  9
$ATTDIA
 70
     0
  9
$ATTREQ
 70
     1
  9
$HANDLING
 70
     1
  9
$HANDSEED
  5
34068
  9
$SURFTAB1
 70
     6
  9
$SURFTAB2
 70
     6
  9
$SURFTYPE
 70
     6
  9
$SURFU
 70
     6
  9
$SURFV
 70
     6
  9
$UCSNAME
  2

  9
$UCSORG
 10
0.0
 20
0.0
 30
0.0
  9
$UCSXDIR
 10
1.0
 20
0.0
 30
0.0
  9
$UCSYDIR
 10
0.0
 20
1.0
 30
0.0
  9
$PUCSNAME
  2

  9
$PUCSORG
 10
0.0
 20
0.0
 30
0.0
  9
$PUCSXDIR
 10
1.0
 20
0.0
 30
0.0
  9
$PUCSYDIR
 10
0.0
 20
1.0
 30
0.0
  9
$USERI1
 70
     0
  9
$USERI2
 70
     0
  9
$USERI3
 70
     0
  9
$USERI4
 70
     0
  9
$USERI5
 70
     0
  9
$USERR1
 40
0.0
  9
$USERR2
 40
0.0
  9
$USERR3
 40
0.0
  9
$USERR4
 40
0.0
  9
$USERR5
 40
0.0
  9
$WORLDVIEW
 70
     1
  9
$SHADEDGE
 70
     3
  9
$SHADEDIF
 70
    70
  9
$TILEMODE
 70
     1
  9
$MAXACTVP
 70
    16
  9
$PLIMCHECK
 70
     0
  9
$PEXTMIN
 10
1.0000000000000000E+020
 20
1.0000000000000000E+020
 30
1.0000000000000000E+020
  9
$PEXTMAX
 10
-1.0000000000000000E+020
 20
-1.0000000000000000E+020
 30
-1.0000000000000000E+020
  9
$PLIMMIN
 10
0.0
 20
0.0
  9
$PLIMMAX
 10
12.0
 20
9.0
  9
$UNITMODE
 70
     0
  9
$VISRETAIN
 70
     0
  9
$PLINEGEN
 70
     1
  9
$PSLTSCALE
 70
     0
  0
ENDSEC
  0
SECTION
  2
TABLES
  0
TABLE
  2
VPORT
 70
     1
  0
VPORT
  2
*ACTIVE
 70
     0
 10
0.0
 20
0.0
 11
1.0
 21
1.0
 12
176.32770624340941
 22
139.98504660372521
 13
0.0
 23
0.0
 14
5.0
 24
5.0
 15
10.0
 25
10.0
 16
0.0
 26
0.0
 36
1.0
 17
0.0
 27
0.0
 37
0.0
 40
288.23172127490068
 41
1.7299864314789679
 42
50.0
 43
0.0
 44
0.0
 50
0.0
 51
0.0
 71
     0
 72
   500
 73
     1
 74
     1
 75
     0
 76
     0
 77
     0
 78
     2
  0
ENDTAB
  0
TABLE
  2
LTYPE
 70
     3
  0
LTYPE
  2
CONTINUOUS
 70
     0
  3
実線
 72
    65
 73
     0
 40
0.0
  0
LTYPE
  2
CENTER
 70
     0
  3
____ _ ____ _ ____ _ ____ _ ____ _ ____ _ ____
 72
    65
 73
     4
 40
2.0
 49
1.25
 49
-0.25
 49
0.25
 49
-0.25
  0
LTYPE
  2
PHANTOM2
 70
     0
  3
___ _ _ ___ _ _ ___ _ _ ___ _ _
 72
    65
 73
     6
 40
1.25
 49
0.625
 49
-0.125
 49
0.125
 49
-0.125
 49
0.125
 49
-0.125
  0
ENDTAB
  0
TABLE
  2
LAYER
 70
     4
  0
LAYER
  2
0
 70
     0
 62
     7
  6
CONTINUOUS
  0
LAYER
  2
1
 70
     0
 62
     1
  6
CENTER
  0
LAYER
  2
DEFPOINTS
 70
     0
 62
     7
  6
CONTINUOUS
  0
LAYER
  2
3
 70
     0
 62
     3
  6
CONTINUOUS
  0
ENDTAB
  0
TABLE
  2
STYLE
 70
     3
  0
STYLE
  2
STANDARD
 70
     0
 40
0.0
 41
1.0
 50
0.0
 71
     0
 42
5.0
  3
simplex.shx
  4
bigfont.shx
  0
STYLE
  2
07500
 70
     0
 40
0.0
 41
0.75
 50
0.0
 71
     0
 42
0.2
  3
simplex.shx
  4
bigfont.shx
  0
STYLE
  2
STANDARD1
 70
     0
 40
0.0
 41
1.0
 50
0.0
 71
     0
 42
3.0
  3
txt
  4

  0
ENDTAB
  0
TABLE
  2
VIEW
 70
     2
  0
VIEW
  2
ALL
 70
     0
 40
270.0
 10
220.99159663865549
 20
135.0
 41
0.0
 11
0.0
 21
0.0
 31
1.0
 12
0.0
 22
0.0
 32
0.0
 42
0.0
 43
0.0
 44
0.0
 50
0.0
 71
     0
  0
VIEW
  2
OLE1
 70
     0
 40
168.2487151179721
 10
2892.3009567448912
 20
702.51600084347126
 41
162.5749581879237
 11
0.0
 21
0.0
 31
1.0
 12
0.0
 22
0.0
 32
0.0
 42
50.0
 43
0.0
 44
0.0
 50
0.0
 71
     0
  0
ENDTAB
  0
TABLE
  2
UCS
 70
     0
  0
ENDTAB
  0
TABLE
  2
APPID
 70
    48
  0
APPID
  2
ACAD
 70
     0
  0
APPID
  2
DCO15
 70
     0
  0
APPID
  2
GENIUS_GENOREF_13
 70
     0
  0
APPID
  2
GENIUS_GENOENT_13
 70
     0
  0
APPID
  2
GENIUS_GENBH_13
 70
     0
  0
APPID
  2
GENIUS_GENOBJ_13
 70
     0
  0
APPID
  2
GENIUS_GENODEF_13
 70
     0
  0
APPID
  2
GENIUS_GENOLIS_13
 70
     0
  0
APPID
  2
GENIUS_GENOBJ-NBEHI-BHF_13
 70
     0
  0
APPID
  2
GENIUS_GENOBJ-NBEHI-BHB_13
 70
     0
  0
APPID
  2
GENIUS_GENOBJ-F-PART_13
 70
     0
  0
APPID
  2
GENIUS_GEFSTDP_13
 70
     0
  0
APPID
  2
GENIUS_GENOBJ-N-RSSYM_13
 70
     0
  0
APPID
  2
GENIUS_GENSYMENT_13
 70
     0
  0
APPID
  2
GENIUS_GENOBJ-N-TIT_13
 70
     0
  0
APPID
  2
GENIUS_GENTITLE_13
 70
     0
  0
APPID
  2
GENIUS_GENZVEED_13
 70
     0
  0
APPID
  2
GENIUS_GENOBJ-N-LEADER_13
 70
     0
  0
APPID
  2
GENIUS_GENOBJ-N-FIL_13
 70
     0
  0
APPID
  2
GENIUS_GENOBJ-N-SEC_13
 70
     0
  0
APPID
  2
GENIUS_GENOBJ-N-CRS_13
 70
     0
  0
APPID
  2
GENIUS_GENOBJ-N-ZOO_13
 70
     0
  0
APPID
  2
GENIUS_GENZOO_13
 70
     0
  0
APPID
  2
GENIUS_GENOBJ-F-TOL_13
 70
     0
  0
APPID
  2
GENIUS_GENFIL_13
 70
     0
  0
APPID
  2
GENIUS_GENOBJ-N-CHA_13
 70
     0
  0
APPID
  2
_CALL_MAC$
 70
     0
  0
APPID
  2
ASM_BASE
 70
     0
  0
APPID
  2
ASM_EXPLO_VER_2_00
 70
     0
  0
APPID
  2
ASM_CADM_VER_12_00
 70
     0
  0
APPID
  2
ASM_BASEFORO
 70
     0
  0
APPID
  2
ASM_BASETRAVI
 70
     0
  0
APPID
  2
ASM_BASETRAVI1
 70
     0
  0
APPID
  2
ASM_GRUPPI
 70
     0
  0
APPID
  2
ASM_CADM_ALBERO
 70
     0
  0
APPID
  2
ASM_GOLE
 70
     0
  0
APPID
  2
ACAD_MLEADERVER
 70
     0
  0
APPID
  2
ACAD_DSTYLE_DIMJAG
 70
     0
  0
APPID
  2
ACAD_DSTYLE_DIMTALN
 70
     0
  0
APPID
  2
ACAD_EXEMPT_FROM_CAD_STANDARDS
 70
     0
  0
APPID
  2
ACAD_DSTYLE_DIMRADIAL_EXTENSION
 70
     0
  0
APPID
  2
ACAD_PSEXT
 70
     0
  0
APPID
  2
ACAD_DSTYLE_DIMBREAK
 70
     0
  0
APPID
  2
ACAECLAYERSTANDARD
 70
     0
  0
APPID
  2
ACCMTRANSPARENCY
 70
     0
  0
APPID
  2
GRADIENTCOLOR1ACI
 70
     0
  0
APPID
  2
GRADIENTCOLOR2ACI
 70
     0
  0
APPID
  2
ACAD_NAV_VCDISPLAY
 70
     0
  0
ENDTAB
  0
TABLE
  2
DIMSTYLE
 70
     1
  0
DIMSTYLE
  2
STANDARD
 70
     0
  3

  4

  5

  6

  7

 40
1.0
 41
0.18
 42
0.0625
 43
0.38
 44
0.18
 45
0.0
 46
0.0
 47
0.0
 48
0.0
140
0.18
141
0.09
142
0.0
143
25.399999999999999
144
1.0
145
0.0
146
1.0
147
0.09
 71
     0
 72
     0
 73
     1
 74
     1
 75
     0
 76
     0
 77
     0
 78
     0
170
     0
171
     2
172
     0
173
     0
174
     0
175
     0
176
     0
177
     0
178
     0
  0
ENDTAB
  0
ENDSEC
  0
SECTION
  2
BLOCKS
  0
BLOCK
  8
0
  2
$MODEL_SPACE
 70
     0
 10
0.0
 20
0.0
 30
0.0
  3
$MODEL_SPACE
  1

  0
ENDBLK
  5
36
  8
0
  0
BLOCK
 67
     1
  8
0
  2
$PAPER_SPACE
 70
     0
 10
0.0
 20
0.0
 30
0.0
  3
$PAPER_SPACE
  1

  0
ENDBLK
  5
34
 67
     1
  8
0
  0
ENDSEC
  0
SECTION
  2
ENTITIES
  0
ARC
  5
33B6A
  8
0
 10
187.82940602927141
 20
139.17254459072331
 30
0.0
 40
0.999999999998522
 50
0.0
 51
90.000000000045588
  0
ARC
  5
33B6B
  8
0
 10
233.8294060292684
 20
139.17254459072331
 30
0.0
 40
0.999999999998522
 50
89.999999999954397
 51
180.0
  0
ARC
  5
33B6C
  8
0
 10
190.82940602927019
 20
132.67254459072211
 30
0.0
 40
2.0000000000003411
 50
180.0000000000081
 51
269.99999999999352
  0
ARC
  5
33B6D
  8
0
 10
230.82940602926959
 20
132.67254459072211
 30
0.0
 40
2.0000000000003411
 50
270.00000000000648
 51
359.99999999999193
  0
LINE
  5
33B6E
  8
0
 10
188.82940602926999
 20
139.17254459072331
 30
0.0
 11
188.82940602926999
 21
132.67254459072191
 31
0.0
  0
LINE
  5
33B6F
  8
0
 10
232.8294060292701
 20
132.67254459072191
 30
0.0
 11
232.8294060292701
 21
139.17254459072331
 31
0.0
  0
LINE
  5
33B70
  8
0
 10
231.82940602926999
 20
122.180399699503
 30
0.0
 11
231.82940602926999
 21
129.6725445907218
 31
0.0
  0
LINE
  5
33B71
  8
0
 10
192.82940602926999
 20
130.6725445907218
 30
0.0
 11
192.82940602926999
 21
129.6725445907218
 31
0.0
  0
LINE
  5
33B72
  8
0
 10
228.8294060292701
 20
129.6725445907218
 30
0.0
 11
228.8294060292701
 21
130.6725445907218
 31
0.0
  0
LINE
  5
33B73
  8
0
 10
180.82940602926999
 20
129.6725445907218
 30
0.0
 11
180.82940602926999
 21
127.6725445907218
 31
0.0
  0
ARC
  5
33B74
  8
0
 10
189.82940602927681
 20
89.172544590721884
 30
0.0
 40
29.999999999993179
 50
104.5822895892457
 51
18.146045204581341
  0
LINE
  5
33B77
  8
0
 10
180.82940602926979
 20
140.17254459072191
 30
0.0
 11
240.82940602926999
 21
140.17254459072191
 31
0.0
  0
LINE
  5
33B78
  8
0
 10
180.82940602926979
 20
140.17254459072191
 30
0.0
 11
180.82940602926979
 21
142.17254459072191
 31
0.0
  0
LINE
  5
33B79
  8
0
 10
180.82940602926979
 20
142.17254459072191
 30
0.0
 11
240.82940602926999
 21
142.17254459072191
 31
0.0
  0
LINE
  5
33B7D
  8
0
 10
240.82940602926999
 20
140.17254459072191
 30
0.0
 11
240.82940602926999
 21
142.17254459072191
 31
0.0
  0
LINE
  5
33B81
  8
0
 10
190.82940602926999
 20
130.6725445907218
 30
0.0
 11
230.82940602926959
 21
130.6725445907218
 31
0.0
  0
ARC
  5
33B94
  8
0
 10
196.2414500822965
 20
127.39959912408651
 30
0.0
 40
2.2755566971016821
 50
6.8890252319319831
 51
92.745098551250663
  0
ARC
  5
33B95
  8
0
 10
231.83159427469141
 20
119.1790987023428
 30
0.0
 40
3.0013096650087498
 50
90.137701283373545
 51
165.3509753885474
  0
ARC
  5
33B96
  8
0
 10
171.61806520386401
 20
134.91410581641119
 30
0.0
 40
59.234206987393819
 50
296.98995387397252
 51
345.3551600106706
  0
LINE
  5
33B97
  8
0
 10
198.500578023332
 20
82.131326598786131
 30
0.0
 11
198.500578023332
 21
127.6725445907218
 31
0.0
  0
LINE
  5
33B99
  8
0
 10
198.500578023332
 20
127.6725445907218
 30
0.0
 11
180.82940602926999
 21
127.6725445907218
 31
0.0
  0
POLYLINE
  5
33B9A
  8
0
 66
     1
 10
0.0
 20
0.0
 30
0.0
 70
   128
  0
VERTEX
  5
33F57
  8
0
 10
182.82940602926999
 20
127.6725445907218
 30
0.0
  0
VERTEX
  5
33F58
  8
0
 10
182.80367579326219
 20
128.32147223382179
 30
0.0
  0
VERTEX
  5
33F59
  8
0
 10
182.7308000665179
 20
128.89710404718329
 30
0.0
  0
VERTEX
  5
33F5A
  8
0
 10
182.62040228966191
 20
129.34362427108439
 30
0.0
  0
VERTEX
  5
33F5B
  8
0
 10
182.4849578395673
 20
129.61274838163979
 30
0.0
  0
VERTEX
  5
33F5C
  8
0
 10
182.38168988712221
 20
129.6725445907218
 30
0.0
  0
SEQEND
  5
33F5D
  8
0
  0
LINE
  5
33B9B
  8
0
 10
180.82940602926999
 20
129.6725445907218
 30
0.0
 11
231.82940602926999
 21
129.6725445907218
 31
0.0
  0
ARC
  5
33B9C
  8
0
 10
189.82940602926999
 20
89.172544590721884
 30
0.0
 40
9.9999999999996252
 50
175.1110689547391
 51
291.70034161704791
  0
LINE
  5
33B9D
  8
0
 10
179.86578823658979
 20
90.024788969629824
 30
0.0
 11
182.82940602926999
 21
124.6725445907218
 31
0.0
  0
LINE
  5
33B9E
  8
0
 10
182.82940602926999
 20
124.6725445907218
 30
0.0
 11
182.82940602926999
 21
127.6725445907218
 31
0.0
  0
ARC
  5
33B9F
  8
0
 10
171.63019796730839
 20
134.90434125253461
 30
0.0
 40
59.219999999999231
 50
291.70034161704791
 51
296.98378132926041
  0
ARC
  5
33BA3
  8
0
 10
189.82940602926999
 20
89.172544590721884
 30
0.0
 40
16.000000000000028
 50
123.793256408226
 51
349.92247280992058
  0
ARC
  5
33BA9
  8
0
 10
189.82940602926999
 20
89.172544590721884
 30
0.0
 40
25.80697580112798
 50
107.90961104046499
 51
12.23677429457538
  0
ARC
  5
33BAB
  8
0
 10
189.82940602926999
 20
89.172544590721884
 30
0.0
 40
28.153064510320998
 50
105.9168399165094
 51
15.63599037844342
  0
LINE
  5
33BB2
  8
0
 10
343.20461759103648
 20
90.530593318432864
 30
0.0
 11
343.20461759103648
 21
129.6725445907218
 31
0.0
  0
LINE
  5
33BB3
  8
0
 10
301.20461759103659
 20
129.6725445907218
 30
0.0
 11
301.20461759103659
 21
90.519551558344858
 31
0.0
  0
LINE
  5
33BB4
  8
0
 10
304.20461759103648
 20
130.6725445907218
 30
0.0
 11
304.20461759103648
 21
129.6725445907218
 31
0.0
  0
LINE
  5
33BB5
  8
0
 10
340.20461759103648
 20
129.6725445907218
 30
0.0
 11
340.20461759103648
 21
130.6725445907218
 31
0.0
  0
LINE
  5
33BB6
  8
0
 10
337.20461759103648
 20
79.172544590722225
 30
0.0
 11
339.20461759103648
 21
79.172544590722225
 31
0.0
  0
LINE
  5
33BB7
  8
0
 10
305.20461759103659
 20
79.172544590722225
 30
0.0
 11
307.20461759103659
 21
79.172544590722225
 31
0.0
  0
LINE
  5
33BB8
  8
0
 10
344.59111759103661
 20
86.172544590721884
 30
0.0
 11
345.20461759103648
 21
86.786044590721886
 31
0.0
  0
LINE
  5
33BB9
  8
0
 10
345.20461759103648
 20
91.55904459072184
 30
0.0
 11
344.59111759103661
 21
92.172544590721884
 31
0.0
  0
LINE
  5
33BBA
  8
0
 10
344.20461759103648
 20
86.172544590721884
 30
0.0
 11
344.59111759103661
 21
86.172544590721884
 31
0.0
  0
LINE
  5
33BBB
  8
0
 10
344.59111759103661
 20
92.172544590721884
 30
0.0
 11
344.20461759103648
 21
92.172544590721884
 31
0.0
  0
LINE
  5
33BBC
  8
0
 10
344.20461759103648
 20
93.989211260721845
 30
0.0
 11
344.00495768293553
 21
94.734352181990744
 31
0.0
  0
LINE
  5
33BBD
  8
0
 10
344.00495768293553
 20
83.610736999452968
 30
0.0
 11
344.20461759103648
 21
84.355877920721866
 31
0.0
  0
LINE
  5
33BBE
  8
0
 10
301.20461759103659
 20
84.355877924055164
 30
0.0
 11
301.40427750003141
 21
83.610736999452968
 31
0.0
  0
ARC
  5
33BBF
  8
0
 10
322.20461759103659
 20
89.172544590721884
 30
0.0
 40
29.999999999996401
 50
249.79045462624561
 51
290.20954537375439
  0
ARC
  5
33BC0
  8
0
 10
322.20461759103659
 20
89.172544590721884
 30
0.0
 40
29.99999999999314
 50
76.419053910844681
 51
103.6001886137053
  0
ARC
  5
33BC1
  8
0
 10
331.70461759103767
 20
63.36556878959356
 30
0.0
 40
2.499999999998777
 50
290.2095453737266
 51
0.0000000000032569
  0
ARC
  5
33BC2
  8
0
 10
312.70461759103517
 20
63.36556878959356
 30
0.0
 40
2.4999999999988058
 50
179.9999999999967
 51
249.7904546262734
  0
LINE
  5
33BC3
  8
0
 10
334.20461759103648
 20
73.172544590721884
 30
0.0
 11
337.20461759103648
 21
81.172544590721884
 31
0.0
  0
LINE
  5
33BC4
  8
0
 10
337.20461759103648
 20
97.172544590721827
 30
0.0
 11
334.20461759103648
 21
105.1725445907218
 31
0.0
  0
LINE
  5
33BC5
  8
0
 10
310.20461759103648
 20
105.1725445907218
 30
0.0
 11
307.20461759103659
 21
97.172544590721827
 31
0.0
  0
LINE
  5
33BC6
  8
0
 10
307.20461759103659
 20
81.172544590721884
 30
0.0
 11
310.20461759103648
 21
73.172544590721884
 31
0.0
  0
LINE
  5
33BC7
  8
0
 10
352.20461759103631
 20
140.17254459072191
 30
0.0
 11
352.20461759103631
 21
142.17254459072191
 31
0.0
  0
LINE
  5
33BCE
  8
0
 10
292.20461759103631
 20
140.17254459072191
 30
0.0
 11
292.20461759103631
 21
142.17254459072191
 31
0.0
  0
LINE
  5
33BCF
  8
0
 10
292.20461759103631
 20
140.17254459072191
 30
0.0
 11
352.20461759103631
 21
140.17254459072191
 31
0.0
  0
LINE
  5
33BD0
  8
0
 10
292.20461759103631
 20
142.17254459072191
 30
0.0
 11
352.20461759103631
 21
142.17254459072191
 31
0.0
  0
POLYLINE
  5
33BD2
  8
0
 66
     1
 10
0.0
 20
0.0
 30
0.0
 70
   128
  0
VERTEX
  5
33F5E
  8
0
 10
332.85573989439598
 20
119.93812174525731
 30
0.0
  0
VERTEX
  5
33F5F
  8
0
 10
334.25191868982461
 20
116.8431300840499
 30
0.0
  0
VERTEX
  5
33F60
  8
0
 10
335.64727332101887
 20
113.7991549793432
 30
0.0
  0
VERTEX
  5
33F61
  8
0
 10
337.00688822028468
 20
110.8064219002694
 30
0.0
  0
VERTEX
  5
33F62
  8
0
 10
338.33586966400537
 20
107.7834527805249
 30
0.0
  0
VERTEX
  5
33F63
  8
0
 10
339.57144757867991
 20
104.8140814937059
 30
0.0
  0
VERTEX
  5
33F64
  8
0
 10
340.68225220557702
 20
101.91147663193161
 30
0.0
  0
VERTEX
  5
33F65
  8
0
 10
341.48841835072488
 20
99.557164654037706
 30
0.0
  0
VERTEX
  5
33F66
  8
0
 10
342.1675581563299
 20
97.261698226822602
 30
0.0
  0
VERTEX
  5
33F67
  8
0
 10
342.70589746833627
 20
94.991268882233143
 30
0.0
  0
VERTEX
  5
33F68
  8
0
 10
343.06124391701968
 20
92.804756723280661
 30
0.0
  0
VERTEX
  5
33F69
  8
0
 10
343.19270301377992
 20
91.148466038792833
 30
0.0
  0
VERTEX
  5
33F6A
  8
0
 10
343.17547231423998
 20
89.562126300419209
 30
0.0
  0
VERTEX
  5
33F6B
  8
0
 10
342.98552425032813
 20
88.017430187883704
 30
0.0
  0
VERTEX
  5
33F6C
  8
0
 10
342.60390881598858
 20
86.566730286566553
 30
0.0
  0
VERTEX
  5
33F6D
  8
0
 10
342.06754821970628
 20
85.323057055366846
 30
0.0
  0
VERTEX
  5
33F6E
  8
0
 10
341.34353371670261
 20
84.176359759826425
 30
0.0
  0
VERTEX
  5
33F6F
  8
0
 10
340.38161133121321
 20
83.094673200746911
 30
0.0
  0
VERTEX
  5
33F70
  8
0
 10
339.20461759103648
 20
82.131326598786131
 30
0.0
  0
SEQEND
  5
33F71
  8
0
  0
POLYLINE
  5
33BD3
  8
0
 66
     1
 10
0.0
 20
0.0
 30
0.0
 70
   128
  0
VERTEX
  5
33F72
  8
0
 10
311.5534952876767
 20
119.93812174525731
 30
0.0
  0
VERTEX
  5
33F73
  8
0
 10
311.77589223273071
 20
120.3233548527342
 30
0.0
  0
VERTEX
  5
33F74
  8
0
 10
312.07348334223042
 20
120.6652851030095
 30
0.0
  0
VERTEX
  5
33F75
  8
0
 10
312.54756129481137
 20
121.0406746007402
 30
0.0
  0
VERTEX
  5
33F76
  8
0
 10
313.08745871392119
 20
121.3385195413377
 30
0.0
  0
VERTEX
  5
33F77
  8
0
 10
314.18290639161148
 20
121.72173780122451
 30
0.0
  0
VERTEX
  5
33F78
  8
0
 10
315.36887184813838
 20
121.9529537917057
 30
0.0
  0
VERTEX
  5
33F79
  8
0
 10
316.67933969219871
 20
122.08760260804679
 30
0.0
  0
VERTEX
  5
33F7A
  8
0
 10
318.01901761602761
 20
122.1500673162483
 30
0.0
  0
VERTEX
  5
33F7B
  8
0
 10
319.40932914916812
 20
122.17444057573459
 30
0.0
  0
VERTEX
  5
33F7C
  8
0
 10
320.81250648273061
 20
122.17958245998619
 30
0.0
  0
VERTEX
  5
33F7D
  8
0
 10
322.35412070888651
 20
122.1804873687995
 30
0.0
  0
VERTEX
  5
33F7E
  8
0
 10
323.89492872883977
 20
122.17915647138661
 30
0.0
  0
VERTEX
  5
33F7F
  8
0
 10
325.46119796471021
 20
122.1697018076211
 30
0.0
  0
VERTEX
  5
33F80
  8
0
 10
327.00841323681118
 20
122.12762659156461
 30
0.0
  0
VERTEX
  5
33F81
  8
0
 10
328.1443983529179
 20
122.0544671191697
 30
0.0
  0
VERTEX
  5
33F82
  8
0
 10
329.26273333983698
 20
121.9194758508463
 30
0.0
  0
VERTEX
  5
33F83
  8
0
 10
330.34046202168491
 20
121.6912879453904
 30
0.0
  0
VERTEX
  5
33F84
  8
0
 10
331.3762952408253
 20
121.3127511418043
 30
0.0
  0
VERTEX
  5
33F85
  8
0
 10
332.2189752312417
 20
120.7720928550077
 30
0.0
  0
VERTEX
  5
33F86
  8
0
 10
332.73515086735642
 20
120.1692546863199
 30
0.0
  0
VERTEX
  5
33F87
  8
0
 10
332.85573989439598
 20
119.93812174525731
 30
0.0
  0
SEQEND
  5
33F88
  8
0
  0
POLYLINE
  5
33BD4
  8
0
 66
     1
 10
0.0
 20
0.0
 30
0.0
 70
   128
  0
VERTEX
  5
33F89
  8
0
 10
305.20461759103659
 20
82.131326598786131
 30
0.0
  0
VERTEX
  5
33F8A
  8
0
 10
304.2118744697072
 20
82.922698636707366
 30
0.0
  0
VERTEX
  5
33F8B
  8
0
 10
303.36778619271871
 20
83.796338859218466
 30
0.0
  0
VERTEX
  5
33F8C
  8
0
 10
302.65195814731072
 20
84.781277017505786
 30
0.0
  0
VERTEX
  5
33F8D
  8
0
 10
302.0885573878133
 20
85.846011351280666
 30
0.0
  0
VERTEX
  5
33F8E
  8
0
 10
301.6828452515112
 20
86.947165402440703
 30
0.0
  0
VERTEX
  5
33F8F
  8
0
 10
301.40598220061901
 20
88.112669299082029
 30
0.0
  0
VERTEX
  5
33F90
  8
0
 10
301.24771582640022
 20
89.363254167776176
 30
0.0
  0
VERTEX
  5
33F91
  8
0
 10
301.2053425887911
 20
90.669516626007407
 30
0.0
  0
VERTEX
  5
33F92
  8
0
 10
301.34313554967679
 20
92.763282660786615
 30
0.0
  0
VERTEX
  5
33F93
  8
0
 10
301.69645926850671
 20
94.957076669030059
 30
0.0
  0
VERTEX
  5
33F94
  8
0
 10
302.25186621483363
 20
97.299721883221423
 30
0.0
  0
VERTEX
  5
33F95
  8
0
 10
302.97275707540518
 20
99.718152183955894
 30
0.0
  0
VERTEX
  5
33F96
  8
0
 10
303.80112069109049
 20
102.1155390979398
 30
0.0
  0
VERTEX
  5
33F97
  8
0
 10
304.7390394153532
 20
104.56718715367749
 30
0.0
  0
VERTEX
  5
33F98
  8
0
 10
305.76593101211068
 20
107.0626544844197
 30
0.0
  0
VERTEX
  5
33F99
  8
0
 10
306.89526757830799
 20
109.6672279975259
 30
0.0
  0
VERTEX
  5
33F9A
  8
0
 10
308.08304814392949
 20
112.31343729092249
 30
0.0
  0
VERTEX
  5
33F9B
  8
0
 10
309.30930884806111
 20
114.9967519605073
 30
0.0
  0
VERTEX
  5
33F9C
  8
0
 10
310.4317170423592
 20
117.4483059105979
 30
0.0
  0
VERTEX
  5
33F9D
  8
0
 10
311.5534952876767
 20
119.93812174525731
 30
0.0
  0
SEQEND
  5
33F9E
  8
0
  0
LINE
  5
33BD5
  8
0
 10
343.20461759103648
 20
129.6725445907218
 30
0.0
 11
301.20461759103659
 21
129.6725445907218
 31
0.0
  0
LINE
  5
33BD6
  8
0
 10
327.98790440055291
 20
119.93812174525731
 30
0.0
 11
332.85573989439598
 21
119.93812174525731
 31
0.0
  0
POLYLINE
  5
33BD7
  8
0
 66
     1
 10
0.0
 20
0.0
 30
0.0
 70
   128
  0
VERTEX
  5
33F9F
  8
0
 10
327.98790440055291
 20
119.93812174525731
 30
0.0
  0
VERTEX
  5
33FA0
  8
0
 10
327.61957369911869
 20
120.2851035114348
 30
0.0
  0
VERTEX
  5
33FA1
  8
0
 10
327.17184271837567
 20
120.5636349430802
 30
0.0
  0
VERTEX
  5
33FA2
  8
0
 10
326.33751694602893
 20
120.9027599691638
 30
0.0
  0
VERTEX
  5
33FA3
  8
0
 10
325.43821264270298
 20
121.1317781466368
 30
0.0
  0
VERTEX
  5
33FA4
  8
0
 10
324.46970448449468
 20
121.2863683056849
 30
0.0
  0
VERTEX
  5
33FA5
  8
0
 10
323.48672283771879
 20
121.3755343274522
 30
0.0
  0
VERTEX
  5
33FA6
  8
0
 10
321.45592213737291
 20
121.4017757473306
 30
0.0
  0
VERTEX
  5
33FA7
  8
0
 10
319.9395017740357
 20
121.2859238241588
 30
0.0
  0
VERTEX
  5
33FA8
  8
0
 10
318.43369496793201
 20
121.0075876618745
 30
0.0
  0
VERTEX
  5
33FA9
  8
0
 10
317.82391656098679
 20
120.8185481239564
 30
0.0
  0
VERTEX
  5
33FAA
  8
0
 10
317.23498833251341
 20
120.56238122072919
 30
0.0
  0
VERTEX
  5
33FAB
  8
0
 10
316.80467635493
 20
120.29628744147971
 30
0.0
  0
VERTEX
  5
33FAC
  8
0
 10
316.42133078152
 20
119.93812174525731
 30
0.0
  0
SEQEND
  5
33FAD
  8
0
  0
LINE
  5
33BD8
  8
0
 10
311.5534952876767
 20
119.93812174525731
 30
0.0
 11
316.42133078152
 21
119.93812174525731
 31
0.0
  0
LINE
  5
33BD9
  8
0
 10
339.20461759103648
 20
79.172544590722225
 30
0.0
 11
339.20461759103648
 21
82.131326598786188
 31
0.0
  0
LINE
  5
33BDA
  8
0
 10
337.20461759103648
 20
79.881240921113715
 30
0.0
 11
339.20461759103648
 21
79.881240921113715
 31
0.0
  0
POLYLINE
  5
33BDC
  8
0
 66
     1
 10
0.0
 20
0.0
 30
0.0
 70
   128
  0
VERTEX
  5
33FAE
  8
0
 10
337.20461759103648
 20
82.476245030983023
 30
0.0
  0
VERTEX
  5
33FAF
  8
0
 10
337.98408317091389
 20
83.057137656882787
 30
0.0
  0
VERTEX
  5
33FB0
  8
0
 10
338.6752895613119
 20
83.68622149477477
 30
0.0
  0
VERTEX
  5
33FB1
  8
0
 10
339.54213338945158
 20
84.713241866191467
 30
0.0
  0
VERTEX
  5
33FB2
  8
0
 10
340.21861519522389
 20
85.840299508455018
 30
0.0
  0
VERTEX
  5
33FB3
  8
0
 10
340.70971276731109
 20
87.054231911121974
 30
0.0
  0
VERTEX
  5
33FB4
  8
0
 10
341.04127864692782
 20
88.443037191311646
 30
0.0
  0
VERTEX
  5
33FB5
  8
0
 10
341.19090847329352
 20
89.919131639551935
 30
0.0
  0
VERTEX
  5
33FB6
  8
0
 10
341.17474524568809
 20
91.467656106559659
 30
0.0
  0
VERTEX
  5
33FB7
  8
0
 10
341.00893196339092
 20
93.073751443051435
 30
0.0
  0
VERTEX
  5
33FB8
  8
0
 10
340.55747748151242
 20
95.401151117787947
 30
0.0
  0
VERTEX
  5
33FB9
  8
0
 10
339.88048445513931
 20
97.821564906255901
 30
0.0
  0
VERTEX
  5
33FBA
  8
0
 10
339.00977017603032
 20
100.31139042172261
 30
0.0
  0
VERTEX
  5
33FBB
  8
0
 10
337.97715193594411
 20
102.8470252774556
 30
0.0
  0
VERTEX
  5
33FBC
  8
0
 10
336.67366418050608
 20
105.7132247984289
 30
0.0
  0
VERTEX
  5
33FBD
  8
0
 10
335.21438124991658
 20
108.62691501754171
 30
0.0
  0
VERTEX
  5
33FBE
  8
0
 10
333.601411744247
 20
111.55861148214871
 30
0.0
  0
VERTEX
  5
33FBF
  8
0
 10
331.83686426357019
 20
114.47882973960419
 30
0.0
  0
VERTEX
  5
33FC0
  8
0
 10
329.92284740795787
 20
117.35808533726249
 30
0.0
  0
VERTEX
  5
33FC1
  8
0
 10
328.98255475679542
 20
118.6629363870601
 30
0.0
  0
VERTEX
  5
33FC2
  8
0
 10
327.98790440055291
 20
119.93812174525731
 30
0.0
  0
SEQEND
  5
33FC3
  8
0
  0
LINE
  5
33BDD
  8
0
 10
305.20461759103659
 20
79.881240921113715
 30
0.0
 11
307.20461759103659
 21
79.881240921113715
 31
0.0
  0
LINE
  5
33BDE
  8
0
 10
305.20461759103659
 20
82.131326598786131
 30
0.0
 11
305.20461759103659
 21
79.172544590722225
 31
0.0
  0
POLYLINE
  5
33BDF
  8
0
 66
     1
 10
0.0
 20
0.0
 30
0.0
 70
   128
  0
VERTEX
  5
33FC4
  8
0
 10
316.42133078152
 20
119.93812174525731
 30
0.0
  0
VERTEX
  5
33FC5
  8
0
 10
314.58311793756519
 20
117.53480482775269
 30
0.0
  0
VERTEX
  5
33FC6
  8
0
 10
312.90129470166721
 20
115.0511451654953
 30
0.0
  0
VERTEX
  5
33FC7
  8
0
 10
311.35753448782009
 20
112.5207255306775
 30
0.0
  0
VERTEX
  5
33FC8
  8
0
 10
309.9335107100178
 20
109.9771286954915
 30
0.0
  0
VERTEX
  5
33FC9
  8
0
 10
308.61089678225437
 20
107.45393743212991
 30
0.0
  0
VERTEX
  5
33FCA
  8
0
 10
307.29338261995179
 20
104.7663563251887
 30
0.0
  0
VERTEX
  5
33FCB
  8
0
 10
306.10984569700071
 20
102.1020349866734
 30
0.0
  0
VERTEX
  5
33FCC
  8
0
 10
305.08850273904898
 20
99.483108373658354
 30
0.0
  0
VERTEX
  5
33FCD
  8
0
 10
304.25757047174409
 20
96.931711443217296
 30
0.0
  0
VERTEX
  5
33FCE
  8
0
 10
303.64526562073411
 20
94.469979152424514
 30
0.0
  0
VERTEX
  5
33FCF
  8
0
 10
303.3667002553272
 20
92.828991026624166
 30
0.0
  0
VERTEX
  5
33FD0
  8
0
 10
303.22227760910363
 20
91.238025629818083
 30
0.0
  0
VERTEX
  5
33FD1
  8
0
 10
303.22782984244913
 20
89.710515947622184
 30
0.0
  0
VERTEX
  5
33FD2
  8
0
 10
303.39918911575
 20
88.259894965652606
 30
0.0
  0
VERTEX
  5
33FD3
  8
0
 10
303.80323033883133
 20
86.754006947434618
 30
0.0
  0
VERTEX
  5
33FD4
  8
0
 10
304.45076349677851
 20
85.358383925982764
 30
0.0
  0
VERTEX
  5
33FD5
  8
0
 10
305.35430744011433
 20
84.094832324958247
 30
0.0
  0
VERTEX
  5
33FD6
  8
0
 10
306.20420975942392
 20
83.244841664466776
 30
0.0
  0
VERTEX
  5
33FD7
  8
0
 10
307.20461759103659
 20
82.476245030983023
 30
0.0
  0
SEQEND
  5
33FD8
  8
0
  0
LINE
  5
33BE1
  8
0
 10
307.20461759103659
 20
79.172544590722225
 30
0.0
 11
307.20461759103659
 21
104.5665327657654
 31
0.0
  0
LINE
  5
33BE2
  8
0
 10
337.20461759103648
 20
104.54572751694531
 30
0.0
 11
337.20461759103648
 21
79.172544590722225
 31
0.0
  0
POLYLINE
  5
33BE4
  8
0
 66
     1
 10
0.0
 20
0.0
 30
0.0
 70
   128
  0
VERTEX
  5
33FD9
  8
0
 10
344.00495768293553
 20
91.953448386356285
 30
0.0
  0
VERTEX
  5
33FDA
  8
0
 10
344.15145205254493
 20
90.569248334771203
 30
0.0
  0
VERTEX
  5
33FDB
  8
0
 10
344.20461759103648
 20
89.172544590721884
 30
0.0
  0
SEQEND
  5
33FDC
  8
0
  0
POLYLINE
  5
33BE5
  8
0
 66
     1
 10
0.0
 20
0.0
 30
0.0
 70
   128
  0
VERTEX
  5
33FDD
  8
0
 10
344.20461759103648
 20
93.343900284173515
 30
0.0
  0
VERTEX
  5
33FDE
  8
0
 10
344.15191762691842
 20
92.648674335264843
 30
0.0
  0
VERTEX
  5
33FDF
  8
0
 10
344.00495768293553
 20
91.953448386356285
 30
0.0
  0
SEQEND
  5
33FE0
  8
0
  0
POLYLINE
  5
33BE6
  8
0
 66
     1
 10
0.0
 20
0.0
 30
0.0
 70
   128
  0
VERTEX
  5
33FE1
  8
0
 10
344.00495768293553
 20
86.391640795087426
 30
0.0
  0
VERTEX
  5
33FE2
  8
0
 10
344.15145205254493
 20
85.699540769294913
 30
0.0
  0
VERTEX
  5
33FE3
  8
0
 10
344.20461759103648
 20
85.001188897270197
 30
0.0
  0
SEQEND
  5
33FE4
  8
0
  0
POLYLINE
  5
33BE7
  8
0
 66
     1
 10
0.0
 20
0.0
 30
0.0
 70
   128
  0
VERTEX
  5
33FE5
  8
0
 10
344.20461759103648
 20
89.172544590721884
 30
0.0
  0
VERTEX
  5
33FE6
  8
0
 10
344.08866818657452
 20
87.085470596275684
 30
0.0
  0
VERTEX
  5
33FE7
  8
0
 10
344.00495768293553
 20
86.391640795087426
 30
0.0
  0
SEQEND
  5
33FE8
  8
0
  0
POLYLINE
  5
33BE9
  8
0
 66
     1
 10
0.0
 20
0.0
 30
0.0
 70
   128
  0
VERTEX
  5
33FE9
  8
0
 10
301.40427750003141
 20
86.391640795087426
 30
0.0
  0
VERTEX
  5
33FEA
  8
0
 10
301.25778313041673
 20
85.699540769265354
 30
0.0
  0
VERTEX
  5
33FEB
  8
0
 10
301.20461759103659
 20
85.001188897270197
 30
0.0
  0
SEQEND
  5
33FEC
  8
0
  0
POLYLINE
  5
33BEB
  8
0
 66
     1
 10
0.0
 20
0.0
 30
0.0
 70
   128
  0
VERTEX
  5
33FED
  8
0
 10
301.20461759103659
 20
89.172544590721884
 30
0.0
  0
VERTEX
  5
33FEE
  8
0
 10
301.32056699638702
 20
87.085470596322693
 30
0.0
  0
VERTEX
  5
33FEF
  8
0
 10
301.40427750003141
 20
86.391640795087426
 30
0.0
  0
SEQEND
  5
33FF0
  8
0
  0
LINE
  5
33BEC
  8
0
 10
343.20461759103648
 20
94.734352181990744
 30
0.0
 11
344.00495768293553
 21
94.734352181990744
 31
0.0
  0
ARC
  5
33BED
  8
0
 10
339.04612904227719
 20
93.312735545479427
 30
0.0
 40
5.1585826879695
 50
0.3461452431348675
 51
15.996747954636019
  0
LINE
  5
33BEE
  8
0
 10
343.20461759103648
 20
91.953448386356285
 30
0.0
 11
344.00495768293553
 21
91.953448386356285
 31
0.0
  0
LINE
  5
33BEF
  8
0
 10
342.52839773985011
 20
86.391640795087426
 30
0.0
 11
344.00495768293553
 21
86.391640795087426
 31
0.0
  0
POLYLINE
  5
33BF0
  8
0
 66
     1
 10
0.0
 20
0.0
 30
0.0
 70
   128
  0
VERTEX
  5
33FF1
  8
0
 10
344.20461759103648
 20
85.001188897270197
 30
0.0
  0
VERTEX
  5
33FF2
  8
0
 10
344.1063462629927
 20
84.043644143533697
 30
0.0
  0
VERTEX
  5
33FF3
  8
0
 10
344.00495768293553
 20
83.610736999452968
 30
0.0
  0
SEQEND
  5
33FF4
  8
0
  0
LINE
  5
33BF1
  8
0
 10
340.84053662352562
 20
83.610736999452968
 30
0.0
 11
344.00495768293553
 21
83.610736999452968
 31
0.0
  0
LINE
  5
33BF2
  8
0
 10
301.88752421989
 20
86.391640795087426
 30
0.0
 11
301.40427750003141
 21
86.391640795087426
 31
0.0
  0
LINE
  5
33BF3
  8
0
 10
303.5471098433228
 20
83.610736999452968
 30
0.0
 11
301.40427750003141
 21
83.610736999452968
 31
0.0
  0
POLYLINE
  5
33BF4
  8
0
 66
     1
 10
0.0
 20
0.0
 30
0.0
 70
   128
  0
VERTEX
  5
33FF5
  8
0
 10
301.20461759103659
 20
85.001188897270197
 30
0.0
  0
VERTEX
  5
33FF6
  8
0
 10
301.30288891996918
 20
84.043644143556719
 30
0.0
  0
VERTEX
  5
33FF7
  8
0
 10
301.40427750003141
 20
83.610736999452968
 30
0.0
  0
SEQEND
  5
33FF8
  8
0
  0
LINE
  5
33BFA
  8
0
 10
345.20461759103648
 20
86.786044590721886
 30
0.0
 11
345.20461759103642
 21
91.559044590721854
 31
0.0
  0
LINE
  5
33BFC
  8
0
 10
344.59111759103661
 20
86.172544590721884
 30
0.0
 11
344.59111759103649
 21
92.172544590721827
 31
0.0
  0
LINE
  5
33BFD
  8
0
 10
344.20461759103648
 20
84.355877920721866
 30
0.0
 11
344.20461759103648
 21
93.989211255721855
 31
0.0
  0
LINE
  5
33BFF
  8
0
 10
301.20461759103659
 20
84.35587792572187
 30
0.0
 11
301.20461759103659
 21
89.172544590721884
 31
0.0
  0
LINE
  5
33C00
  8
0
 10
334.20461759103648
 20
110.498628999975
 30
0.0
 11
334.20461759103648
 21
63.365568789593851
 31
0.0
  0
LINE
  5
33C01
  8
0
 10
310.20461759103648
 20
110.4977780137792
 30
0.0
 11
310.20461759103648
 21
63.365568789593851
 31
0.0
  0
LINE
  5
33C05
  8
0
 10
332.56825395467263
 20
113.295742634169
 30
0.0
 11
332.56825395467263
 21
61.019480080404271
 31
0.0
  0
LINE
  5
33C06
  8
0
 10
40.454194467516963
 20
79.172544590725508
 30
0.0
 11
42.45419446751697
 21
79.172544590725508
 31
0.0
  0
LINE
  5
33C07
  8
0
 10
72.45419446751697
 20
79.172544590725508
 30
0.0
 11
74.45419446751697
 21
79.172544590725508
 31
0.0
  0
LINE
  5
33C0A
  8
0
 10
74.95419446751697
 20
93.612544590725165
 30
0.0
 11
74.45419446751697
 21
93.612544590725165
 31
0.0
  0
LINE
  5
33C0B
  8
0
 10
74.45419446751697
 20
84.732544590725169
 30
0.0
 11
74.95419446751697
 21
84.732544590725169
 31
0.0
  0
LINE
  5
33C10
  8
0
 10
35.067694467517128
 20
92.172544590725167
 30
0.0
 11
34.45419446751697
 21
91.559044590725122
 31
0.0
  0
LINE
  5
33C11
  8
0
 10
34.45419446751697
 20
86.786044590725155
 30
0.0
 11
35.067694467517128
 21
86.172544590725167
 31
0.0
  0
LINE
  5
33C12
  8
0
 10
35.45419446751697
 20
92.172544590725167
 30
0.0
 11
35.067694467517128
 21
92.172544590725167
 31
0.0
  0
LINE
  5
33C13
  8
0
 10
35.067694467517128
 20
86.172544590725167
 30
0.0
 11
35.45419446751697
 21
86.172544590725167
 31
0.0
  0
LINE
  5
33C14
  8
0
 10
35.653854375618209
 20
94.734352181994026
 30
0.0
 11
35.45419446751697
 21
93.989211260725128
 31
0.0
  0
LINE
  5
33C15
  8
0
 10
35.45419446751697
 20
84.355877920725149
 30
0.0
 11
35.653854375618209
 21
83.610736999456265
 31
0.0
  0
LINE
  5
33C16
  8
0
 10
40.454194467516963
 20
93.989211260725128
 30
0.0
 11
40.254534559416179
 21
94.734352181994026
 31
0.0
  0
LINE
  5
33C17
  8
0
 10
40.254534559416179
 20
83.610736999456265
 30
0.0
 11
40.454194467516963
 21
84.355877920725149
 31
0.0
  0
LINE
  5
33C18
  8
0
 10
78.25453455852238
 20
83.610736999456265
 30
0.0
 11
78.45419446751697
 21
84.355877924058447
 31
0.0
  0
LINE
  5
33C19
  8
0
 10
78.45419446751697
 20
93.989211257391844
 30
0.0
 11
78.25453455852238
 21
94.734352181994026
 31
0.0
  0
LINE
  5
33C1A
  8
0
 10
39.45419446751697
 20
130.6725445907251
 30
0.0
 11
39.45419446751697
 21
129.6725445907251
 31
0.0
  0
LINE
  5
33C1B
  8
0
 10
75.45419446751697
 20
129.6725445907251
 30
0.0
 11
75.45419446751697
 21
130.6725445907251
 31
0.0
  0
LINE
  5
33C1C
  8
0
 10
78.45419446751697
 20
84.355877924058447
 30
0.0
 11
78.45419446751697
 21
129.6725445907251
 31
0.0
  0
LINE
  5
33C1D
  8
0
 10
36.45419446751697
 20
129.6725445907251
 30
0.0
 11
36.45419446751697
 21
94.734352181994026
 31
0.0
  0
ARC
  5
33C1E
  8
0
 10
57.454194467517198
 20
89.172544590725167
 30
0.0
 40
29.999999999996412
 50
249.79045462624561
 51
290.20954537375439
  0
ARC
  5
33C1F
  8
0
 10
57.454194467517198
 20
89.172544590725167
 30
0.0
 40
29.999999999996358
 50
69.790454626245662
 51
110.2095453737543
  0
ARC
  5
33C20
  8
0
 10
47.954194467515833
 20
63.36556878959685
 30
0.0
 40
2.4999999999988058
 50
179.9999999999967
 51
249.7904546262734
  0
ARC
  5
33C21
  8
0
 10
47.954194467515833
 20
114.9795203918533
 30
0.0
 40
2.4999999999988209
 50
110.2095453737266
 51
180.00000000000321
  0
ARC
  5
33C22
  8
0
 10
66.954194467518334
 20
63.36556878959685
 30
0.0
 40
2.4999999999988631
 50
290.2095453737266
 51
0.0000000000032569
  0
ARC
  5
33C23
  8
0
 10
66.954194467518334
 20
114.9795203918533
 30
0.0
 40
2.4999999999988631
 50
359.99999999999841
 51
69.790454626273416
  0
LINE
  5
33C24
  8
0
 10
45.454194467516963
 20
105.1725445907251
 30
0.0
 11
42.45419446751697
 21
97.172544590725124
 31
0.0
  0
LINE
  5
33C25
  8
0
 10
42.45419446751697
 20
81.172544590725167
 30
0.0
 11
45.454194467516963
 21
73.172544590725167
 31
0.0
  0
LINE
  5
33C26
  8
0
 10
69.454194467517198
 20
73.172544590725167
 30
0.0
 11
72.454194467517198
 21
81.172544590725167
 31
0.0
  0
LINE
  5
33C27
  8
0
 10
72.454194467517198
 20
97.172544590725124
 30
0.0
 11
69.454194467517198
 21
105.1725445907251
 31
0.0
  0
LINE
  5
33C29
  8
0
 10
42.454194467517198
 20
90.024788969633079
 30
0.0
 11
40.454194467517191
 21
90.024788969633079
 31
0.0
  0
LINE
  5
33C2C
  8
0
 10
74.454194467517198
 20
90.024788969633079
 30
0.0
 11
72.454194467517198
 21
90.024788969633079
 31
0.0
  0
LINE
  5
33C2E
  8
0
 10
42.45419446751697
 20
124.6725445907251
 30
0.0
 11
40.454194467516963
 21
124.6725445907251
 31
0.0
  0
LINE
  5
33C2F
  8
0
 10
42.454194467517198
 20
79.172544590725508
 30
0.0
 11
42.454194467517198
 21
127.6725445907251
 31
0.0
  0
LINE
  5
33C30
  8
0
 10
40.454194467517191
 20
127.6725445907251
 30
0.0
 11
40.454194467517191
 21
79.172544590725508
 31
0.0
  0
LINE
  5
33C31
  8
0
 10
74.454194467517198
 20
124.6725445907251
 30
0.0
 11
72.454194467517198
 21
124.6725445907251
 31
0.0
  0
LINE
  5
33C32
  8
0
 10
74.454194467517198
 20
79.172544590725508
 30
0.0
 11
74.454194467517198
 21
127.6725445907251
 31
0.0
  0
LINE
  5
33C33
  8
0
 10
72.454194467517198
 20
127.6725445907251
 30
0.0
 11
72.454194467517198
 21
79.172544590725508
 31
0.0
  0
LINE
  5
33C35
  8
0
 10
27.45419446751697
 20
140.17254459072521
 30
0.0
 11
87.45419446751697
 21
140.17254459072521
 31
0.0
  0
LINE
  5
33C36
  8
0
 10
27.45419446751697
 20
140.17254459072521
 30
0.0
 11
27.45419446751697
 21
142.17254459072521
 31
0.0
  0
LINE
  5
33C37
  8
0
 10
27.45419446751697
 20
142.17254459072521
 30
0.0
 11
87.45419446751697
 21
142.17254459072521
 31
0.0
  0
ARC
  5
33C3B
  8
0
 10
42.45419446751697
 20
127.672544590725
 30
0.0
 40
2.0000000000001128
 50
90.0
 51
179.9999999999967
  0
ARC
  5
33C3C
  8
0
 10
72.454194467517425
 20
127.6725445907252
 30
0.0
 40
1.9999999999998861
 50
359.99999999999682
 51
90.000000000006509
  0
LINE
  5
33C3D
  8
0
 10
40.454194467516963
 20
127.6725445907251
 30
0.0
 11
74.454194467517198
 21
127.6725445907251
 31
0.0
  0
LINE
  5
33C3F
  8
0
 10
87.45419446751697
 20
140.17254459072521
 30
0.0
 11
87.45419446751697
 21
142.17254459072521
 31
0.0
  0
POLYLINE
  5
33C46
  8
0
 66
     1
 10
0.0
 20
0.0
 30
0.0
 70
   128
  0
VERTEX
  5
33FF9
  8
0
 10
35.653854375618209
 20
91.953448386359568
 30
0.0
  0
VERTEX
  5
33FFA
  8
0
 10
35.552433235133037
 20
92.386519993061185
 30
0.0
  0
VERTEX
  5
33FFB
  8
0
 10
35.45419446751697
 20
93.343900284176783
 30
0.0
  0
SEQEND
  5
33FFC
  8
0
  0
POLYLINE
  5
33C47
  8
0
 66
     1
 10
0.0
 20
0.0
 30
0.0
 70
   128
  0
VERTEX
  5
33FFD
  8
0
 10
35.45419446751697
 20
89.172544590725167
 30
0.0
  0
VERTEX
  5
33FFE
  8
0
 10
35.506894431635317
 20
90.562996488542325
 30
0.0
  0
VERTEX
  5
33FFF
  8
0
 10
35.653854375618209
 20
91.953448386359568
 30
0.0
  0
SEQEND
  5
34000
  8
0
  0
POLYLINE
  5
33C49
  8
0
 66
     1
 10
0.0
 20
0.0
 30
0.0
 70
   128
  0
VERTEX
  5
34001
  8
0
 10
35.653854375618209
 20
86.391640795090694
 30
0.0
  0
VERTEX
  5
34002
  8
0
 10
35.570143871979042
 20
87.085470596278967
 30
0.0
  0
VERTEX
  5
34003
  8
0
 10
35.45419446751697
 20
89.172544590725167
 30
0.0
  0
SEQEND
  5
34004
  8
0
  0
ARC
  5
33C4A
  8
0
 10
40.611679845871031
 20
84.970168207367564
 30
0.0
 40
5.1575786674695099
 50
164.00171915620029
 51
179.6553876460257
  0
LINE
  5
33C4B
  8
0
 10
35.45419446751697
 20
93.989211255725124
 30
0.0
 11
35.45419446751697
 21
84.355877920725149
 31
0.0
  0
POLYLINE
  5
33C4C
  8
0
 66
     1
 10
0.0
 20
0.0
 30
0.0
 70
   128
  0
VERTEX
  5
34005
  8
0
 10
40.254534559416179
 20
91.953448386359568
 30
0.0
  0
VERTEX
  5
34006
  8
0
 10
40.401028929025593
 20
90.569248334774485
 30
0.0
  0
VERTEX
  5
34007
  8
0
 10
40.454194467516963
 20
89.172544590725167
 30
0.0
  0
SEQEND
  5
34008
  8
0
  0
POLYLINE
  5
33C4D
  8
0
 66
     1
 10
0.0
 20
0.0
 30
0.0
 70
   128
  0
VERTEX
  5
34009
  8
0
 10
40.454194467516963
 20
93.343900284176783
 30
0.0
  0
VERTEX
  5
3400A
  8
0
 10
40.355955699901131
 20
92.386519993061185
 30
0.0
  0
VERTEX
  5
3400B
  8
0
 10
40.254534559416179
 20
91.953448386359568
 30
0.0
  0
SEQEND
  5
3400C
  8
0
  0
ARC
  5
33C4E
  8
0
 10
35.29579656895902
 20
84.970037175362776
 30
0.0
 40
5.1584919607989397
 50
0.3460067501017477
 51
15.99688644766298
  0
POLYLINE
  5
33C4F
  8
0
 66
     1
 10
0.0
 20
0.0
 30
0.0
 70
   128
  0
VERTEX
  5
3400D
  8
0
 10
40.454194467516963
 20
89.172544590725167
 30
0.0
  0
VERTEX
  5
3400E
  8
0
 10
40.338245063055133
 20
87.085470596278967
 30
0.0
  0
VERTEX
  5
3400F
  8
0
 10
40.254534559416179
 20
86.391640795090694
 30
0.0
  0
SEQEND
  5
34010
  8
0
  0
POLYLINE
  5
33C50
  8
0
 66
     1
 10
0.0
 20
0.0
 30
0.0
 70
   128
  0
VERTEX
  5
34011
  8
0
 10
78.25453455852238
 20
86.391640795090694
 30
0.0
  0
VERTEX
  5
34012
  8
0
 10
78.33824506216655
 20
87.085470596325976
 30
0.0
  0
VERTEX
  5
34013
  8
0
 10
78.454194467517183
 20
89.172544590725167
 30
0.0
  0
SEQEND
  5
34014
  8
0
  0
ARC
  5
33C52
  8
0
 10
73.296708886542717
 20
84.970168175085846
 30
0.0
 40
5.1575788702805738
 50
0.3446126990477651
 51
15.998280570893719
  0
POLYLINE
  5
33C54
  8
0
 66
     1
 10
0.0
 20
0.0
 30
0.0
 70
   128
  0
VERTEX
  5
34015
  8
0
 10
78.454194467517183
 20
89.172544590725167
 30
0.0
  0
VERTEX
  5
34016
  8
0
 10
78.401494502505727
 20
90.562996488542325
 30
0.0
  0
VERTEX
  5
34017
  8
0
 10
78.25453455852238
 20
91.953448386359568
 30
0.0
  0
SEQEND
  5
34018
  8
0
  0
POLYLINE
  5
33C55
  8
0
 66
     1
 10
0.0
 20
0.0
 30
0.0
 70
   128
  0
VERTEX
  5
34019
  8
0
 10
78.25453455852238
 20
91.953448386359568
 30
0.0
  0
VERTEX
  5
3401A
  8
0
 10
78.355955699011872
 20
92.386519993081933
 30
0.0
  0
VERTEX
  5
3401B
  8
0
 10
78.45419446751697
 20
93.343900284176783
 30
0.0
  0
SEQEND
  5
3401C
  8
0
  0
POLYLINE
  5
33C56
  8
0
 66
     1
 10
0.0
 20
0.0
 30
0.0
 70
   128
  0
VERTEX
  5
3401D
  8
0
 10
40.254534559416179
 20
94.734352181994026
 30
0.0
  0
VERTEX
  5
3401E
  8
0
 10
40.401028929025593
 20
94.042252156201513
 30
0.0
  0
VERTEX
  5
3401F
  8
0
 10
40.454194467516963
 20
93.343900284176783
 30
0.0
  0
SEQEND
  5
34020
  8
0
  0
LINE
  5
33C57
  8
0
 10
40.254534559416179
 20
91.953448386359568
 30
0.0
 11
35.653854375618209
 21
91.953448386359568
 31
0.0
  0
POLYLINE
  5
33C58
  8
0
 66
     1
 10
0.0
 20
0.0
 30
0.0
 70
   128
  0
VERTEX
  5
34021
  8
0
 10
35.45419446751697
 20
93.343900284176783
 30
0.0
  0
VERTEX
  5
34022
  8
0
 10
35.506894431635317
 20
94.039126233085398
 30
0.0
  0
VERTEX
  5
34023
  8
0
 10
35.653854375618209
 20
94.734352181994026
 30
0.0
  0
SEQEND
  5
34024
  8
0
  0
LINE
  5
33C59
  8
0
 10
40.254534559416179
 20
94.734352181994026
 30
0.0
 11
35.653854375618209
 21
94.734352181994026
 31
0.0
  0
POLYLINE
  5
33C5A
  8
0
 66
     1
 10
0.0
 20
0.0
 30
0.0
 70
   128
  0
VERTEX
  5
34025
  8
0
 10
40.454194467516963
 20
85.001188897273479
 30
0.0
  0
VERTEX
  5
34026
  8
0
 10
40.401494503399078
 20
84.305962948364865
 30
0.0
  0
VERTEX
  5
34027
  8
0
 10
40.254534559416179
 20
83.610736999456265
 30
0.0
  0
SEQEND
  5
34028
  8
0
  0
LINE
  5
33C5B
  8
0
 10
40.254534559416179
 20
83.610736999456265
 30
0.0
 11
35.653854375618209
 21
83.610736999456265
 31
0.0
  0
POLYLINE
  5
33C5C
  8
0
 66
     1
 10
0.0
 20
0.0
 30
0.0
 70
   128
  0
VERTEX
  5
34029
  8
0
 10
35.653854375618209
 20
83.610736999456265
 30
0.0
  0
VERTEX
  5
3402A
  8
0
 10
35.507360006008589
 20
84.30283702524882
 30
0.0
  0
VERTEX
  5
3402B
  8
0
 10
35.45419446751697
 20
85.001188897273479
 30
0.0
  0
SEQEND
  5
3402C
  8
0
  0
LINE
  5
33C5D
  8
0
 10
40.254534559416179
 20
86.391640795090694
 30
0.0
 11
35.653854375618209
 21
86.391640795090694
 31
0.0
  0
LINE
  5
33C5E
  8
0
 10
74.954194467517198
 20
91.953448386359568
 30
0.0
 11
78.25453455852238
 21
91.953448386359568
 31
0.0
  0
LINE
  5
33C5F
  8
0
 10
74.95419446751697
 20
94.734352181994026
 30
0.0
 11
74.95419446751697
 21
83.610736999456265
 31
0.0
  0
LINE
  5
33C60
  8
0
 10
74.95419446751697
 20
94.734352181994026
 30
0.0
 11
78.25453455852238
 21
94.734352181994026
 31
0.0
  0
POLYLINE
  5
33C61
  8
0
 66
     1
 10
0.0
 20
0.0
 30
0.0
 70
   128
  0
VERTEX
  5
3402D
  8
0
 10
78.45419446751697
 20
93.343900284176783
 30
0.0
  0
VERTEX
  5
3402E
  8
0
 10
78.401494502505727
 20
94.039126233085398
 30
0.0
  0
VERTEX
  5
3402F
  8
0
 10
78.25453455852238
 20
94.734352181994026
 30
0.0
  0
SEQEND
  5
34030
  8
0
  0
LINE
  5
33C62
  8
0
 10
74.954194467517198
 20
86.391640795090694
 30
0.0
 11
78.25453455852238
 21
86.391640795090694
 31
0.0
  0
LINE
  5
33C64
  8
0
 10
74.95419446751697
 20
83.610736999456265
 30
0.0
 11
78.25453455852238
 21
83.610736999456265
 31
0.0
  0
POLYLINE
  5
33C65
  8
0
 66
     1
 10
0.0
 20
0.0
 30
0.0
 70
   128
  0
VERTEX
  5
34031
  8
0
 10
78.25453455852238
 20
83.610736999456265
 30
0.0
  0
VERTEX
  5
34032
  8
0
 10
78.401028928136782
 20
84.302837025278436
 30
0.0
  0
VERTEX
  5
34033
  8
0
 10
78.45419446751697
 20
85.001188897273479
 30
0.0
  0
SEQEND
  5
34034
  8
0
  0
LINE
  5
33C68
  8
0
 10
34.45419446751697
 20
91.559044590725122
 30
0.0
 11
34.45419446751697
 21
86.786044590725155
 31
0.0
  0
LINE
  5
33C69
  8
0
 10
35.067694467517128
 20
92.172544590725167
 30
0.0
 11
35.067694467517128
 21
86.172544590725167
 31
0.0
  0
POLYLINE
  5
33C6E
  8
0
 66
     1
 10
0.0
 20
0.0
 30
0.0
 70
   128
  0
VERTEX
  5
34035
  8
0
 10
74.45419446751697
 20
82.131326598789414
 30
0.0
  0
VERTEX
  5
34036
  8
0
 10
75.446937588846311
 20
82.922698636710635
 30
0.0
  0
VERTEX
  5
34037
  8
0
 10
76.11170221523065
 20
83.610736999456265
 30
0.0
  0
SEQEND
  5
34038
  8
0
  0
POLYLINE
  5
33C6F
  8
0
 66
     1
 10
0.0
 20
0.0
 30
0.0
 70
   128
  0
VERTEX
  5
34039
  8
0
 10
38.818275435027942
 20
83.610736999456265
 30
0.0
  0
VERTEX
  5
3403A
  8
0
 10
39.277200727340592
 20
83.094673200750194
 30
0.0
  0
VERTEX
  5
3403B
  8
0
 10
40.454194467516963
 20
82.131326598789414
 30
0.0
  0
SEQEND
  5
3403C
  8
0
  0
LINE
  5
33C70
  8
0
 10
78.45419446751697
 20
129.6725445907251
 30
0.0
 11
36.45419446751697
 21
129.6725445907251
 31
0.0
  0
POLYLINE
  5
33C72
  8
0
 66
     1
 10
0.0
 20
0.0
 30
0.0
 70
   128
  0
VERTEX
  5
3403D
  8
0
 10
51.670907658000431
 20
119.9381217452606
 30
0.0
  0
VERTEX
  5
3403E
  8
0
 10
52.039238359434819
 20
120.28510351143809
 30
0.0
  0
VERTEX
  5
3403F
  8
0
 10
52.486969340177609
 20
120.5636349430835
 30
0.0
  0
VERTEX
  5
34040
  8
0
 10
53.321295112524638
 20
120.90275996916711
 30
0.0
  0
VERTEX
  5
34041
  8
0
 10
54.220599415850252
 20
121.1317781466401
 30
0.0
  0
VERTEX
  5
34042
  8
0
 10
55.189107574058589
 20
121.2863683056882
 30
0.0
  0
VERTEX
  5
34043
  8
0
 10
56.172089220834494
 20
121.3755343274555
 30
0.0
  0
VERTEX
  5
34044
  8
0
 10
58.202889921180429
 20
121.4017757473339
 30
0.0
  0
VERTEX
  5
34045
  8
0
 10
59.719310284517569
 20
121.2859238241621
 30
0.0
  0
VERTEX
  5
34046
  8
0
 10
61.225117090621268
 20
121.00758766187769
 30
0.0
  0
VERTEX
  5
34047
  8
0
 10
61.834895497566492
 20
120.8185481239597
 30
0.0
  0
VERTEX
  5
34048
  8
0
 10
62.423823726040091
 20
120.5623812207325
 30
0.0
  0
VERTEX
  5
34049
  8
0
 10
62.854135703623292
 20
120.296287441483
 30
0.0
  0
VERTEX
  5
3404A
  8
0
 10
63.23748127703351
 20
119.9381217452606
 30
0.0
  0
SEQEND
  5
3404B
  8
0
  0
LINE
  5
33C73
  8
0
 10
63.23748127703351
 20
119.9381217452606
 30
0.0
 11
64.487854698964327
 21
118.303358062694
 31
0.0
  0
ARC
  5
33C74
  8
0
 10
1.4249528700146921
 20
72.129207070925744
 30
0.0
 40
78.085422840307857
 50
24.545026011901999
 51
29.399786597066321
  0
ARC
  5
33C75
  8
0
 10
102.0403090047957
 20
78.051092721641041
 30
0.0
 40
65.210970845298874
 50
150.19697140022041
 51
156.02794274965339
  0
POLYLINE
  5
33C76
  8
0
 66
     1
 10
0.0
 20
0.0
 30
0.0
 70
   128
  0
VERTEX
  5
3404C
  8
0
 10
50.406418013576911
 20
118.28847841589401
 30
0.0
  0
VERTEX
  5
3404D
  8
0
 10
50.676257301757857
 20
118.6629363870634
 30
0.0
  0
VERTEX
  5
3404E
  8
0
 10
51.670907658000431
 20
119.9381217452606
 30
0.0
  0
SEQEND
  5
3404F
  8
0
  0
LINE
  5
33C77
  8
0
 10
45.454194467517432
 20
63.365568789596828
 30
0.0
 11
45.454194467516963
 21
114.9795203918531
 31
0.0
  0
LINE
  5
33C79
  8
0
 10
69.454194467517254
 20
63.36556878959685
 30
0.0
 11
69.454194467517198
 21
114.9795203918531
 31
0.0
  0
LINE
  5
33C7D
  8
0
 10
67.817830831153458
 20
61.019480080407632
 30
0.0
 11
67.817830831153003
 21
117.3256091010427
 31
0.0
  0
LINE
  5
33C7F
  8
0
 10
47.090558103881158
 20
61.01948008040754
 30
0.0
 11
47.090558103881158
 21
117.3256091010427
 31
0.0
  0
LINE
  5
33C81
  8
0
 10
187.44290602927001
 20
258.13611567808488
 30
0.0
 11
186.82940602926999
 21
257.522615678085
 31
0.0
  0
LINE
  5
33C82
  8
0
 10
192.82940602926999
 20
257.13611567808488
 30
0.0
 11
192.82940602926999
 21
257.37875636520471
 31
0.0
  0
LINE
  5
33C83
  8
0
 10
186.82940602926999
 20
257.522615678085
 30
0.0
 11
186.82940602926999
 21
257.13611567808488
 31
0.0
  0
LINE
  5
33C84
  8
0
 10
179.82940602927019
 20
252.13611567808491
 30
0.0
 11
179.82940602927019
 21
250.13611567808491
 31
0.0
  0
LINE
  5
33C85
  8
0
 10
179.82940602927019
 20
220.13611567808491
 30
0.0
 11
179.82940602927019
 21
218.13611567808491
 31
0.0
  0
ARC
  5
33C86
  8
0
 10
189.82940602927681
 20
235.13611567808491
 30
0.0
 40
29.999999999999581
 50
159.7904546262474
 51
200.20954537375249
  0
ARC
  5
33C87
  8
0
 10
164.02243022814159
 20
244.6361156780861
 30
0.0
 40
2.4999999999988312
 50
89.999999999993491
 51
159.79045462627519
  0
ARC
  5
33C88
  8
0
 10
164.02243022814159
 20
225.63611567808371
 30
0.0
 40
2.4999999999988409
 50
200.20954537372631
 51
270.0
  0
LINE
  5
33C89
  8
0
 10
180.82940602926979
 20
249.76111567808491
 30
0.0
 11
173.82940602926979
 21
247.13611567808491
 31
0.0
  0
LINE
  5
33C8A
  8
0
 10
173.82940602926999
 20
223.13611567808491
 30
0.0
 11
180.82940602926979
 21
220.51111567808491
 31
0.0
  0
CIRCLE
  5
33C8B
  8
0
 10
210.82940602926999
 20
235.13611567808471
 30
0.0
 40
20.690000000000001
  0
LINE
  5
33C8C
  8
0
 10
235.82940602926999
 20
265.13611567808471
 30
0.0
 11
185.82940602926999
 21
265.13611567808471
 31
0.0
  0
ARC
  5
33C8D
  8
0
 10
235.82940602927101
 20
260.13611567808562
 30
0.0
 40
4.9999999999990896
 50
359.99999999999022
 51
90.000000000006509
  0
LINE
  5
33C8E
  8
0
 10
240.82940602926999
 20
210.13611567808471
 30
0.0
 11
240.82940602926999
 21
260.13611567808482
 31
0.0
  0
ARC
  5
33C8F
  8
0
 10
235.82940602927101
 20
210.1361156780838
 30
0.0
 40
4.9999999999990896
 50
269.99999999998698
 51
0.0000000000097707
  0
LINE
  5
33C90
  8
0
 10
185.82940602926999
 20
205.13611567808471
 30
0.0
 11
235.82940602926999
 21
205.13611567808471
 31
0.0
  0
ARC
  5
33C91
  8
0
 10
185.82940602926911
 20
210.1361156780838
 30
0.0
 40
4.999999999999118
 50
179.99999999999019
 51
270.00000000001302
  0
LINE
  5
33C92
  8
0
 10
180.82940602926979
 20
260.13611567808482
 30
0.0
 11
180.82940602926979
 21
210.13611567808471
 31
0.0
  0
ARC
  5
33C93
  8
0
 10
186.82940602926999
 20
259.13611567808482
 30
0.0
 40
3.0000000000005458
 50
44.999999999999922
 51
224.99999999999989
  0
ARC
  5
33C97
  8
0
 10
234.8294060292701
 20
259.13611567808482
 30
0.0
 40
3.0000000000005458
 50
315.00000000000011
 51
135.00000000000011
  0
ARC
  5
33C9B
  8
0
 10
186.82940602926999
 20
211.13611567808471
 30
0.0
 40
3.0000000000005058
 50
135.00000000000011
 51
315.00000000000011
  0
LINE
  5
33C9C
  8
0
 10
188.95072637282979
 20
209.01479533452471
 30
0.0
 11
193.7007263728301
 21
213.76479533452479
 31
0.0
  0
ARC
  5
33C9D
  8
0
 10
191.5794060292701
 20
215.88611567808479
 30
0.0
 40
3.0000000000005058
 50
315.00000000000102
 51
135.00000000000011
  0
LINE
  5
33C9E
  8
0
 10
189.4580856857101
 20
218.00743602164479
 30
0.0
 11
184.70808568570999
 21
213.25743602164471
 31
0.0
  0
ARC
  5
33C9F
  8
0
 10
234.8294060292701
 20
211.13611567808471
 30
0.0
 40
3.0000000000005058
 50
224.99999999999989
 51
44.999999999999922
  0
ARC
  5
33CA3
  8
0
 10
185.82940602926911
 20
260.13611567808562
 30
0.0
 40
4.999999999999118
 50
89.999999999986969
 51
180.0000000000114
  0
LINE
  5
33CAC
  8
0
 10
189.58676534214979
 20
252.13611567808479
 30
0.0
 11
193.56371951256949
 21
252.13611567808479
 31
0.0
  0
LINE
  5
33CAD
  8
0
 10
193.56371951256929
 20
218.13611567808479
 30
0.0
 11
189.59509254597091
 21
218.13611567808479
 31
0.0
  0
LINE
  5
33CAF
  8
0
 10
180.82940602926979
 20
252.13611567808491
 30
0.0
 11
179.82940602927019
 21
252.13611567808491
 31
0.0
  0
LINE
  5
33CB0
  8
0
 10
179.82940602927019
 20
250.13611567808491
 30
0.0
 11
180.82940602926979
 21
250.13611567808491
 31
0.0
  0
LINE
  5
33CB2
  8
0
 10
179.82940602927019
 20
218.13611567808491
 30
0.0
 11
180.82940602926979
 21
218.13611567808491
 31
0.0
  0
LINE
  5
33CB3
  8
0
 10
180.82940602926979
 20
220.13611567808491
 30
0.0
 11
179.82940602927019
 21
220.13611567808491
 31
0.0
  0
LINE
  5
33CB5
  8
0
 10
189.82940602926999
 20
252.33577558618589
 30
0.0
 11
189.82940602926999
 21
256.93645576998392
 31
0.0
  0
ARC
  5
33CB6
  8
0
 10
192.28368936084391
 20
241.9571561018312
 30
0.0
 40
15.179029126395481
 50
90.173446207575836
 51
99.304950368575774
  0
LINE
  5
33CB7
  8
0
 10
192.23773936177
 20
257.13611567808488
 30
0.0
 11
193.11023103172479
 21
257.09793136274988
 31
0.0
  0
LINE
  5
33CB9
  8
0
 10
189.82940602926999
 20
252.33577558618589
 30
0.0
 11
189.43527098101359
 21
252.28761003922099
 31
0.0
  0
LINE
  5
33CBA
  8
0
 10
185.01273936426989
 20
256.71014165596478
 30
0.0
 11
185.01273936426989
 21
256.93645576998392
 31
0.0
  0
POLYLINE
  5
33CBB
  8
0
 66
     1
 10
0.0
 20
0.0
 30
0.0
 70
   128
  0
VERTEX
  5
34050
  8
0
 10
185.01273936426989
 20
256.93645576998392
 30
0.0
  0
VERTEX
  5
34051
  8
0
 10
185.76284139039251
 20
257.03787691046898
 30
0.0
  0
VERTEX
  5
34052
  8
0
 10
187.42107269676981
 20
257.13611567808488
 30
0.0
  0
SEQEND
  5
34053
  8
0
  0
POLYLINE
  5
33CBC
  8
0
 66
     1
 10
0.0
 20
0.0
 30
0.0
 70
   128
  0
VERTEX
  5
34054
  8
0
 10
187.42107269676981
 20
257.13611567808488
 30
0.0
  0
VERTEX
  5
34055
  8
0
 10
188.62523936301989
 20
257.08341571396682
 30
0.0
  0
VERTEX
  5
34056
  8
0
 10
189.82940602926999
 20
256.93645576998392
 30
0.0
  0
SEQEND
  5
34057
  8
0
  0
LINE
  5
33CBE
  8
0
 10
189.82940602926999
 20
217.63611567808491
 30
0.0
 11
189.82940602926999
 21
214.3357755870797
 31
0.0
  0
LINE
  5
33CBF
  8
0
 10
194.01610461547281
 20
217.63611567808491
 30
0.0
 11
189.0867653421501
 21
217.63611567808491
 31
0.0
  0
POLYLINE
  5
33CC1
  8
0
 66
     1
 10
0.0
 20
0.0
 30
0.0
 70
   128
  0
VERTEX
  5
34058
  8
0
 10
192.23773936177
 20
214.13611567808491
 30
0.0
  0
VERTEX
  5
34059
  8
0
 10
193.4419060280199
 20
214.1888156430964
 30
0.0
  0
VERTEX
  5
3405A
  8
0
 10
194.1068696158427
 20
214.26996970121499
 30
0.0
  0
SEQEND
  5
3405B
  8
0
  0
ARC
  5
33CC2
  8
0
 10
192.28368941574229
 20
229.31507584948281
 30
0.0
 40
15.17902972170303
 50
260.69504978960828
 51
269.82655359200737
  0
POLYLINE
  5
33CC3
  8
0
 66
     1
 10
0.0
 20
0.0
 30
0.0
 70
   128
  0
VERTEX
  5
3405C
  8
0
 10
187.42107269676981
 20
214.13611567808491
 30
0.0
  0
VERTEX
  5
3405D
  8
0
 10
188.62523936301989
 20
214.1888156430964
 30
0.0
  0
VERTEX
  5
3405E
  8
0
 10
189.82940602926999
 20
214.3357755870797
 30
0.0
  0
SEQEND
  5
3405F
  8
0
  0
POLYLINE
  5
33CC4
  8
0
 66
     1
 10
0.0
 20
0.0
 30
0.0
 70
   128
  0
VERTEX
  5
34060
  8
0
 10
185.6942749631657
 20
214.2436252991007
 30
0.0
  0
VERTEX
  5
34061
  8
0
 10
185.76284139042849
 20
214.2343544465902
 30
0.0
  0
VERTEX
  5
34062
  8
0
 10
187.42107269676981
 20
214.13611567808491
 30
0.0
  0
SEQEND
  5
34063
  8
0
  0
LINE
  5
33CC7
  8
0
 10
193.07204671638979
 20
257.13611567808488
 30
0.0
 11
185.01273936426989
 21
257.13611567808488
 31
0.0
  0
LINE
  5
33CC8
  8
0
 10
185.01273936426989
 20
257.13611567808488
 30
0.0
 11
185.01273936426989
 21
256.93645576998392
 31
0.0
  0
LINE
  5
33CCB
  8
0
 10
194.0161046154731
 20
214.13611567808491
 30
0.0
 11
185.58676534214999
 21
214.13611567808491
 31
0.0
  0
LINE
  5
33CCC
  8
0
 10
192.07204671638979
 20
258.13611567808488
 30
0.0
 11
187.44290602927001
 21
258.13611567808488
 31
0.0
  0
LINE
  5
33CCD
  8
0
 10
192.68554671638969
 20
257.522615678085
 30
0.0
 11
186.82940602926999
 21
257.522615678085
 31
0.0
  0
LINE
  5
33CD2
  8
0
 10
164.0224302281419
 20
247.13611567808491
 30
0.0
 11
180.82940602926979
 21
247.13611567808479
 31
0.0
  0
LINE
  5
33CD3
  8
0
 10
164.0224302281419
 20
223.13611567808491
 30
0.0
 11
180.82940602926979
 21
223.13611567808479
 31
0.0
  0
LINE
  5
33CD4
  8
0
 10
161.67634151894879
 20
224.7724793144489
 30
0.0
 11
180.82940602926979
 21
224.77247931444879
 31
0.0
  0
LINE
  5
33CD5
  8
0
 10
161.67634151894879
 20
245.49975204172091
 30
0.0
 11
180.82940602926979
 21
245.4997520417208
 31
0.0
  0
LINE
  5
33CDA
  8
3
 10
187.44290602927001
 20
258.13611567808488
 30
0.0
 11
187.44290602927001
 21
257.13611567808488
 31
0.0
  0
LINE
  5
33CE2
  8
1
 10
210.8294060292769
 20
151.435984896143
 30
0.0
 11
210.8294060292769
 21
110.0635046105926
 31
0.0
  0
LINE
  5
33CE3
  8
1
 10
151.09968737961381
 20
89.172544590728634
 30
0.0
 11
228.5591246789399
 21
89.172544590728634
 31
0.0
  0
LINE
  5
33CE4
  8
1
 10
189.82940602927681
 20
50.442825941065621
 30
0.0
 11
189.82940602927681
 21
118.73326232656601
 31
0.0
  0
LINE
  5
33CE5
  8
1
 10
150.9487179353045
 20
235.13611567808471
 30
0.0
 11
250.41097466651959
 21
235.13611567808471
 31
0.0
  0
LINE
  5
33CE6
  8
1
 10
210.8294060292769
 20
195.55454704084201
 30
0.0
 11
210.8294060292769
 21
274.7176843153274
 31
0.0
  0
LINE
  5
33CE7
  8
1
 10
189.82940602927681
 20
198.46730539306969
 30
0.0
 11
189.82940602927681
 21
271.80492596309972
 31
0.0
  0
LINE
  5
33CE8
  8
1
 10
183.67940602927689
 20
259.13611567808471
 30
0.0
 11
189.97940602927679
 21
259.13611567808471
 31
0.0
  0
LINE
  5
33CE9
  8
1
 10
186.82940602927681
 20
255.9861156780847
 30
0.0
 11
186.82940602927681
 21
262.28611567808468
 31
0.0
  0
LINE
  5
33CEC
  8
1
 10
231.67940602927689
 20
259.13611567808471
 30
0.0
 11
237.97940602927679
 21
259.13611567808471
 31
0.0
  0
LINE
  5
33CED
  8
1
 10
234.8294060292769
 20
255.9861156780847
 30
0.0
 11
234.8294060292769
 21
262.28611567808468
 31
0.0
  0
LINE
  5
33CEE
  8
1
 10
183.67940602927689
 20
211.13611567808471
 30
0.0
 11
189.97940602927679
 21
211.13611567808471
 31
0.0
  0
LINE
  5
33CEF
  8
1
 10
186.82940602927681
 20
207.9861156780847
 30
0.0
 11
186.82940602927681
 21
214.28611567808471
 31
0.0
  0
LINE
  5
33CF0
  8
1
 10
188.42940602927689
 20
215.88611567808479
 30
0.0
 11
194.7294060292769
 21
215.88611567808479
 31
0.0
  0
LINE
  5
33CF1
  8
1
 10
191.5794060292769
 20
212.7361156780847
 30
0.0
 11
191.5794060292769
 21
219.0361156780848
 31
0.0
  0
LINE
  5
33CF2
  8
1
 10
231.67940602927689
 20
211.13611567808471
 30
0.0
 11
237.97940602927679
 21
211.13611567808471
 31
0.0
  0
LINE
  5
33CF3
  8
1
 10
234.8294060292769
 20
207.9861156780847
 30
0.0
 11
234.8294060292769
 21
214.28611567808471
 31
0.0
  0
LINE
  5
33CF8
  8
1
 10
291.75869785352501
 20
89.172544590728634
 30
0.0
 11
352.65053732854813
 21
89.172544590728634
 31
0.0
  0
LINE
  5
33CF9
  8
1
 10
322.20461759103659
 20
50.442825941065621
 30
0.0
 11
322.20461759103659
 21
151.435984896143
 31
0.0
  0
LINE
  5
33CFA
  8
1
 10
87.900114205028729
 20
89.172544590728634
 30
0.0
 11
27.00827473000567
 21
89.172544590728634
 31
0.0
  0
LINE
  5
33CFB
  8
1
 10
57.454194467517198
 20
50.442825941065621
 30
0.0
 11
57.454194467517198
 21
151.435984896143
 31
0.0
  0
LINE
  5
33CFC
  8
0
 10
185.01273936427691
 20
91.953448386363107
 30
0.0
 11
185.01273936427691
 21
86.391640795094247
 31
0.0
  0
LINE
  5
33CFD
  8
0
 10
185.01273936427691
 20
86.391640795094247
 30
0.0
 11
189.82940602927681
 21
83.610736999459789
 31
0.0
  0
LINE
  5
33CFE
  8
0
 10
189.82940602927681
 20
83.610736999459789
 30
0.0
 11
194.64607269427691
 21
86.391640795094247
 31
0.0
  0
LINE
  5
33CFF
  8
0
 10
189.82940602927681
 20
94.734352181997565
 30
0.0
 11
185.01273936427691
 21
91.953448386363107
 31
0.0
  0
LINE
  5
33D00
  8
0
 10
194.64607269427691
 20
91.953448386363107
 30
0.0
 11
189.82940602927681
 21
94.734352181997565
 31
0.0
  0
LINE
  5
33D01
  8
0
 10
194.64607269427691
 20
86.391640795094247
 30
0.0
 11
194.64607269427691
 21
91.953448386363107
 31
0.0
  0
CIRCLE
  5
33D02
  8
0
 10
189.82940602927681
 20
89.172544590728634
 30
0.0
 40
4.8166666666666629
  0
LINE
  5
33D42
  8
3
 10
34.45419446751697
 20
91.559044590725122
 30
0.0
 11
35.45419446751697
 21
91.559044590725136
 31
0.0
  0
LINE
  5
33D43
  8
3
 10
34.45419446751697
 20
86.786044590725155
 30
0.0
 11
35.45419446751697
 21
86.786044590725155
 31
0.0
  0
LINE
  5
33D44
  8
3
 10
345.20461759103642
 20
91.559044590721854
 30
0.0
 11
344.20461759103648
 21
91.559044590721854
 31
0.0
  0
LINE
  5
33D45
  8
3
 10
345.20461759103648
 20
86.786044590721886
 30
0.0
 11
344.20461759103648
 21
86.786044590721886
 31
0.0
  0
LINE
  5
33D46
  8
0
 10
311.8409812274005
 20
113.295742634169
 30
0.0
 11
311.8409812274005
 21
61.019480080404271
 31
0.0
  0
TEXT
  5
33DE1
  8
0
 62
     3
 10
0.0
 20
0.0
 30
0.0
 40
10.0
  1
CAC7-060SBL
  7
STANDARD1
  0
LINE
  5
33E11
  8
0
 10
232.70808568572389
 20
209.01479533452471
 30
0.0
 11
227.9580856857236
 21
213.76479533452479
 31
0.0
  0
ARC
  5
33E12
  8
0
 10
230.0794060292836
 20
215.88611567808479
 30
0.0
 40
3.0000000000005058
 50
44.999999999999737
 51
224.9999999999992
  0
LINE
  5
33E13
  8
0
 10
232.20072637284369
 20
218.00743602164479
 30
0.0
 11
236.95072637284369
 21
213.25743602164471
 31
0.0
  0
LINE
  5
33E14
  8
1
 10
233.22940602927679
 20
215.88611567808479
 30
0.0
 11
226.92940602927681
 21
215.88611567808479
 31
0.0
  0
LINE
  5
33E15
  8
1
 10
230.07940602927681
 20
212.7361156780847
 30
0.0
 11
230.07940602927681
 21
219.0361156780848
 31
0.0
  0
LINE
  5
33E16
  8
0
 10
188.95072637282979
 20
261.25743602164471
 30
0.0
 11
193.7007263728301
 21
256.50743602164459
 31
0.0
  0
ARC
  5
33E17
  8
0
 10
191.5794060292701
 20
254.38611567808459
 30
0.0
 40
3.0000000000005058
 50
225.0000000000002
 51
44.99999999999973
  0
LINE
  5
33E18
  8
0
 10
189.4580856857101
 20
252.26479533452459
 30
0.0
 11
184.70808568570999
 21
257.01479533452471
 31
0.0
  0
LINE
  5
33E19
  8
1
 10
188.42940602927689
 20
254.38611567808471
 30
0.0
 11
194.7294060292769
 21
254.38611567808471
 31
0.0
  0
LINE
  5
33E1A
  8
1
 10
191.5794060292769
 20
257.53611567808468
 30
0.0
 11
191.5794060292769
 21
251.23611567808459
 31
0.0
  0
LINE
  5
33E1B
  8
0
 10
232.70808568572389
 20
261.25743602164471
 30
0.0
 11
227.9580856857236
 21
256.50743602164459
 31
0.0
  0
ARC
  5
33E1C
  8
0
 10
230.0794060292836
 20
254.38611567808459
 30
0.0
 40
3.0000000000005058
 50
135.00000000000011
 51
314.99999999999989
  0
LINE
  5
33E1D
  8
0
 10
232.20072637284369
 20
252.26479533452459
 30
0.0
 11
236.95072637284369
 21
257.01479533452471
 31
0.0
  0
LINE
  5
33E1E
  8
1
 10
233.22940602927679
 20
254.38611567808471
 30
0.0
 11
226.92940602927681
 21
254.38611567808471
 31
0.0
  0
LINE
  5
33E1F
  8
1
 10
230.07940602927681
 20
257.53611567808468
 30
0.0
 11
230.07940602927681
 21
251.23611567808459
 31
0.0
  0
ARC
  5
33EC1
  8
0
 10
34.454194467511513
 20
139.1725445907266
 30
0.0
 40
0.999999999998522
 50
0.0
 51
90.000000000045588
  0
ARC
  5
33EC2
  8
0
 10
80.454194467508543
 20
139.1725445907266
 30
0.0
 40
0.999999999998522
 50
89.999999999954397
 51
180.0
  0
ARC
  5
33EC3
  8
0
 10
37.454194467510384
 20
132.67254459072541
 30
0.0
 40
2.0000000000003411
 50
180.0000000000081
 51
269.99999999999352
  0
ARC
  5
33EC4
  8
0
 10
77.454194467509694
 20
132.67254459072541
 30
0.0
 40
2.0000000000003411
 50
270.00000000000648
 51
359.99999999999193
  0
LINE
  5
33EC5
  8
0
 10
35.454194467510149
 20
139.1725445907266
 30
0.0
 11
35.454194467510149
 21
132.67254459072521
 31
0.0
  0
LINE
  5
33EC6
  8
0
 10
79.454194467510149
 20
132.67254459072521
 30
0.0
 11
79.454194467510149
 21
139.1725445907266
 31
0.0
  0
LINE
  5
33EC7
  8
0
 10
37.454194467510149
 20
130.6725445907251
 30
0.0
 11
77.454194467509694
 21
130.6725445907251
 31
0.0
  0
ARC
  5
33EC8
  8
0
 10
299.20461759103108
 20
139.17254459072331
 30
0.0
 40
0.999999999998522
 50
0.0
 51
90.000000000045588
  0
ARC
  5
33EC9
  8
0
 10
345.20461759102812
 20
139.17254459072331
 30
0.0
 40
0.999999999998522
 50
89.999999999954397
 51
180.0
  0
ARC
  5
33ECA
  8
0
 10
302.20461759103
 20
132.67254459072211
 30
0.0
 40
2.0000000000003411
 50
180.0000000000081
 51
269.99999999999352
  0
ARC
  5
33ECB
  8
0
 10
342.2046175910292
 20
132.67254459072211
 30
0.0
 40
2.0000000000003411
 50
270.00000000000648
 51
359.99999999999193
  0
LINE
  5
33ECC
  8
0
 10
300.20461759102972
 20
139.17254459072331
 30
0.0
 11
300.20461759102972
 21
132.67254459072191
 31
0.0
  0
LINE
  5
33ECD
  8
0
 10
344.20461759102972
 20
132.67254459072191
 30
0.0
 11
344.20461759102972
 21
139.17254459072331
 31
0.0
  0
LINE
  5
33ECE
  8
0
 10
302.20461759102972
 20
130.6725445907218
 30
0.0
 11
342.2046175910292
 21
130.6725445907218
 31
0.0
  0
ARC
  5
33ECF
  8
0
 10
192.28368936084391
 20
267.31507525433869
 30
0.0
 40
15.179029126395481
 50
260.69504963142441
 51
269.82655379242408
  0
LINE
  5
33ED0
  8
0
 10
192.23773936177
 20
252.13611567808491
 30
0.0
 11
193.63077868526861
 21
252.1970815928716
 31
0.0
  0
ENDSEC
  0
EOF
