  0
SECTION
  2
HEADER
  9
$ACADVER
  1
AC1009
  9
$INSBASE
 10
0.0
 20
0.0
 30
0.0
  9
$EXTMIN
 10
0.0
 20
-2.960436562073669
 30
0.0
  9
$EXTMAX
 10
708.96029082790847
 20
554.91714282356725
 30
0.0
  9
$LIMMIN
 10
0.0
 20
0.0
  9
$LIMMAX
 10
375.0
 20
270.0
  9
$ORTHOMODE
 70
     1
  9
$REGENMODE
 70
     1
  9
$FILLMODE
 70
     1
  9
$QTEXTMODE
 70
     0
  9
$MIRRTEXT
 70
     1
  9
$DRAGMODE
 70
     2
  9
$LTSCALE
 40
10.0
  9
$OSMODE
 70
  3071
  9
$ATTMODE
 70
     1
  9
$TEXTSIZE
 40
5.0
  9
$TRACEWID
 40
0.05
  9
$TEXTSTYLE
  7
STANDARD
  9
$CLAYER
  8
0
  9
$CELTYPE
  6
BYLAYER
  9
$CECOLOR
 62
     6
  9
$DIMSCALE
 40
2.0
  9
$DIMASZ
 40
3.0
  9
$DIMEXO
 40
2.0
  9
$DIMDLI
 40
0.38
  9
$DIMRND
 40
0.0
  9
$DIMDLE
 40
0.0
  9
$DIMEXE
 40
2.0
  9
$DIMTP
 40
0.0
  9
$DIMTM
 40
0.0
  9
$DIMTXT
 40
3.2000000000000002
  9
$DIMCEN
 40
0.0
  9
$DIMTSZ
 40
0.0
  9
$DIMTOL
 70
     0
  9
$DIMLIM
 70
     0
  9
$DIMTIH
 70
     0
  9
$DIMTOH
 70
     0
  9
$DIMSE1
 70
     0
  9
$DIMSE2
 70
     0
  9
$DIMTAD
 70
     1
  9
$DIMZIN
 70
     8
  9
$DIMBLK
  1

  9
$DIMASO
 70
     0
  9
$DIMSHO
 70
     0
  9
$DIMPOST
  1

  9
$DIMAPOST
  1

  9
$DIMALT
 70
     0
  9
$DIMALTD
 70
     2
  9
$DIMALTF
 40
25.399999999999999
  9
$DIMLFAC
 40
1.0
  9
$DIMTOFL
 70
     0
  9
$DIMTVP
 40
1.6000000000000001
  9
$DIMTIX
 70
     1
  9
$DIMSOXD
 70
     0
  9
$DIMSAH
 70
     0
  9
$DIMBLK1
  1

  9
$DIMBLK2
  1

  9
$DIMSTYLE
  2
STANDARD
  9
$DIMCLRD
 70
     0
  9
$DIMCLRE
 70
     0
  9
$DIMCLRT
 70
     0
  9
$DIMTFAC
 40
1.0
  9
$DIMGAP
 40
1.1999999999999991
  9
$LUNITS
 70
     2
  9
$LUPREC
 70
     4
  9
$SKETCHINC
 40
0.1
  9
$FILLETRAD
 40
0.0
  9
$AUNITS
 70
     0
  9
$AUPREC
 70
     4
  9
$MENU
  1
ACAD
  9
$ELEVATION
 40
0.0
  9
$PELEVATION
 40
0.0
  9
$THICKNESS
 40
0.0
  9
$LIMCHECK
 70
     0
  9
$BLIPMODE
 70
     0
  9
$CHAMFERA
 40
0.0
  9
$CHAMFERB
 40
0.0
  9
$SKPOLY
 70
     0
  9
$TDCREATE
 40
2448055.7149187499
  9
$TDUPDATE
 40
2456598.5586044099
  9
$TDINDWG
 40
2.7196840740999999
  9
$TDUSRTIMER
 40
2.7196840740999999
  9
$USRTIMER
 70
     1
  9
$ANGBASE
 50
0.0
  9
$ANGDIR
 70
     0
  9
$PDMODE
 70
     0
  9
$PDSIZE
 40
0.0
  9
$PLINEWID
 40
0.0
  9
$COORDS
 70
     1
  9
$SPLFRAME
 70
     0
  9
$SPLINETYPE
 70
     6
  9
$SPLINESEGS
 70
     8
  9
$ATTDIA
 70
     0
  9
$ATTREQ
 70
     1
  9
$HANDLING
 70
     1
  9
$HANDSEED
  5
27651
  9
$SURFTAB1
 70
     6
  9
$SURFTAB2
 70
     6
  9
$SURFTYPE
 70
     6
  9
$SURFU
 70
     6
  9
$SURFV
 70
     6
  9
$UCSNAME
  2

  9
$UCSORG
 10
0.0
 20
0.0
 30
0.0
  9
$UCSXDIR
 10
1.0
 20
0.0
 30
0.0
  9
$UCSYDIR
 10
0.0
 20
1.0
 30
0.0
  9
$PUCSNAME
  2

  9
$PUCSORG
 10
0.0
 20
0.0
 30
0.0
  9
$PUCSXDIR
 10
1.0
 20
0.0
 30
0.0
  9
$PUCSYDIR
 10
0.0
 20
1.0
 30
0.0
  9
$USERI1
 70
     0
  9
$USERI2
 70
     0
  9
$USERI3
 70
     0
  9
$USERI4
 70
     0
  9
$USERI5
 70
     0
  9
$USERR1
 40
0.0
  9
$USERR2
 40
0.0
  9
$USERR3
 40
0.0
  9
$USERR4
 40
0.0
  9
$USERR5
 40
0.0
  9
$WORLDVIEW
 70
     1
  9
$SHADEDGE
 70
     3
  9
$SHADEDIF
 70
    70
  9
$TILEMODE
 70
     1
  9
$MAXACTVP
 70
    16
  9
$PLIMCHECK
 70
     0
  9
$PEXTMIN
 10
1.0000000000000000E+020
 20
1.0000000000000000E+020
 30
1.0000000000000000E+020
  9
$PEXTMAX
 10
-1.0000000000000000E+020
 20
-1.0000000000000000E+020
 30
-1.0000000000000000E+020
  9
$PLIMMIN
 10
0.0
 20
0.0
  9
$PLIMMAX
 10
12.0
 20
9.0
  9
$UNITMODE
 70
     0
  9
$VISRETAIN
 70
     0
  9
$PLINEGEN
 70
     1
  9
$PSLTSCALE
 70
     0
  0
ENDSEC
  0
SECTION
  2
TABLES
  0
TABLE
  2
VPORT
 70
     1
  0
VPORT
  2
*ACTIVE
 70
     0
 10
0.0
 20
0.0
 11
1.0
 21
1.0
 12
369.93935786851603
 22
275.97678406691142
 13
0.0
 23
0.0
 14
5.0
 24
5.0
 15
10.0
 25
10.0
 16
0.0
 26
0.0
 36
1.0
 17
0.0
 27
0.0
 37
0.0
 40
562.91830784384842
 41
1.831871345029239
 42
50.0
 43
0.0
 44
0.0
 50
0.0
 51
0.0
 71
     0
 72
   500
 73
     1
 74
     1
 75
     0
 76
     0
 77
     0
 78
     2
  0
ENDTAB
  0
TABLE
  2
LTYPE
 70
     3
  0
LTYPE
  2
CONTINUOUS
 70
     0
  3
実線
 72
    65
 73
     0
 40
0.0
  0
LTYPE
  2
CENTER
 70
     0
  3
____ _ ____ _ ____ _ ____ _ ____ _ ____ _ ____
 72
    65
 73
     4
 40
2.0
 49
1.25
 49
-0.25
 49
0.25
 49
-0.25
  0
LTYPE
  2
PHANTOM2
 70
     0
  3
___ _ _ ___ _ _ ___ _ _ ___ _ _
 72
    65
 73
     6
 40
1.25
 49
0.625
 49
-0.125
 49
0.125
 49
-0.125
 49
0.125
 49
-0.125
  0
ENDTAB
  0
TABLE
  2
LAYER
 70
     4
  0
LAYER
  2
0
 70
     0
 62
     7
  6
CONTINUOUS
  0
LAYER
  2
1
 70
     0
 62
     1
  6
CENTER
  0
LAYER
  2
DEFPOINTS
 70
     0
 62
     7
  6
CONTINUOUS
  0
LAYER
  2
3
 70
     0
 62
     3
  6
CONTINUOUS
  0
ENDTAB
  0
TABLE
  2
STYLE
 70
     3
  0
STYLE
  2
STANDARD
 70
     0
 40
0.0
 41
1.0
 50
0.0
 71
     0
 42
5.0
  3
simplex.shx
  4
bigfont.shx
  0
STYLE
  2
07500
 70
     0
 40
0.0
 41
0.75
 50
0.0
 71
     0
 42
0.2
  3
simplex.shx
  4
bigfont.shx
  0
STYLE
  2
STANDARD1
 70
     0
 40
0.0
 41
1.0
 50
0.0
 71
     0
 42
3.0
  3
txt
  4

  0
ENDTAB
  0
TABLE
  2
VIEW
 70
     2
  0
VIEW
  2
ALL
 70
     0
 40
270.0
 10
220.99159663865549
 20
135.0
 41
0.0
 11
0.0
 21
0.0
 31
1.0
 12
0.0
 22
0.0
 32
0.0
 42
0.0
 43
0.0
 44
0.0
 50
0.0
 71
     0
  0
VIEW
  2
OLE1
 70
     0
 40
168.2487151179721
 10
2892.3009567448912
 20
702.51600084347126
 41
162.5749581879237
 11
0.0
 21
0.0
 31
1.0
 12
0.0
 22
0.0
 32
0.0
 42
50.0
 43
0.0
 44
0.0
 50
0.0
 71
     0
  0
ENDTAB
  0
TABLE
  2
UCS
 70
     0
  0
ENDTAB
  0
TABLE
  2
APPID
 70
    48
  0
APPID
  2
ACAD
 70
     0
  0
APPID
  2
DCO15
 70
     0
  0
APPID
  2
GENIUS_GENOREF_13
 70
     0
  0
APPID
  2
GENIUS_GENOENT_13
 70
     0
  0
APPID
  2
GENIUS_GENBH_13
 70
     0
  0
APPID
  2
GENIUS_GENOBJ_13
 70
     0
  0
APPID
  2
GENIUS_GENODEF_13
 70
     0
  0
APPID
  2
GENIUS_GENOLIS_13
 70
     0
  0
APPID
  2
GENIUS_GENOBJ-NBEHI-BHF_13
 70
     0
  0
APPID
  2
GENIUS_GENOBJ-NBEHI-BHB_13
 70
     0
  0
APPID
  2
GENIUS_GENOBJ-F-PART_13
 70
     0
  0
APPID
  2
GENIUS_GEFSTDP_13
 70
     0
  0
APPID
  2
GENIUS_GENOBJ-N-RSSYM_13
 70
     0
  0
APPID
  2
GENIUS_GENSYMENT_13
 70
     0
  0
APPID
  2
GENIUS_GENOBJ-N-TIT_13
 70
     0
  0
APPID
  2
GENIUS_GENTITLE_13
 70
     0
  0
APPID
  2
GENIUS_GENZVEED_13
 70
     0
  0
APPID
  2
GENIUS_GENOBJ-N-LEADER_13
 70
     0
  0
APPID
  2
GENIUS_GENOBJ-N-FIL_13
 70
     0
  0
APPID
  2
GENIUS_GENOBJ-N-SEC_13
 70
     0
  0
APPID
  2
GENIUS_GENOBJ-N-CRS_13
 70
     0
  0
APPID
  2
GENIUS_GENOBJ-N-ZOO_13
 70
     0
  0
APPID
  2
GENIUS_GENZOO_13
 70
     0
  0
APPID
  2
GENIUS_GENOBJ-F-TOL_13
 70
     0
  0
APPID
  2
GENIUS_GENFIL_13
 70
     0
  0
APPID
  2
GENIUS_GENOBJ-N-CHA_13
 70
     0
  0
APPID
  2
_CALL_MAC$
 70
     0
  0
APPID
  2
ASM_BASE
 70
     0
  0
APPID
  2
ASM_EXPLO_VER_2_00
 70
     0
  0
APPID
  2
ASM_CADM_VER_12_00
 70
     0
  0
APPID
  2
ASM_BASEFORO
 70
     0
  0
APPID
  2
ASM_BASETRAVI
 70
     0
  0
APPID
  2
ASM_BASETRAVI1
 70
     0
  0
APPID
  2
ASM_GRUPPI
 70
     0
  0
APPID
  2
ASM_CADM_ALBERO
 70
     0
  0
APPID
  2
ASM_GOLE
 70
     0
  0
APPID
  2
ACAD_MLEADERVER
 70
     0
  0
APPID
  2
ACAD_DSTYLE_DIMJAG
 70
     0
  0
APPID
  2
ACAD_DSTYLE_DIMTALN
 70
     0
  0
APPID
  2
ACAD_EXEMPT_FROM_CAD_STANDARDS
 70
     0
  0
APPID
  2
ACAD_DSTYLE_DIMRADIAL_EXTENSION
 70
     0
  0
APPID
  2
ACAD_PSEXT
 70
     0
  0
APPID
  2
ACAD_DSTYLE_DIMBREAK
 70
     0
  0
APPID
  2
ACAECLAYERSTANDARD
 70
     0
  0
APPID
  2
ACCMTRANSPARENCY
 70
     0
  0
APPID
  2
GRADIENTCOLOR1ACI
 70
     0
  0
APPID
  2
GRADIENTCOLOR2ACI
 70
     0
  0
APPID
  2
ACAD_NAV_VCDISPLAY
 70
     0
  0
ENDTAB
  0
TABLE
  2
DIMSTYLE
 70
     1
  0
DIMSTYLE
  2
STANDARD
 70
     0
  3

  4

  5

  6

  7

 40
1.0
 41
0.18
 42
0.0625
 43
0.38
 44
0.18
 45
0.0
 46
0.0
 47
0.0
 48
0.0
140
0.18
141
0.09
142
0.0
143
25.399999999999999
144
1.0
145
0.0
146
1.0
147
0.09
 71
     0
 72
     0
 73
     1
 74
     1
 75
     0
 76
     0
 77
     0
 78
     0
170
     0
171
     2
172
     0
173
     0
174
     0
175
     0
176
     0
177
     0
178
     0
  0
ENDTAB
  0
ENDSEC
  0
SECTION
  2
BLOCKS
  0
BLOCK
  8
0
  2
$MODEL_SPACE
 70
     0
 10
0.0
 20
0.0
 30
0.0
  3
$MODEL_SPACE
  1

  0
ENDBLK
  5
36
  8
0
  0
BLOCK
 67
     1
  8
0
  2
$PAPER_SPACE
 70
     0
 10
0.0
 20
0.0
 30
0.0
  3
$PAPER_SPACE
  1

  0
ENDBLK
  5
34
 67
     1
  8
0
  0
ENDSEC
  0
SECTION
  2
ENTITIES
  0
LINE
  5
1B363
  8
1
 10
407.2342880919814
 20
471.92016606482179
 30
0.0
 11
407.2342880919814
 21
552.91411958231265
 31
0.0
  0
LINE
  5
1B364
  8
0
 10
401.4192880919814
 20
487.91714282356719
 30
0.0
 11
401.4192880919814
 21
487.31714282356728
 31
0.0
  0
LINE
  5
1B365
  8
0
 10
413.0492880919814
 20
487.31714282356728
 30
0.0
 11
413.0492880919814
 21
487.91714282356719
 31
0.0
  0
LINE
  5
1B366
  8
0
 10
403.2342880919814
 20
546.65014282356742
 30
0.0
 11
403.2342880919814
 21
544.91714282356725
 31
0.0
  0
LINE
  5
1B367
  8
0
 10
411.2342880919814
 20
544.91714282356725
 30
0.0
 11
411.2342880919814
 21
546.65014282356742
 31
0.0
  0
LINE
  5
1B368
  8
0
 10
404.00128809198139
 20
547.41714282356725
 30
0.0
 11
403.2342880919814
 21
546.65014282356742
 31
0.0
  0
LINE
  5
1B369
  8
0
 10
411.2342880919814
 20
546.65014282356742
 30
0.0
 11
410.4672880919814
 21
547.41714282356725
 31
0.0
  0
LINE
  5
1B36A
  8
0
 10
401.4192880919814
 20
544.91714282356725
 30
0.0
 11
401.4192880919814
 21
542.41714282356725
 31
0.0
  0
LINE
  5
1B36B
  8
0
 10
413.0492880919814
 20
542.41714282356725
 30
0.0
 11
413.0492880919814
 21
544.91714282356725
 31
0.0
  0
LINE
  5
1B36C
  8
0
 10
411.2342880919814
 20
546.65014282356742
 30
0.0
 11
403.2342880919814
 21
546.65014282356742
 31
0.0
  0
LINE
  5
1B36D
  8
0
 10
410.4672880919814
 20
547.41714282356725
 30
0.0
 11
404.00128809198139
 21
547.41714282356725
 31
0.0
  0
LINE
  5
1B36E
  8
0
 10
413.49262142531472
 20
482.11714282356752
 30
0.0
 11
400.97595475864807
 21
482.11714282356752
 31
0.0
  0
LINE
  5
1B36F
  8
0
 10
413.49262142531472
 20
487.31714282356728
 30
0.0
 11
400.97595475864807
 21
487.31714282356728
 31
0.0
  0
LINE
  5
1B370
  8
0
 10
413.49262142531472
 20
482.11714282356752
 30
0.0
 11
413.49262142531472
 21
487.31714282356728
 31
0.0
  0
POLYLINE
  5
1B371
  8
0
 66
     1
 10
0.0
 20
0.0
 30
0.0
  0
VERTEX
  5
26F9F
  8
0
 10
404.10512142531479
 20
487.31714282356728
 30
0.0
  0
VERTEX
  5
26FA0
  8
0
 10
404.60755917723031
 20
487.30995268994729
 30
0.0
  0
VERTEX
  5
26FA1
  8
0
 10
405.61631972114259
 20
487.25317810616292
 30
0.0
  0
VERTEX
  5
26FA2
  8
0
 10
406.67210961386672
 20
487.13856776741022
 30
0.0
  0
VERTEX
  5
26FA3
  8
0
 10
407.2342880919814
 20
487.05772311415188
 30
0.0
  0
SEQEND
  5
26FA4
  8
0
  0
POLYLINE
  5
1B372
  8
0
 66
     1
 10
0.0
 20
0.0
 30
0.0
  0
VERTEX
  5
26FA5
  8
0
 10
407.2342880919814
 20
482.37656253298292
 30
0.0
  0
VERTEX
  5
26FA6
  8
0
 10
406.67210961386672
 20
482.29571787972458
 30
0.0
  0
VERTEX
  5
26FA7
  8
0
 10
405.61631972114259
 20
482.18110754097182
 30
0.0
  0
VERTEX
  5
26FA8
  8
0
 10
404.60755917723031
 20
482.12433295718711
 30
0.0
  0
VERTEX
  5
26FA9
  8
0
 10
404.10512142531479
 20
482.11714282356752
 30
0.0
  0
SEQEND
  5
26FAA
  8
0
  0
POLYLINE
  5
1B373
  8
0
 66
     1
 10
0.0
 20
0.0
 30
0.0
  0
VERTEX
  5
26FAB
  8
0
 10
404.10512142531479
 20
482.11714282356752
 30
0.0
  0
VERTEX
  5
26FAC
  8
0
 10
403.60268367339921
 20
482.12433295718711
 30
0.0
  0
VERTEX
  5
26FAD
  8
0
 10
402.59392312948683
 20
482.18110754097182
 30
0.0
  0
VERTEX
  5
26FAE
  8
0
 10
401.53813323676292
 20
482.29571787972458
 30
0.0
  0
VERTEX
  5
26FAF
  8
0
 10
400.97595475864807
 20
482.37656253298292
 30
0.0
  0
SEQEND
  5
26FB0
  8
0
  0
POLYLINE
  5
1B374
  8
0
 66
     1
 10
0.0
 20
0.0
 30
0.0
  0
VERTEX
  5
26FB1
  8
0
 10
400.97595475864807
 20
487.05772311415188
 30
0.0
  0
VERTEX
  5
26FB2
  8
0
 10
401.53813323676292
 20
487.13856776741022
 30
0.0
  0
VERTEX
  5
26FB3
  8
0
 10
402.59392312948683
 20
487.25317810616292
 30
0.0
  0
VERTEX
  5
26FB4
  8
0
 10
403.60268367339921
 20
487.30995268994729
 30
0.0
  0
VERTEX
  5
26FB5
  8
0
 10
404.10512142531479
 20
487.31714282356728
 30
0.0
  0
SEQEND
  5
26FB6
  8
0
  0
POLYLINE
  5
1B375
  8
0
 66
     1
 10
0.0
 20
0.0
 30
0.0
  0
VERTEX
  5
26FB7
  8
0
 10
410.36345475864812
 20
487.31714282356728
 30
0.0
  0
VERTEX
  5
26FB8
  8
0
 10
410.86589251056358
 20
487.30995268994729
 30
0.0
  0
VERTEX
  5
26FB9
  8
0
 10
411.87465305447591
 20
487.25317810616292
 30
0.0
  0
VERTEX
  5
26FBA
  8
0
 10
412.93044294719988
 20
487.13856776741022
 30
0.0
  0
VERTEX
  5
26FBB
  8
0
 10
413.49262142531472
 20
487.05772311415188
 30
0.0
  0
SEQEND
  5
26FBC
  8
0
  0
POLYLINE
  5
1B376
  8
0
 66
     1
 10
0.0
 20
0.0
 30
0.0
  0
VERTEX
  5
26FBD
  8
0
 10
413.49262142531472
 20
482.37656253298292
 30
0.0
  0
VERTEX
  5
26FBE
  8
0
 10
412.93044294719988
 20
482.29571787972458
 30
0.0
  0
VERTEX
  5
26FBF
  8
0
 10
411.87465305447591
 20
482.18110754097182
 30
0.0
  0
VERTEX
  5
26FC0
  8
0
 10
410.86589251056358
 20
482.12433295718711
 30
0.0
  0
VERTEX
  5
26FC1
  8
0
 10
410.36345475864812
 20
482.11714282356752
 30
0.0
  0
SEQEND
  5
26FC2
  8
0
  0
POLYLINE
  5
1B377
  8
0
 66
     1
 10
0.0
 20
0.0
 30
0.0
  0
VERTEX
  5
26FC3
  8
0
 10
410.36345475864812
 20
482.11714282356752
 30
0.0
  0
VERTEX
  5
26FC4
  8
0
 10
409.8610170067326
 20
482.12433295718711
 30
0.0
  0
VERTEX
  5
26FC5
  8
0
 10
408.85225646282032
 20
482.18110754097182
 30
0.0
  0
VERTEX
  5
26FC6
  8
0
 10
407.79646657009619
 20
482.29571787972458
 30
0.0
  0
VERTEX
  5
26FC7
  8
0
 10
407.2342880919814
 20
482.37656253298292
 30
0.0
  0
SEQEND
  5
26FC8
  8
0
  0
LINE
  5
1B378
  8
0
 10
407.2342880919814
 20
482.37656253298292
 30
0.0
 11
407.2342880919814
 21
487.05772311415188
 31
0.0
  0
POLYLINE
  5
1B379
  8
0
 66
     1
 10
0.0
 20
0.0
 30
0.0
  0
VERTEX
  5
26FC9
  8
0
 10
407.2342880919814
 20
487.05772311415188
 30
0.0
  0
VERTEX
  5
26FCA
  8
0
 10
407.79646657009619
 20
487.13856776741022
 30
0.0
  0
VERTEX
  5
26FCB
  8
0
 10
408.85225646282032
 20
487.25317810616292
 30
0.0
  0
VERTEX
  5
26FCC
  8
0
 10
409.8610170067326
 20
487.30995268994729
 30
0.0
  0
VERTEX
  5
26FCD
  8
0
 10
410.36345475864812
 20
487.31714282356728
 30
0.0
  0
SEQEND
  5
26FCE
  8
0
  0
LINE
  5
1B37A
  8
0
 10
400.97595475864807
 20
487.31714282356728
 30
0.0
 11
400.97595475864807
 21
482.11714282356752
 31
0.0
  0
LINE
  5
1B37B
  8
0
 10
413.0492880919814
 20
544.91714282356725
 30
0.0
 11
401.4192880919814
 21
544.91714282356725
 31
0.0
  0
LINE
  5
1B37C
  8
0
 10
413.49262142531472
 20
542.41714282356725
 30
0.0
 11
400.97595475864807
 21
542.41714282356725
 31
0.0
  0
LINE
  5
1B37D
  8
0
 10
413.49262142531472
 20
536.91714282356725
 30
0.0
 11
413.49262142531472
 21
542.41714282356725
 31
0.0
  0
POLYLINE
  5
1B37E
  8
0
 66
     1
 10
0.0
 20
0.0
 30
0.0
  0
VERTEX
  5
26FCF
  8
0
 10
404.10512142531479
 20
542.41714282356725
 30
0.0
  0
VERTEX
  5
26FD0
  8
0
 10
404.60755917723031
 20
542.40995268994754
 30
0.0
  0
VERTEX
  5
26FD1
  8
0
 10
405.61631972114259
 20
542.35317810616289
 30
0.0
  0
VERTEX
  5
26FD2
  8
0
 10
406.67210961386672
 20
542.23856776741013
 30
0.0
  0
VERTEX
  5
26FD3
  8
0
 10
407.2342880919814
 20
542.15772311415185
 30
0.0
  0
SEQEND
  5
26FD4
  8
0
  0
POLYLINE
  5
1B37F
  8
0
 66
     1
 10
0.0
 20
0.0
 30
0.0
  0
VERTEX
  5
26FD5
  8
0
 10
407.2342880919814
 20
537.1765625329831
 30
0.0
  0
VERTEX
  5
26FD6
  8
0
 10
406.67210961387582
 20
537.09571787972573
 30
0.0
  0
VERTEX
  5
26FD7
  8
0
 10
405.61631972116828
 20
536.98110754097388
 30
0.0
  0
VERTEX
  5
26FD8
  8
0
 10
404.60755917727221
 20
536.92433295718865
 30
0.0
  0
VERTEX
  5
26FD9
  8
0
 10
404.1051214253655
 20
536.91714282356725
 30
0.0
  0
SEQEND
  5
26FDA
  8
0
  0
POLYLINE
  5
1B380
  8
0
 66
     1
 10
0.0
 20
0.0
 30
0.0
  0
VERTEX
  5
26FDB
  8
0
 10
404.10512142531479
 20
536.91714282356725
 30
0.0
  0
VERTEX
  5
26FDC
  8
0
 10
403.60268367339921
 20
536.92433295718718
 30
0.0
  0
VERTEX
  5
26FDD
  8
0
 10
402.59392312948688
 20
536.98110754097161
 30
0.0
  0
VERTEX
  5
26FDE
  8
0
 10
401.53813323676292
 20
537.0957178797247
 30
0.0
  0
VERTEX
  5
26FDF
  8
0
 10
400.97595475864807
 20
537.1765625329831
 30
0.0
  0
SEQEND
  5
26FE0
  8
0
  0
POLYLINE
  5
1B381
  8
0
 66
     1
 10
0.0
 20
0.0
 30
0.0
  0
VERTEX
  5
26FE1
  8
0
 10
400.97595475864807
 20
542.15772311415185
 30
0.0
  0
VERTEX
  5
26FE2
  8
0
 10
401.53813323676292
 20
542.23856776741013
 30
0.0
  0
VERTEX
  5
26FE3
  8
0
 10
402.59392312948688
 20
542.35317810616289
 30
0.0
  0
VERTEX
  5
26FE4
  8
0
 10
403.60268367339921
 20
542.40995268994754
 30
0.0
  0
VERTEX
  5
26FE5
  8
0
 10
404.10512142531479
 20
542.41714282356725
 30
0.0
  0
SEQEND
  5
26FE6
  8
0
  0
POLYLINE
  5
1B382
  8
0
 66
     1
 10
0.0
 20
0.0
 30
0.0
  0
VERTEX
  5
26FE7
  8
0
 10
410.36345475864812
 20
542.41714282356725
 30
0.0
  0
VERTEX
  5
26FE8
  8
0
 10
410.86589251056358
 20
542.40995268994754
 30
0.0
  0
VERTEX
  5
26FE9
  8
0
 10
411.87465305447591
 20
542.35317810616289
 30
0.0
  0
VERTEX
  5
26FEA
  8
0
 10
412.93044294719988
 20
542.23856776741013
 30
0.0
  0
VERTEX
  5
26FEB
  8
0
 10
413.49262142531472
 20
542.15772311415185
 30
0.0
  0
SEQEND
  5
26FEC
  8
0
  0
POLYLINE
  5
1B383
  8
0
 66
     1
 10
0.0
 20
0.0
 30
0.0
  0
VERTEX
  5
26FED
  8
0
 10
413.49262142531472
 20
537.1765625329831
 30
0.0
  0
VERTEX
  5
26FEE
  8
0
 10
412.93044294721068
 20
537.09571787972618
 30
0.0
  0
VERTEX
  5
26FEF
  8
0
 10
411.87465305450593
 20
536.98110754097434
 30
0.0
  0
VERTEX
  5
26FF0
  8
0
 10
410.86589251061253
 20
536.92433295718865
 30
0.0
  0
VERTEX
  5
26FF1
  8
0
 10
410.36345475870718
 20
536.91714282356725
 30
0.0
  0
SEQEND
  5
26FF2
  8
0
  0
POLYLINE
  5
1B384
  8
0
 66
     1
 10
0.0
 20
0.0
 30
0.0
  0
VERTEX
  5
26FF3
  8
0
 10
410.36345475864812
 20
536.91714282356725
 30
0.0
  0
VERTEX
  5
26FF4
  8
0
 10
409.8610170067326
 20
536.92433295718718
 30
0.0
  0
VERTEX
  5
26FF5
  8
0
 10
408.85225646282032
 20
536.98110754097161
 30
0.0
  0
VERTEX
  5
26FF6
  8
0
 10
407.7964665700963
 20
537.0957178797247
 30
0.0
  0
VERTEX
  5
26FF7
  8
0
 10
407.2342880919814
 20
537.1765625329831
 30
0.0
  0
SEQEND
  5
26FF8
  8
0
  0
LINE
  5
1B385
  8
0
 10
407.2342880919814
 20
537.1765625329831
 30
0.0
 11
407.2342880919814
 21
542.15772311415185
 31
0.0
  0
POLYLINE
  5
1B386
  8
0
 66
     1
 10
0.0
 20
0.0
 30
0.0
  0
VERTEX
  5
26FF9
  8
0
 10
407.2342880919814
 20
542.15772311415185
 30
0.0
  0
VERTEX
  5
26FFA
  8
0
 10
407.7964665700963
 20
542.23856776741013
 30
0.0
  0
VERTEX
  5
26FFB
  8
0
 10
408.85225646282032
 20
542.35317810616289
 30
0.0
  0
VERTEX
  5
26FFC
  8
0
 10
409.8610170067326
 20
542.40995268994754
 30
0.0
  0
VERTEX
  5
26FFD
  8
0
 10
410.36345475864812
 20
542.41714282356725
 30
0.0
  0
SEQEND
  5
26FFE
  8
0
  0
LINE
  5
1B387
  8
0
 10
400.97595475864807
 20
542.41714282356725
 30
0.0
 11
400.97595475864807
 21
536.91714282356725
 31
0.0
  0
LINE
  5
1B3DF
  8
1
 10
442.50928809198138
 20
482.41714282356719
 30
0.0
 11
451.95928809198142
 21
482.41714282356719
 31
0.0
  0
LINE
  5
1B3E0
  8
1
 10
447.2342880919814
 20
477.69214282356728
 30
0.0
 11
447.2342880919814
 21
487.1421428235671
 31
0.0
  0
LINE
  5
1B3E1
  8
1
 10
440.00928809198138
 20
489.91714282356719
 30
0.0
 11
449.45928809198148
 21
489.91714282356719
 31
0.0
  0
LINE
  5
1B3E2
  8
1
 10
444.7342880919814
 20
485.19214282356728
 30
0.0
 11
444.7342880919814
 21
494.6421428235671
 31
0.0
  0
LINE
  5
1B3E3
  8
1
 10
442.50928809198138
 20
542.41714282356725
 30
0.0
 11
451.95928809198142
 21
542.41714282356725
 31
0.0
  0
LINE
  5
1B3E4
  8
1
 10
447.2342880919814
 20
537.69214282356734
 30
0.0
 11
447.2342880919814
 21
547.14214282356716
 31
0.0
  0
LINE
  5
1B3E5
  8
1
 10
440.00928809198138
 20
534.91714282356725
 30
0.0
 11
449.45928809198148
 21
534.91714282356725
 31
0.0
  0
LINE
  5
1B3E6
  8
1
 10
444.7342880919814
 20
530.19214282356734
 30
0.0
 11
444.7342880919814
 21
539.64214282356716
 31
0.0
  0
LINE
  5
1B3E7
  8
1
 10
365.00928809198149
 20
489.91714282356719
 30
0.0
 11
374.45928809198148
 21
489.91714282356719
 31
0.0
  0
LINE
  5
1B3E8
  8
1
 10
369.73428809198151
 20
485.19214282356728
 30
0.0
 11
369.73428809198151
 21
494.6421428235671
 31
0.0
  0
LINE
  5
1B3E9
  8
1
 10
362.50928809198138
 20
482.41714282356719
 30
0.0
 11
371.95928809198148
 21
482.41714282356719
 31
0.0
  0
LINE
  5
1B3EA
  8
1
 10
367.2342880919814
 20
477.69214282356728
 30
0.0
 11
367.2342880919814
 21
487.1421428235671
 31
0.0
  0
LINE
  5
1B3EB
  8
1
 10
365.00928809198138
 20
534.91714282356725
 30
0.0
 11
374.45928809198148
 21
534.91714282356725
 31
0.0
  0
LINE
  5
1B3EC
  8
1
 10
369.73428809198151
 20
530.19214282356734
 30
0.0
 11
369.73428809198151
 21
539.64214282356716
 31
0.0
  0
LINE
  5
1B3ED
  8
1
 10
362.50928809198138
 20
542.41714282356725
 30
0.0
 11
371.95928809198142
 21
542.41714282356725
 31
0.0
  0
LINE
  5
1B3EE
  8
1
 10
367.2342880919814
 20
537.69214282356734
 30
0.0
 11
367.2342880919814
 21
547.14214282356716
 31
0.0
  0
LINE
  5
1B3F0
  8
0
 10
382.23428809198151
 20
503.77744014130838
 30
0.0
 11
432.2342880919814
 21
503.77744014130838
 31
0.0
  0
LINE
  5
1B3F1
  8
0
 10
382.23428809198151
 20
521.05684550582589
 30
0.0
 11
432.2342880919814
 21
521.05684550582589
 31
0.0
  0
LINE
  5
1B3F4
  8
0
 10
380.5945854097227
 20
519.41714282356725
 30
0.0
 11
380.5945854097227
 21
505.41714282356719
 31
0.0
  0
LINE
  5
1B3F5
  8
0
 10
433.87399077424021
 20
519.41714282356725
 30
0.0
 11
433.87399077424021
 21
505.41714282356719
 31
0.0
  0
ARC
  5
1B3F8
  8
0
 10
432.2342880919814
 20
505.41714282356719
 30
0.0
 40
1.6397026822587399
 50
270.0
 51
0.0
  0
LINE
  5
1B3FB
  8
0
 10
375.81848055467191
 20
554.91714282356725
 30
0.0
 11
361.92339895952608
 21
554.91714282356725
 31
0.0
  0
ARC
  5
1B3FC
  8
0
 10
375.81848055467191
 20
544.91714282356725
 30
0.0
 40
10.00000000000003
 50
30.00000000000005
 51
90.0
  0
LINE
  5
1B3FD
  8
0
 10
387.50982350576191
 20
544.66714282356725
 30
0.0
 11
384.47873459251628
 21
549.91714282356725
 31
0.0
  0
ARC
  5
1B3FE
  8
0
 10
400.93321726442059
 20
552.41714282356725
 30
0.0
 40
15.5
 50
210.0
 51
270.0
  0
LINE
  5
1B3FF
  8
0
 10
413.5353589195422
 20
536.91714282356725
 30
0.0
 11
400.93321726442059
 21
536.91714282356725
 31
0.0
  0
ARC
  5
1B400
  8
0
 10
413.5353589195422
 20
552.41714282356725
 30
0.0
 40
15.49999999999998
 50
270.0
 51
329.99999999999989
  0
LINE
  5
1B401
  8
0
 10
429.98984159144658
 20
549.91714282356725
 30
0.0
 11
426.95875267820099
 21
544.66714282356725
 31
0.0
  0
ARC
  5
1B402
  8
0
 10
438.650095629291
 20
544.91714282356725
 30
0.0
 40
10.000000000000011
 50
90.0
 51
149.99999999999989
  0
LINE
  5
1B403
  8
0
 10
452.54517722443683
 20
554.91714282356725
 30
0.0
 11
438.650095629291
 21
554.91714282356725
 31
0.0
  0
LINE
  5
1B404
  8
0
 10
457.2342880919814
 20
537.41714282356725
 30
0.0
 11
452.54517722443683
 21
554.91714282356725
 31
0.0
  0
LINE
  5
1B405
  8
0
 10
457.2342880919814
 20
487.41714282356719
 30
0.0
 11
457.2342880919814
 21
537.41714282356725
 31
0.0
  0
LINE
  5
1B406
  8
0
 10
452.54517722443683
 20
469.91714282356719
 30
0.0
 11
457.2342880919814
 21
487.41714282356719
 31
0.0
  0
LINE
  5
1B407
  8
0
 10
438.650095629291
 20
469.91714282356719
 30
0.0
 11
452.54517722443683
 21
469.91714282356719
 31
0.0
  0
ARC
  5
1B408
  8
0
 10
438.650095629291
 20
479.91714282356719
 30
0.0
 40
10.00000000000005
 50
210.0
 51
270.0
  0
LINE
  5
1B409
  8
0
 10
426.95875267820099
 20
480.16714282356719
 30
0.0
 11
429.98984159144658
 21
474.91714282356719
 31
0.0
  0
ARC
  5
1B40A
  8
0
 10
413.5353589195422
 20
472.41714282356719
 30
0.0
 40
15.49999999999998
 50
30.00000000000005
 51
90.0
  0
LINE
  5
1B40B
  8
0
 10
400.93321726442059
 20
487.91714282356719
 30
0.0
 11
413.5353589195422
 21
487.91714282356719
 31
0.0
  0
ARC
  5
1B40C
  8
0
 10
400.93321726442059
 20
472.41714282356719
 30
0.0
 40
15.49999999999998
 50
90.0
 51
149.99999999999989
  0
LINE
  5
1B40D
  8
0
 10
384.47873459251628
 20
474.91714282356719
 30
0.0
 11
387.50982350576191
 21
480.16714282356719
 31
0.0
  0
ARC
  5
1B40E
  8
0
 10
375.81848055467191
 20
479.91714282356719
 30
0.0
 40
10.000000000000011
 50
270.0
 51
329.99999999999989
  0
LINE
  5
1B40F
  8
0
 10
361.92339895952608
 20
469.91714282356719
 30
0.0
 11
375.81848055467191
 21
469.91714282356719
 31
0.0
  0
LINE
  5
1B410
  8
0
 10
357.23428809198151
 20
487.41714282356719
 30
0.0
 11
361.92339895952608
 21
469.91714282356719
 31
0.0
  0
LINE
  5
1B411
  8
0
 10
357.23428809198151
 20
537.41714282356725
 30
0.0
 11
357.23428809198151
 21
487.41714282356719
 31
0.0
  0
LINE
  5
1B412
  8
0
 10
361.92339895952608
 20
554.91714282356725
 30
0.0
 11
357.23428809198151
 21
537.41714282356725
 31
0.0
  0
ARC
  5
1B413
  8
0
 10
447.2342880919814
 20
482.41714282356719
 30
0.0
 40
4.4999999999999876
 50
198.43494882291421
 51
18.434948822914251
  0
LINE
  5
1B414
  8
0
 10
451.50336293320868
 20
483.84016777064278
 30
0.0
 11
449.00336293320868
 21
491.34016777064329
 31
0.0
  0
ARC
  5
1B415
  8
0
 10
444.7342880919814
 20
489.91714282356719
 30
0.0
 40
4.4999999999999938
 50
18.434948822914251
 51
198.43494882291421
  0
LINE
  5
1B416
  8
0
 10
440.46521325075418
 20
488.4941178764916
 30
0.0
 11
442.96521325075412
 21
480.9941178764916
 31
0.0
  0
ARC
  5
1B417
  8
0
 10
447.2342880919814
 20
542.41714282356725
 30
0.0
 40
4.5000000000000018
 50
341.56505117708571
 51
161.56505117708571
  0
LINE
  5
1B418
  8
0
 10
442.96521325075412
 20
543.84016777064289
 30
0.0
 11
440.46521325075418
 21
536.34016777064335
 31
0.0
  0
ARC
  5
1B419
  8
0
 10
444.7342880919814
 20
534.91714282356725
 30
0.0
 40
4.5000000000000018
 50
161.56505117708571
 51
341.56505117708571
  0
LINE
  5
1B41A
  8
0
 10
449.00336293320879
 20
533.4941178764916
 30
0.0
 11
451.50336293320868
 21
540.9941178764916
 31
0.0
  0
ARC
  5
1B41B
  8
0
 10
369.73428809198151
 20
489.91714282356719
 30
0.0
 40
4.4999999999999956
 50
341.56505117708571
 51
161.56505117708571
  0
LINE
  5
1B41C
  8
0
 10
365.46521325075418
 20
491.34016777064329
 30
0.0
 11
362.96521325075418
 21
483.84016777064278
 31
0.0
  0
ARC
  5
1B41D
  8
0
 10
367.2342880919814
 20
482.41714282356719
 30
0.0
 40
4.4999999999999938
 50
161.56505117708571
 51
341.56505117708571
  0
LINE
  5
1B41E
  8
0
 10
371.50336293320868
 20
480.9941178764916
 30
0.0
 11
374.00336293320868
 21
488.4941178764916
 31
0.0
  0
ARC
  5
1B41F
  8
0
 10
369.73428809198151
 20
534.91714282356725
 30
0.0
 40
4.5000000000000018
 50
198.43494882291421
 51
18.434948822914251
  0
LINE
  5
1B420
  8
0
 10
374.00336293320868
 20
536.34016777064335
 30
0.0
 11
371.50336293320868
 21
543.84016777064289
 31
0.0
  0
ARC
  5
1B421
  8
0
 10
367.2342880919814
 20
542.41714282356725
 30
0.0
 40
4.5000000000000027
 50
18.434948822914251
 51
198.43494882291421
  0
LINE
  5
1B422
  8
0
 10
362.96521325075412
 20
540.9941178764916
 30
0.0
 11
365.46521325075412
 21
533.4941178764916
 31
0.0
  0
LINE
  5
1B423
  8
0
 10
375.50454217915518
 20
505.41714282356719
 30
0.0
 11
375.50454217915518
 21
519.41714282356725
 31
0.0
  0
LINE
  5
1B424
  8
0
 10
432.2342880919814
 20
498.68739691074092
 30
0.0
 11
382.23428809198151
 21
498.68739691074092
 31
0.0
  0
ARC
  5
1B425
  8
0
 10
432.2342880919814
 20
505.41714282356719
 30
0.0
 40
6.7297459128262087
 50
270.0
 51
0.0
  0
LINE
  5
1B426
  8
0
 10
438.96403400480762
 20
505.41714282356719
 30
0.0
 11
438.96403400480762
 21
519.41714282356725
 31
0.0
  0
LINE
  5
1B427
  8
0
 10
432.2342880919814
 20
526.14688873639352
 30
0.0
 11
382.23428809198151
 21
526.14688873639352
 31
0.0
  0
ARC
  5
1B428
  8
0
 10
432.2342880919814
 20
519.41714282356725
 30
0.0
 40
1.6397026822587499
 50
0.0
 51
90.0
  0
ARC
  5
1B42B
  8
0
 10
432.2342880919814
 20
519.41714282356725
 30
0.0
 40
6.7297459128262238
 50
0.0
 51
90.0
  0
ARC
  5
1B433
  8
0
 10
382.23428809198151
 20
505.41714282356719
 30
0.0
 40
6.7297459128262096
 50
180.0
 51
270.0
  0
ARC
  5
1B435
  8
0
 10
382.23428809198151
 20
505.41714282356719
 30
0.0
 40
1.6397026822587391
 50
180.0
 51
270.0
  0
ARC
  5
1B43B
  8
0
 10
382.23428809198151
 20
519.41714282356725
 30
0.0
 40
1.639702682258747
 50
90.0
 51
180.0
  0
ARC
  5
1B43D
  8
0
 10
382.23428809198151
 20
519.41714282356725
 30
0.0
 40
6.7297459128262203
 50
90.0
 51
179.99999914622629
  0
LINE
  5
1B4F8
  8
0
 10
332.23428809198151
 20
514.91714282356725
 30
0.0
 11
332.23428809198151
 21
509.91714282356719
 31
0.0
  0
LINE
  5
1B4F9
  8
0
 10
482.2342880919814
 20
509.91714282356719
 30
0.0
 11
482.2342880919814
 21
514.91714282356725
 31
0.0
  0
ARC
  5
1B4FA
  8
0
 10
481.9842880919814
 20
514.91714282356725
 30
0.0
 40
0.25
 50
0.0
 51
90.0
  0
ARC
  5
1B4FB
  8
0
 10
332.48428809198151
 20
514.91714282356725
 30
0.0
 40
0.2499999999999951
 50
90.0
 51
180.0
  0
LINE
  5
1B4FC
  8
0
 10
332.48428809198151
 20
517.16714282356725
 30
0.0
 11
332.48428809198151
 21
515.16714282356725
 31
0.0
  0
LINE
  5
1B4FD
  8
0
 10
481.9842880919814
 20
515.16714282356725
 30
0.0
 11
481.9842880919814
 21
517.16714282356725
 31
0.0
  0
ARC
  5
1B4FE
  8
0
 10
481.9842880919814
 20
517.41714282356725
 30
0.0
 40
0.2499999999999982
 50
270.0
 51
0.0
  0
ARC
  5
1B4FF
  8
0
 10
332.48428809198151
 20
517.41714282356725
 30
0.0
 40
0.25
 50
180.0
 51
270.0
  0
LINE
  5
1B500
  8
0
 10
332.23428809198151
 20
521.49290353496326
 30
0.0
 11
332.23428809198151
 21
517.41714282356725
 31
0.0
  0
LINE
  5
1B501
  8
0
 10
482.2342880919814
 20
517.41714282356725
 30
0.0
 11
482.2342880919814
 21
521.49290353496326
 31
0.0
  0
ARC
  5
1B502
  8
0
 10
481.4009547586482
 20
521.49290353496326
 30
0.0
 40
0.8333333333333001
 50
0.0
 51
70.999999999995893
  0
ARC
  5
1B503
  8
0
 10
333.06762142531483
 20
521.49290353496326
 30
0.0
 40
0.8333333333332962
 50
109.00000000000399
 51
180.0
  0
LINE
  5
1B504
  8
0
 10
339.0941618880733
 20
524.44935839655409
 30
0.0
 11
332.79631462993382
 21
522.28083568129614
 31
0.0
  0
LINE
  5
1B505
  8
0
 10
481.67226155402921
 20
522.28083568129614
 30
0.0
 11
475.37441429588972
 21
524.44935839655409
 31
0.0
  0
ARC
  5
1B506
  8
0
 10
474.56049390974658
 20
522.08556195755546
 30
0.0
 40
2.5000000000003242
 50
70.999999999995893
 51
90.0
  0
ARC
  5
1B507
  8
0
 10
339.90808227421621
 20
522.08556195755546
 30
0.0
 40
2.5000000000003122
 50
90.0
 51
109.00000000000399
  0
ARC
  5
1B508
  8
0
 10
473.04270984733307
 20
525.25222862422243
 30
0.0
 40
0.6666666666666661
 50
270.0
 51
90.0
  0
ARC
  5
1B509
  8
0
 10
341.42586633662978
 20
525.25222862422243
 30
0.0
 40
0.6666666666666661
 50
90.0
 51
270.0
  0
ARC
  5
1B50A
  8
0
 10
469.17042867709858
 20
526.58556195755591
 30
0.0
 40
0.6666666666666661
 50
270.0
 51
90.0
  0
ARC
  5
1B50B
  8
0
 10
345.29814750686421
 20
526.58556195755591
 30
0.0
 40
0.6666666666666661
 50
90.0
 51
270.0
  0
LINE
  5
1B50C
  8
0
 10
357.23428809198151
 20
530.69550475711912
 30
0.0
 11
347.23428809198151
 21
527.25222862422243
 31
0.0
  0
LINE
  5
1B50D
  8
0
 10
467.2342880919814
 20
527.25222862422243
 30
0.0
 11
457.2342880919814
 21
530.69550475711912
 31
0.0
  0
LINE
  5
1B50E
  8
0
 10
347.23428809198151
 20
497.58205702291241
 30
0.0
 11
357.23428809198151
 21
494.13878089001582
 31
0.0
  0
LINE
  5
1B50F
  8
0
 10
457.2342880919814
 20
494.13878089001582
 30
0.0
 11
467.2342880919814
 21
497.58205702291241
 31
0.0
  0
ARC
  5
1B510
  8
0
 10
469.1704286770987
 20
498.24872368957898
 30
0.0
 40
0.6666666666666661
 50
270.0
 51
90.0
  0
ARC
  5
1B511
  8
0
 10
345.29814750686421
 20
498.24872368957898
 30
0.0
 40
0.6666666666666661
 50
90.0
 51
270.0
  0
ARC
  5
1B512
  8
0
 10
473.04270984733307
 20
499.58205702291252
 30
0.0
 40
0.6666666666666679
 50
270.0
 51
90.0
  0
ARC
  5
1B513
  8
0
 10
341.42586633662978
 20
499.58205702291252
 30
0.0
 40
0.6666666666666679
 50
90.0
 51
270.0
  0
ARC
  5
1B514
  8
0
 10
474.56049390974658
 20
502.74872368957949
 30
0.0
 40
2.5000000000004441
 50
270.0
 51
289.00000000000409
  0
ARC
  5
1B515
  8
0
 10
339.90808227421621
 20
502.74872368957949
 30
0.0
 40
2.5000000000002811
 50
250.99999999999591
 51
270.0
  0
LINE
  5
1B516
  8
0
 10
332.79631462993382
 20
502.55344996583869
 30
0.0
 11
339.0941618880733
 21
500.3849272505808
 31
0.0
  0
LINE
  5
1B517
  8
0
 10
475.37441429588972
 20
500.3849272505808
 30
0.0
 11
481.67226155402921
 21
502.55344996583869
 31
0.0
  0
ARC
  5
1B518
  8
0
 10
481.40095475864803
 20
503.34138211217157
 30
0.0
 40
0.8333333333333436
 50
289.0000000000058
 51
0.0
  0
ARC
  5
1B519
  8
0
 10
333.06762142531483
 20
503.34138211217157
 30
0.0
 40
0.8333333333333428
 50
180.0
 51
250.9999999999942
  0
LINE
  5
1B51A
  8
0
 10
332.23428809198151
 20
507.41714282356719
 30
0.0
 11
332.23428809198151
 21
503.34138211217157
 31
0.0
  0
LINE
  5
1B51B
  8
0
 10
482.2342880919814
 20
503.34138211217157
 30
0.0
 11
482.2342880919814
 21
507.41714282356719
 31
0.0
  0
ARC
  5
1B51C
  8
0
 10
481.9842880919814
 20
507.41714282356719
 30
0.0
 40
0.25
 50
0.0
 51
90.0
  0
ARC
  5
1B51D
  8
0
 10
332.48428809198151
 20
507.41714282356719
 30
0.0
 40
0.2499999999999947
 50
90.0
 51
180.0
  0
LINE
  5
1B51E
  8
0
 10
332.48428809198151
 20
509.66714282356719
 30
0.0
 11
332.48428809198151
 21
507.66714282356719
 31
0.0
  0
LINE
  5
1B51F
  8
0
 10
481.9842880919814
 20
507.66714282356719
 30
0.0
 11
481.9842880919814
 21
509.66714282356719
 31
0.0
  0
ARC
  5
1B520
  8
0
 10
481.9842880919814
 20
509.91714282356719
 30
0.0
 40
0.2499999999999978
 50
270.0
 51
0.0
  0
ARC
  5
1B521
  8
0
 10
332.48428809198151
 20
509.91714282356719
 30
0.0
 40
0.25
 50
180.0
 51
270.0
  0
LINE
  5
1B524
  8
0
 10
481.9842880919814
 20
515.16714282356725
 30
0.0
 11
457.23425861409402
 21
515.16714282356725
 31
0.0
  0
LINE
  5
1B525
  8
0
 10
357.23431756986889
 20
515.16714282356725
 30
0.0
 11
332.48428809198151
 21
515.16714282356725
 31
0.0
  0
LINE
  5
1B526
  8
0
 10
481.9842880919814
 20
517.16714282356725
 30
0.0
 11
457.23425861409402
 21
517.16714282356725
 31
0.0
  0
LINE
  5
1B527
  8
0
 10
357.23431756986889
 20
517.16714282356725
 30
0.0
 11
332.48428809198151
 21
517.16714282356725
 31
0.0
  0
LINE
  5
1B52B
  8
0
 10
357.23431676097027
 20
521.49290353496326
 30
0.0
 11
332.23428809198151
 21
521.49290353496326
 31
0.0
  0
LINE
  5
1B530
  8
0
 10
474.5604939097467
 20
524.58556195755591
 30
0.0
 11
457.29407448361047
 21
524.58556195755591
 31
0.0
  0
LINE
  5
1B531
  8
0
 10
357.17450170035232
 20
524.58556195755591
 30
0.0
 11
339.90808227421621
 21
524.58556195755591
 31
0.0
  0
LINE
  5
1B532
  8
0
 10
473.04270984733307
 20
525.91889529088894
 30
0.0
 11
457.27231378572122
 21
525.91889529088894
 31
0.0
  0
LINE
  5
1B533
  8
0
 10
357.19626239824169
 20
525.91889529088894
 30
0.0
 11
341.42586633662978
 21
525.91889529088894
 31
0.0
  0
LINE
  5
1B534
  8
0
 10
469.17042867709858
 20
527.25222862422243
 30
0.0
 11
457.29254883922101
 21
527.25222862422243
 31
0.0
  0
LINE
  5
1B535
  8
0
 10
357.1760273447419
 20
527.25222862422243
 30
0.0
 11
345.29814750686421
 21
527.25222862422243
 31
0.0
  0
LINE
  5
1B538
  8
0
 10
448.48299184174277
 20
532.41714282356725
 30
0.0
 11
441.02184379727959
 21
532.41714282356725
 31
0.0
  0
LINE
  5
1B539
  8
0
 10
373.44673238668332
 20
532.41714282356725
 30
0.0
 11
365.98558434222002
 21
532.41714282356725
 31
0.0
  0
LINE
  5
1B53C
  8
0
 10
469.17042867709858
 20
497.58205702291241
 30
0.0
 11
457.29254883922101
 21
497.58205702291241
 31
0.0
  0
LINE
  5
1B53D
  8
0
 10
357.1760273447419
 20
497.58205702291241
 30
0.0
 11
345.29814750686421
 21
497.58205702291241
 31
0.0
  0
LINE
  5
1B53E
  8
0
 10
473.04270984733307
 20
498.9153903562455
 30
0.0
 11
457.27231378572122
 21
498.9153903562455
 31
0.0
  0
LINE
  5
1B53F
  8
0
 10
357.19626239824169
 20
498.9153903562455
 30
0.0
 11
341.42586633662978
 21
498.9153903562455
 31
0.0
  0
LINE
  5
1B540
  8
0
 10
474.5604939097467
 20
500.24872368957898
 30
0.0
 11
457.29407448361047
 21
500.24872368957898
 31
0.0
  0
LINE
  5
1B541
  8
0
 10
357.17450170035232
 20
500.24872368957898
 30
0.0
 11
339.90808227421621
 21
500.24872368957898
 31
0.0
  0
LINE
  5
1B54A
  8
0
 10
481.9842880919814
 20
507.66714282356719
 30
0.0
 11
457.23425861409402
 21
507.66714282356719
 31
0.0
  0
LINE
  5
1B54B
  8
0
 10
357.23431756986889
 20
507.66714282356719
 30
0.0
 11
332.48428809198151
 21
507.66714282356719
 31
0.0
  0
LINE
  5
1B54E
  8
0
 10
481.9842880919814
 20
509.66714282356719
 30
0.0
 11
457.23425861409402
 21
509.66714282356719
 31
0.0
  0
LINE
  5
1B54F
  8
0
 10
357.23431756986889
 20
509.66714282356719
 30
0.0
 11
332.48428809198151
 21
509.66714282356719
 31
0.0
  0
LINE
  5
1B550
  8
0
 10
448.48299184174289
 20
492.41714282356719
 30
0.0
 11
441.02184379727959
 21
492.41714282356719
 31
0.0
  0
LINE
  5
1B551
  8
0
 10
373.44673238668332
 20
492.41714282356719
 30
0.0
 11
365.98558434222002
 21
492.41714282356719
 31
0.0
  0
LINE
  5
1B590
  8
0
 10
698.78514249370096
 20
239.52399309110621
 30
0.0
 11
700.51814249370091
 21
239.52399309110621
 31
0.0
  0
LINE
  5
1B591
  8
0
 10
700.51814249370091
 20
239.52399309110621
 30
0.0
 11
701.28514249370085
 21
240.2909930911064
 31
0.0
  0
LINE
  5
1B592
  8
0
 10
635.98514249370089
 20
237.26565975777299
 30
0.0
 11
636.24456220311652
 21
236.29749222174951
 31
0.0
  0
LINE
  5
1B594
  8
0
 10
696.28514249370085
 20
237.70899309110609
 30
0.0
 11
698.78514249370096
 21
237.70899309110609
 31
0.0
  0
LINE
  5
1B595
  8
0
 10
696.02572278428545
 20
236.29749222174951
 30
0.0
 11
696.28514249370085
 21
237.26565975777299
 31
0.0
  0
LINE
  5
1B596
  8
0
 10
688.78514249370085
 20
251.02399309110609
 30
0.0
 11
686.28514249370096
 21
251.02399309110609
 31
0.0
  0
LINE
  5
1B597
  8
0
 10
646.28514249370085
 20
251.02399309110609
 30
0.0
 11
643.78514249370085
 21
251.02399309110609
 31
0.0
  0
LINE
  5
1B598
  8
0
 10
643.78514249370085
 20
236.02399309110609
 30
0.0
 11
646.28514249370085
 21
236.02399309110609
 31
0.0
  0
LINE
  5
1B599
  8
0
 10
686.28514249370096
 20
236.02399309110609
 30
0.0
 11
688.78514249370085
 21
236.02399309110609
 31
0.0
  0
LINE
  5
1B59A
  8
0
 10
700.51814249370091
 20
239.52399309110621
 30
0.0
 11
700.51814249370091
 21
243.9220949837827
 31
0.0
  0
LINE
  5
1B59B
  8
0
 10
701.28514249370085
 20
240.2909930911064
 30
0.0
 11
701.28514249370085
 21
244.6900406439681
 31
0.0
  0
LINE
  5
1B59C
  8
0
 10
635.98514249370089
 20
237.26565975777299
 30
0.0
 11
635.98514249370089
 21
239.6401166966175
 31
0.0
  0
LINE
  5
1B59D
  8
0
 10
636.24456220311652
 20
236.29749222174951
 30
0.0
 11
638.02252244782073
 21
236.29749222174951
 31
0.0
  0
POLYLINE
  5
1B59E
  8
0
 66
     1
 10
0.0
 20
0.0
 30
0.0
  0
VERTEX
  5
26FFF
  8
0
 10
636.24456220311652
 20
236.29749222174951
 30
0.0
  0
VERTEX
  5
27000
  8
0
 10
636.16371754985835
 20
236.62206611742161
 30
0.0
  0
VERTEX
  5
27001
  8
0
 10
636.04910721110525
 20
237.23162669619339
 30
0.0
  0
VERTEX
  5
27002
  8
0
 10
635.99233262732082
 20
237.81403486776929
 30
0.0
  0
VERTEX
  5
27003
  8
0
 10
635.98514249370089
 20
238.1041174390889
 30
0.0
  0
SEQEND
  5
27004
  8
0
  0
POLYLINE
  5
1B59F
  8
0
 66
     1
 10
0.0
 20
0.0
 30
0.0
  0
VERTEX
  5
27005
  8
0
 10
635.98514249370089
 20
238.1041174390889
 30
0.0
  0
VERTEX
  5
27006
  8
0
 10
635.98918290808365
 20
238.321468877657
 30
0.0
  0
VERTEX
  5
27007
  8
0
 10
636.02107791155356
 20
238.75539148339749
 30
0.0
  0
VERTEX
  5
27008
  8
0
 10
636.0847160347264
 20
239.19835908172939
 30
0.0
  0
VERTEX
  5
27009
  8
0
 10
636.12885034484736
 20
239.42705411385671
 30
0.0
  0
SEQEND
  5
2700A
  8
0
  0
LINE
  5
1B5A0
  8
0
 10
698.78514249370096
 20
237.70899309110609
 30
0.0
 11
698.78514249370096
 21
242.1875123167429
 31
0.0
  0
LINE
  5
1B5A1
  8
0
 10
696.28514249370085
 20
237.26565975777299
 30
0.0
 11
696.28514249370085
 21
239.20152503749711
 31
0.0
  0
LINE
  5
1B5A2
  8
0
 10
694.54775620426312
 20
236.29749222174951
 30
0.0
 11
696.02572278428545
 21
236.29749222174951
 31
0.0
  0
POLYLINE
  5
1B5A3
  8
0
 66
     1
 10
0.0
 20
0.0
 30
0.0
  0
VERTEX
  5
2700B
  8
0
 10
696.20529458913757
 20
239.08119521777601
 30
0.0
  0
VERTEX
  5
2700C
  8
0
 10
696.22965138379425
 20
238.9157570940497
 30
0.0
  0
VERTEX
  5
2700D
  8
0
 10
696.2650580110203
 20
238.58986984330519
 30
0.0
  0
VERTEX
  5
2700E
  8
0
 10
696.28288700629014
 20
238.266468193066
 30
0.0
  0
VERTEX
  5
2700F
  8
0
 10
696.28514249370085
 20
238.1041174390889
 30
0.0
  0
SEQEND
  5
27010
  8
0
  0
POLYLINE
  5
1B5A4
  8
0
 66
     1
 10
0.0
 20
0.0
 30
0.0
  0
VERTEX
  5
27011
  8
0
 10
696.28514249370085
 20
238.1041174390889
 30
0.0
  0
VERTEX
  5
27012
  8
0
 10
696.27795236008103
 20
237.81403486776929
 30
0.0
  0
VERTEX
  5
27013
  8
0
 10
696.22117777629649
 20
237.23162669619339
 30
0.0
  0
VERTEX
  5
27014
  8
0
 10
696.1065674375435
 20
236.62206611742161
 30
0.0
  0
VERTEX
  5
27015
  8
0
 10
696.02572278428545
 20
236.29749222174951
 30
0.0
  0
SEQEND
  5
27016
  8
0
  0
LINE
  5
1B5E0
  8
0
 10
625.78514249370085
 20
348.52399309110609
 30
0.0
 11
706.78514249370096
 21
348.52399309110609
 31
0.0
  0
LINE
  5
1B5E1
  8
0
 10
706.78514249370096
 20
348.52399309110609
 30
0.0
 11
706.78514249370096
 21
256.82847751804411
 31
0.0
  0
LINE
  5
1B5E4
  8
0
 10
688.78514249370085
 20
348.52399309110609
 30
0.0
 11
688.78514249370085
 21
232.02399309110609
 31
0.0
  0
LINE
  5
1B5E5
  8
0
 10
643.78514249370085
 20
348.52399309110609
 30
0.0
 11
643.78514249370085
 21
232.02399309110609
 31
0.0
  0
LINE
  5
1B5EB
  8
0
 10
625.78514249370085
 20
348.52399309110609
 30
0.0
 11
625.78514249370085
 21
256.82847751804411
 31
0.0
  0
POLYLINE
  5
1B5EC
  8
0
 66
     1
 10
0.0
 20
0.0
 30
0.0
  0
VERTEX
  5
27017
  8
0
 10
625.78514249370085
 20
256.82847751804411
 30
0.0
  0
VERTEX
  5
27018
  8
0
 10
625.78525374746118
 20
256.74162787220388
 30
0.0
  0
VERTEX
  5
27019
  8
0
 10
625.78618212084098
 20
256.56938180016101
 30
0.0
  0
VERTEX
  5
2701A
  8
0
 10
625.78813721768893
 20
256.39916886208681
 30
0.0
  0
VERTEX
  5
2701B
  8
0
 10
625.78953196451903
 20
256.31486007003832
 30
0.0
  0
VERTEX
  5
2701C
  8
0
 10
625.79122200607412
 20
256.23110151082568
 30
0.0
  0
VERTEX
  5
2701D
  8
0
 10
625.79553930832685
 20
256.06528920143728
 30
0.0
  0
VERTEX
  5
2701E
  8
0
 10
625.80119128470574
 20
255.90183780918051
 30
0.0
  0
VERTEX
  5
2701F
  8
0
 10
625.80827900594295
 20
255.7408475732486
 30
0.0
  0
VERTEX
  5
27020
  8
0
 10
625.81690204073425
 20
255.5824128306044
 30
0.0
  0
VERTEX
  5
27021
  8
0
 10
625.82715768914636
 20
255.42662718260499
 30
0.0
  0
VERTEX
  5
27022
  8
0
 10
625.83292738625357
 20
255.34975643655119
 30
0.0
  0
VERTEX
  5
27023
  8
0
 10
625.83914039949559
 20
255.2735820207831
 30
0.0
  0
VERTEX
  5
27024
  8
0
 10
625.85294117642593
 20
255.12336575801049
 30
0.0
  0
VERTEX
  5
27025
  8
0
 10
625.86864700997467
 20
254.97606308405059
 30
0.0
  0
VERTEX
  5
27026
  8
0
 10
625.88634033824007
 20
254.8317542265477
 30
0.0
  0
VERTEX
  5
27027
  8
0
 10
625.90609855730111
 20
254.69051421667379
 30
0.0
  0
VERTEX
  5
27028
  8
0
 10
625.92799359391563
 20
254.5524121597382
 30
0.0
  0
VERTEX
  5
27029
  8
0
 10
625.93976331304225
 20
254.48455766061809
 30
0.0
  0
VERTEX
  5
2702A
  8
0
 10
625.95210533057502
 20
254.41743773190461
 30
0.0
  0
VERTEX
  5
2702B
  8
0
 10
625.97895572849188
 20
254.2834887474701
 30
0.0
  0
VERTEX
  5
2702C
  8
0
 10
626.00891687782882
 20
254.14996318243399
 30
0.0
  0
VERTEX
  5
2702D
  8
0
 10
626.02511753238275
 20
254.08351817109181
 30
0.0
  0
SEQEND
  5
2702E
  8
0
  0
POLYLINE
  5
1B5ED
  8
0
 66
     1
 10
0.0
 20
0.0
 30
0.0
  0
VERTEX
  5
2702F
  8
0
 10
623.97606570736275
 20
254.08351817109181
 30
0.0
  0
VERTEX
  5
27030
  8
0
 10
623.96367289004445
 20
254.1476823969615
 30
0.0
  0
VERTEX
  5
27031
  8
0
 10
623.9403706792109
 20
254.27835836303481
 30
0.0
  0
VERTEX
  5
27032
  8
0
 10
623.91900442372605
 20
254.41212296680081
 30
0.0
  0
VERTEX
  5
27033
  8
0
 10
623.90903044275694
 20
254.4801465951337
 30
0.0
  0
VERTEX
  5
27034
  8
0
 10
623.89951967380568
 20
254.5489213905189
 30
0.0
  0
VERTEX
  5
27035
  8
0
 10
623.88185747119314
 20
254.6886934036938
 30
0.0
  0
VERTEX
  5
27036
  8
0
 10
623.86595462552623
 20
254.83137391843769
 30
0.0
  0
VERTEX
  5
27037
  8
0
 10
623.85174404170084
 20
254.97689356115831
 30
0.0
  0
VERTEX
  5
27038
  8
0
 10
623.83915508776772
 20
255.12517925878359
 30
0.0
  0
VERTEX
  5
27039
  8
0
 10
623.82811399385992
 20
255.276154838466
 30
0.0
  0
VERTEX
  5
2703A
  8
0
 10
623.82315008667388
 20
255.352626832987
 30
0.0
  0
VERTEX
  5
2703B
  8
0
 10
623.81854427357837
 20
255.4297416402969
 30
0.0
  0
VERTEX
  5
2703C
  8
0
 10
623.81036714779236
 20
255.5858594020101
 30
0.0
  0
VERTEX
  5
2703D
  8
0
 10
623.80350197513394
 20
255.74442753299761
 30
0.0
  0
VERTEX
  5
2703E
  8
0
 10
623.79786694106724
 20
255.9053590231743
 30
0.0
  0
VERTEX
  5
2703F
  8
0
 10
623.79337925388779
 20
256.06856229535288
 30
0.0
  0
VERTEX
  5
27040
  8
0
 10
623.78995545379439
 20
256.23394231639901
 30
0.0
  0
VERTEX
  5
27041
  8
0
 10
623.78861633637575
 20
256.31741807791559
 30
0.0
  0
VERTEX
  5
27042
  8
0
 10
623.78751177476556
 20
256.40140105726141
 30
0.0
  0
VERTEX
  5
27043
  8
0
 10
623.78596451571161
 20
256.57083796345017
 30
0.0
  0
VERTEX
  5
27044
  8
0
 10
623.78523041563221
 20
256.74215043878939
 30
0.0
  0
VERTEX
  5
27045
  8
0
 10
623.78514249370096
 20
256.82847751804411
 30
0.0
  0
SEQEND
  5
27046
  8
0
  0
LINE
  5
1B5EE
  8
0
 10
623.78514249370096
 20
256.82847751804411
 30
0.0
 11
623.78514249370096
 21
350.52399309110621
 31
0.0
  0
POLYLINE
  5
1B5F0
  8
0
 66
     1
 10
0.0
 20
0.0
 30
0.0
  0
VERTEX
  5
27047
  8
0
 10
626.02511753238275
 20
254.08351817109181
 30
0.0
  0
VERTEX
  5
27048
  8
0
 10
626.07034311192331
 20
253.9112150299589
 30
0.0
  0
VERTEX
  5
27049
  8
0
 10
626.17224585553754
 20
253.56984280208141
 30
0.0
  0
VERTEX
  5
2704A
  8
0
 10
626.2892458257254
 20
253.23334588664471
 30
0.0
  0
VERTEX
  5
2704B
  8
0
 10
626.3533359206026
 20
253.0671346197955
 30
0.0
  0
VERTEX
  5
2704C
  8
0
 10
626.4211109984434
 20
252.90239159471551
 30
0.0
  0
VERTEX
  5
2704D
  8
0
 10
626.56757987028698
 20
252.5776362457168
 30
0.0
  0
VERTEX
  5
2704E
  8
0
 10
626.72836197708102
 20
252.25972386587409
 30
0.0
  0
VERTEX
  5
2704F
  8
0
 10
626.90313846990205
 20
251.9492849110384
 30
0.0
  0
VERTEX
  5
27050
  8
0
 10
627.09156274739235
 20
251.64693501642211
 30
0.0
  0
VERTEX
  5
27051
  8
0
 10
627.29326114310868
 20
251.353273775725
 30
0.0
  0
VERTEX
  5
27052
  8
0
 10
627.39896414521252
 20
251.2098840939652
 30
0.0
  0
VERTEX
  5
27053
  8
0
 10
627.50783366654491
 20
251.06888355207369
 30
0.0
  0
VERTEX
  5
27054
  8
0
 10
627.73485479635792
 20
250.79432832312889
 30
0.0
  0
VERTEX
  5
27055
  8
0
 10
627.97387432422408
 20
250.53015256265689
 30
0.0
  0
VERTEX
  5
27056
  8
0
 10
628.22441824765247
 20
250.27688016077451
 30
0.0
  0
VERTEX
  5
27057
  8
0
 10
628.48598970998592
 20
250.03501338501749
 30
0.0
  0
VERTEX
  5
27058
  8
0
 10
628.75806998572159
 20
249.8050318842879
 30
0.0
  0
VERTEX
  5
27059
  8
0
 10
628.89788309943151
 20
249.69464158252319
 30
0.0
  0
VERTEX
  5
2705A
  8
0
 10
629.04011950920403
 20
249.58739173765619
 30
0.0
  0
VERTEX
  5
2705B
  8
0
 10
629.33157894464205
 20
249.382524549907
 30
0.0
  0
VERTEX
  5
2705C
  8
0
 10
629.63187029533594
 20
249.19083659561471
 30
0.0
  0
VERTEX
  5
2705D
  8
0
 10
629.78514249370085
 20
249.10005466626041
 30
0.0
  0
SEQEND
  5
2705E
  8
0
  0
LINE
  5
1B5F1
  8
0
 10
629.78514249370085
 20
249.10005466626041
 30
0.0
 11
630.74934152278161
 21
248.54337409726801
 31
0.0
  0
POLYLINE
  5
1B5F2
  8
0
 66
     1
 10
0.0
 20
0.0
 30
0.0
  0
VERTEX
  5
2705F
  8
0
 10
627.1536634345872
 20
248.54337409726801
 30
0.0
  0
VERTEX
  5
27060
  8
0
 10
627.01959598354279
 20
248.66433364251949
 30
0.0
  0
VERTEX
  5
27061
  8
0
 10
626.75812185408176
 20
248.91341559818741
 30
0.0
  0
VERTEX
  5
27062
  8
0
 10
626.5058117002543
 20
249.17177605818921
 30
0.0
  0
VERTEX
  5
27063
  8
0
 10
626.38319641757198
 20
249.3043308976699
 30
0.0
  0
VERTEX
  5
27064
  8
0
 10
626.26299456109678
 20
249.4390780932504
 30
0.0
  0
VERTEX
  5
27065
  8
0
 10
626.02998709575445
 20
249.71497311334221
 30
0.0
  0
VERTEX
  5
27066
  8
0
 10
625.80709317052322
 20
249.99910132227569
 30
0.0
  0
VERTEX
  5
27067
  8
0
 10
625.59460346257686
 20
250.2910921869161
 30
0.0
  0
VERTEX
  5
27068
  8
0
 10
625.39279508089317
 20
250.59056492039781
 30
0.0
  0
VERTEX
  5
27069
  8
0
 10
625.20193120487454
 20
250.8971289787082
 30
0.0
  0
VERTEX
  5
2706A
  8
0
 10
625.11068180634186
 20
251.0529456667891
 30
0.0
  0
VERTEX
  5
2706B
  8
0
 10
625.02226074113423
 20
251.2103845700012
 30
0.0
  0
VERTEX
  5
2706C
  8
0
 10
624.85401799889621
 20
251.52992317596409
 30
0.0
  0
VERTEX
  5
2706D
  8
0
 10
624.69742238443064
 20
251.8553280845731
 30
0.0
  0
VERTEX
  5
2706E
  8
0
 10
624.5526781149257
 20
252.18617493352619
 30
0.0
  0
VERTEX
  5
2706F
  8
0
 10
624.41997395216617
 20
252.52203226365779
 30
0.0
  0
VERTEX
  5
27070
  8
0
 10
624.29948295636905
 20
252.86246208160631
 30
0.0
  0
VERTEX
  5
27071
  8
0
 10
624.24386712803596
 20
253.03425315429601
 30
0.0
  0
VERTEX
  5
27072
  8
0
 10
624.19136226049341
 20
253.20702043100479
 30
0.0
  0
VERTEX
  5
27073
  8
0
 10
624.0957528653239
 20
253.55525797144489
 30
0.0
  0
VERTEX
  5
27074
  8
0
 10
624.01277945558991
 20
253.90672056446741
 30
0.0
  0
VERTEX
  5
27075
  8
0
 10
623.97606570736275
 20
254.08351817109181
 30
0.0
  0
SEQEND
  5
27076
  8
0
  0
POLYLINE
  5
1B5F4
  8
0
 66
     1
 10
0.0
 20
0.0
 30
0.0
  0
VERTEX
  5
27077
  8
0
 10
630.74934152278161
 20
248.54337409726801
 30
0.0
  0
VERTEX
  5
27078
  8
0
 10
630.83808284662587
 20
248.4917653185062
 30
0.0
  0
VERTEX
  5
27079
  8
0
 10
631.01360364730817
 20
248.38743684322529
 30
0.0
  0
VERTEX
  5
2707A
  8
0
 10
631.18647776890248
 20
248.28164556787851
 30
0.0
  0
VERTEX
  5
2707B
  8
0
 10
631.27191087510766
 20
248.2282083615591
 30
0.0
  0
VERTEX
  5
2707C
  8
0
 10
631.35666864228335
 20
248.17441387114471
 30
0.0
  0
VERTEX
  5
2707D
  8
0
 10
631.52414026592965
 20
248.0657644364033
 30
0.0
  0
VERTEX
  5
2707E
  8
0
 10
631.68885721353922
 20
247.95572024693729
 30
0.0
  0
VERTEX
  5
2707F
  8
0
 10
631.85078464152411
 20
247.84430458107039
 30
0.0
  0
VERTEX
  5
27080
  8
0
 10
632.00988829638027
 20
247.73154100724329
 30
0.0
  0
VERTEX
  5
27081
  8
0
 10
632.16613452193371
 20
247.61745337902721
 30
0.0
  0
VERTEX
  5
27082
  8
0
 10
632.24317574625456
 20
247.55992057548971
 30
0.0
  0
VERTEX
  5
27083
  8
0
 10
632.31949026645998
 20
247.50206583008
 30
0.0
  0
VERTEX
  5
27084
  8
0
 10
632.46992308967617
 20
247.38540276903859
 30
0.0
  0
VERTEX
  5
27085
  8
0
 10
632.61740116960254
 20
247.26748887435721
 30
0.0
  0
VERTEX
  5
27086
  8
0
 10
632.76189330929458
 20
247.14834908908691
 30
0.0
  0
VERTEX
  5
27087
  8
0
 10
632.90336894344171
 20
247.02800861559851
 30
0.0
  0
VERTEX
  5
27088
  8
0
 10
633.04179814483382
 20
246.90649291025241
 30
0.0
  0
VERTEX
  5
27089
  8
0
 10
633.10986115703463
 20
246.84530236887079
 30
0.0
  0
VERTEX
  5
2708A
  8
0
 10
633.1771516306909
 20
246.7838276780117
 30
0.0
  0
VERTEX
  5
2708B
  8
0
 10
633.30940076885872
 20
246.6600388670077
 30
0.0
  0
VERTEX
  5
2708C
  8
0
 10
633.43851758386381
 20
246.53515266304791
 30
0.0
  0
VERTEX
  5
2708D
  8
0
 10
633.5018928088657
 20
246.47230628540271
 30
0.0
  0
SEQEND
  5
2708E
  8
0
  0
POLYLINE
  5
1B5F5
  8
0
 66
     1
 10
0.0
 20
0.0
 30
0.0
  0
VERTEX
  5
2708F
  8
0
 10
629.5018928088657
 20
246.47230628540271
 30
0.0
  0
VERTEX
  5
27090
  8
0
 10
629.38859806134428
 20
246.58392725223979
 30
0.0
  0
VERTEX
  5
27091
  8
0
 10
629.15455282250343
 20
246.80458392648421
 30
0.0
  0
VERTEX
  5
27092
  8
0
 10
628.91069785844115
 20
247.0216707247873
 30
0.0
  0
VERTEX
  5
27093
  8
0
 10
628.78514249370085
 20
247.1288299068701
 30
0.0
  0
SEQEND
  5
27094
  8
0
  0
LINE
  5
1B5F6
  8
0
 10
628.78514249370085
 20
247.1288299068701
 30
0.0
 11
627.1536634345872
 21
248.54337409726801
 31
0.0
  0
LINE
  5
1B5F8
  8
0
 10
633.5018928088657
 20
246.47230628540271
 30
0.0
 11
635.03514249370085
 21
244.93905660056731
 31
0.0
  0
POLYLINE
  5
1B5F9
  8
0
 66
     1
 10
0.0
 20
0.0
 30
0.0
  0
VERTEX
  5
27095
  8
0
 10
635.03514249370085
 20
244.93905660056731
 30
0.0
  0
VERTEX
  5
27096
  8
0
 10
635.20197311316201
 20
244.7700917623765
 30
0.0
  0
VERTEX
  5
27097
  8
0
 10
635.53235177306033
 20
244.4226409142843
 30
0.0
  0
VERTEX
  5
27098
  8
0
 10
635.85821958369502
 20
244.06263705518771
 30
0.0
  0
VERTEX
  5
27099
  8
0
 10
636.01941215731529
 20
243.8779823884629
 30
0.0
  0
VERTEX
  5
2709A
  8
0
 10
636.17941758461336
 20
243.6902557973267
 30
0.0
  0
VERTEX
  5
2709B
  8
0
 10
636.49578909332672
 20
243.3056787907185
 30
0.0
  0
VERTEX
  5
2709C
  8
0
 10
636.80717978174027
 20
242.90909363454651
 30
0.0
  0
VERTEX
  5
2709D
  8
0
 10
637.11343775143655
 20
242.5006937856474
 30
0.0
  0
VERTEX
  5
2709E
  8
0
 10
637.41441360777162
 20
242.0806784641436
 30
0.0
  0
VERTEX
  5
2709F
  8
0
 10
637.7099605327511
 20
241.6492525562594
 30
0.0
  0
VERTEX
  5
270A0
  8
0
 10
637.85565298756319
 20
241.4293261841554
 30
0.0
  0
VERTEX
  5
270A1
  8
0
 10
637.99993435664896
 20
241.20662651437939
 30
0.0
  0
VERTEX
  5
270A2
  8
0
 10
638.28419362833438
 20
240.75301625438621
 30
0.0
  0
VERTEX
  5
270A3
  8
0
 10
638.5625996842723
 20
240.28864305033679
 30
0.0
  0
VERTEX
  5
270A4
  8
0
 10
638.83501671616489
 20
239.81373342652111
 30
0.0
  0
VERTEX
  5
270A5
  8
0
 10
639.10131183719966
 20
239.32851904696551
 30
0.0
  0
VERTEX
  5
270A6
  8
0
 10
639.3613551468718
 20
238.83323660242289
 30
0.0
  0
VERTEX
  5
270A7
  8
0
 10
639.48899261073245
 20
238.5818951677729
 30
0.0
  0
VERTEX
  5
270A8
  8
0
 10
639.61501979435172
 20
238.3281276949138
 30
0.0
  0
VERTEX
  5
270A9
  8
0
 10
639.86218204036209
 20
237.81343871987201
 30
0.0
  0
VERTEX
  5
270AA
  8
0
 10
640.10272131754084
 20
237.28942074595221
 30
0.0
  0
VERTEX
  5
270AB
  8
0
 10
640.22047054734344
 20
237.02399309110609
 30
0.0
  0
SEQEND
  5
270AC
  8
0
  0
POLYLINE
  5
1B5FA
  8
0
 66
     1
 10
0.0
 20
0.0
 30
0.0
  0
VERTEX
  5
270AD
  8
0
 10
637.60739350498977
 20
237.02399309110609
 30
0.0
  0
VERTEX
  5
270AE
  8
0
 10
637.52014957677977
 20
237.1842951102353
 30
0.0
  0
VERTEX
  5
270AF
  8
0
 10
637.34339813947906
 20
237.5011523428775
 30
0.0
  0
VERTEX
  5
270B0
  8
0
 10
637.16366834965675
 20
237.8129428584362
 30
0.0
  0
VERTEX
  5
270B1
  8
0
 10
637.07270166880562
 20
237.96691180105199
 30
0.0
  0
VERTEX
  5
270B2
  8
0
 10
636.98100861446562
 20
238.11958268145469
 30
0.0
  0
VERTEX
  5
270B3
  8
0
 10
636.79546813018942
 20
238.42098922372719
 30
0.0
  0
VERTEX
  5
270B4
  8
0
 10
636.60709686899258
 20
238.71708130654361
 30
0.0
  0
VERTEX
  5
270B5
  8
0
 10
636.41594556546113
 20
239.00777918255201
 30
0.0
  0
VERTEX
  5
270B6
  8
0
 10
636.2220657029377
 20
239.29300455723799
 30
0.0
  0
VERTEX
  5
270B7
  8
0
 10
636.02550949965621
 20
239.5726806100129
 30
0.0
  0
VERTEX
  5
270B8
  8
0
 10
635.92624428591876
 20
239.71041404237579
 30
0.0
  0
VERTEX
  5
270B9
  8
0
 10
635.82632989467686
 20
239.8467320149025
 30
0.0
  0
VERTEX
  5
270BA
  8
0
 10
635.62458053362877
 20
240.11508496083621
 30
0.0
  0
VERTEX
  5
270BB
  8
0
 10
635.42031575426086
 20
240.37766717152499
 30
0.0
  0
VERTEX
  5
270BC
  8
0
 10
635.21359057180655
 20
240.6344079249302
 30
0.0
  0
VERTEX
  5
270BD
  8
0
 10
635.00446066416794
 20
240.88523807230919
 30
0.0
  0
VERTEX
  5
270BE
  8
0
 10
634.79298235691783
 20
241.1300900568404
 30
0.0
  0
VERTEX
  5
270BF
  8
0
 10
634.6863803285479
 20
241.25025356630931
 30
0.0
  0
VERTEX
  5
270C0
  8
0
 10
634.57921260813089
 20
241.36889793181899
 30
0.0
  0
VERTEX
  5
270C1
  8
0
 10
634.36320899304235
 20
241.60159737841741
 30
0.0
  0
VERTEX
  5
270C2
  8
0
 10
634.1450296885414
 20
241.82812572300921
 30
0.0
  0
VERTEX
  5
270C3
  8
0
 10
634.03514249370096
 20
241.9390566005672
 30
0.0
  0
SEQEND
  5
270C4
  8
0
  0
LINE
  5
1B5FB
  8
0
 10
634.03514249370096
 20
241.9390566005672
 30
0.0
 11
629.5018928088657
 21
246.47230628540271
 31
0.0
  0
POLYLINE
  5
1B5FD
  8
0
 66
     1
 10
0.0
 20
0.0
 30
0.0
  0
VERTEX
  5
270C5
  8
0
 10
640.22047054734344
 20
237.02399309110609
 30
0.0
  0
VERTEX
  5
270C6
  8
0
 10
640.33255444666065
 20
236.7740517304492
 30
0.0
  0
VERTEX
  5
270C7
  8
0
 10
640.56273152063511
 20
236.29160621079109
 30
0.0
  0
VERTEX
  5
270C8
  8
0
 10
640.79767982727128
 20
235.8340476479739
 30
0.0
  0
VERTEX
  5
270C9
  8
0
 10
640.91575954676273
 20
235.61517848009231
 30
0.0
  0
VERTEX
  5
270CA
  8
0
 10
641.03363292842835
 20
235.4032042699323
 30
0.0
  0
VERTEX
  5
270CB
  8
0
 10
641.26702440454915
 20
235.00071187681669
 30
0.0
  0
VERTEX
  5
270CC
  8
0
 10
641.50012069905972
 20
234.6190610002937
 30
0.0
  0
VERTEX
  5
270CD
  8
0
 10
641.73476154807986
 20
234.25319295655891
 30
0.0
  0
VERTEX
  5
270CE
  8
0
 10
641.96782011032042
 20
233.90653871208539
 30
0.0
  0
VERTEX
  5
270CF
  8
0
 10
642.1962515993124
 20
233.58221277898659
 30
0.0
  0
VERTEX
  5
270D0
  8
0
 10
642.30781959193405
 20
233.4293096181955
 30
0.0
  0
VERTEX
  5
270D1
  8
0
 10
642.41715367072857
 20
233.2830203115727
 30
0.0
  0
VERTEX
  5
270D2
  8
0
 10
642.62778375702919
 20
233.01150230511351
 30
0.0
  0
VERTEX
  5
270D3
  8
0
 10
642.82563301464393
 20
232.76988569438339
 30
0.0
  0
VERTEX
  5
270D4
  8
0
 10
643.00858995444219
 20
232.5599333680407
 30
0.0
  0
VERTEX
  5
270D5
  8
0
 10
643.17471567949099
 20
232.3832455941747
 30
0.0
  0
VERTEX
  5
270D6
  8
0
 10
643.32234793037833
 20
232.2411186455756
 30
0.0
  0
VERTEX
  5
270D7
  8
0
 10
643.38881801544665
 20
232.1833002071248
 30
0.0
  0
VERTEX
  5
270D8
  8
0
 10
643.45022412218066
 20
232.13440617565951
 30
0.0
  0
VERTEX
  5
270D9
  8
0
 10
643.55749009121416
 20
232.06350846348909
 30
0.0
  0
VERTEX
  5
270DA
  8
0
 10
643.64370201621841
 20
232.02834606941181
 30
0.0
  0
VERTEX
  5
270DB
  8
0
 10
643.67889806482538
 20
232.02399309110609
 30
0.0
  0
SEQEND
  5
270DC
  8
0
  0
POLYLINE
  5
1B5FE
  8
0
 66
     1
 10
0.0
 20
0.0
 30
0.0
  0
VERTEX
  5
270DD
  8
0
 10
641.66508829555676
 20
232.02399309110609
 30
0.0
  0
VERTEX
  5
270DE
  8
0
 10
641.65874598141374
 20
232.02411809950951
 30
0.0
  0
VERTEX
  5
270DF
  8
0
 10
641.64555201590383
 20
232.02511968811311
 30
0.0
  0
VERTEX
  5
270E0
  8
0
 10
641.6316774965951
 20
232.02712653340589
 30
0.0
  0
VERTEX
  5
270E1
  8
0
 10
641.62448458469271
 20
232.02850801264279
 30
0.0
  0
VERTEX
  5
270E2
  8
0
 10
641.61712105149263
 20
232.0301420545261
 30
0.0
  0
VERTEX
  5
270E3
  8
0
 10
641.60188171427671
 20
232.03416923765829
 30
0.0
  0
VERTEX
  5
270E4
  8
0
 10
641.58595892560265
 20
232.0392106316344
 30
0.0
  0
VERTEX
  5
270E5
  8
0
 10
641.56935253311701
 20
232.04526834537461
 30
0.0
  0
VERTEX
  5
270E6
  8
0
 10
641.5520627902107
 20
232.05234404712971
 30
0.0
  0
VERTEX
  5
270E7
  8
0
 10
641.53409035352922
 20
232.06043896548999
 30
0.0
  0
VERTEX
  5
270E8
  8
0
 10
641.52484843960167
 20
232.06486889524919
 30
0.0
  0
VERTEX
  5
270E9
  8
0
 10
641.51543627926583
 20
232.06955389211501
 30
0.0
  0
VERTEX
  5
270EA
  8
0
 10
641.49610201826465
 20
232.07968918614139
 30
0.0
  0
VERTEX
  5
270EB
  8
0
 10
641.47608940996122
 20
232.090844780233
 30
0.0
  0
VERTEX
  5
270EC
  8
0
 10
641.45540067519357
 20
232.10302018821679
 30
0.0
  0
VERTEX
  5
270ED
  8
0
 10
641.43403840791666
 20
232.1162145142703
 30
0.0
  0
VERTEX
  5
270EE
  8
0
 10
641.41200556585341
 20
232.130426463611
 30
0.0
  0
VERTEX
  5
270EF
  8
0
 10
641.40073870050082
 20
232.13791353626269
 30
0.0
  0
VERTEX
  5
270F0
  8
0
 10
641.38930546012216
 20
232.1456543546378
 30
0.0
  0
VERTEX
  5
270F1
  8
0
 10
641.36594174387801
 20
232.16189613248619
 30
0.0
  0
VERTEX
  5
270F2
  8
0
 10
641.34191840000733
 20
232.17914938394051
 30
0.0
  0
VERTEX
  5
270F3
  8
0
 10
641.32966069929171
 20
232.18815446412191
 30
0.0
  0
VERTEX
  5
270F4
  8
0
 10
641.25270689310366
 20
232.24745845802269
 30
0.0
  0
VERTEX
  5
270F5
  8
0
 10
641.08174624437515
 20
232.3928441650678
 30
0.0
  0
VERTEX
  5
270F6
  8
0
 10
640.88929094043169
 20
232.5729636730421
 30
0.0
  0
VERTEX
  5
270F7
  8
0
 10
640.67720892011221
 20
232.78627518961869
 30
0.0
  0
VERTEX
  5
270F8
  8
0
 10
640.44765900787149
 20
233.03095006342571
 30
0.0
  0
VERTEX
  5
270F9
  8
0
 10
640.20297288016923
 20
233.3050211452437
 30
0.0
  0
VERTEX
  5
270FA
  8
0
 10
640.07581082674744
 20
233.4523378733725
 30
0.0
  0
VERTEX
  5
270FB
  8
0
 10
639.94593009961375
 20
233.60607351254839
 30
0.0
  0
VERTEX
  5
270FC
  8
0
 10
639.67957536721065
 20
233.93140311093339
 30
0.0
  0
VERTEX
  5
270FD
  8
0
 10
639.40714418702964
 20
234.2780695419074
 30
0.0
  0
VERTEX
  5
270FE
  8
0
 10
639.13205404909661
 20
234.64285534758849
 30
0.0
  0
VERTEX
  5
270FF
  8
0
 10
638.85784735262473
 20
235.02226248399941
 30
0.0
  0
VERTEX
  5
27100
  8
0
 10
638.58204380395875
 20
235.42151021972859
 30
0.0
  0
VERTEX
  5
27101
  8
0
 10
638.44218355648911
 20
235.6315006956425
 30
0.0
  0
VERTEX
  5
27102
  8
0
 10
638.30165725017628
 20
235.8481503167705
 30
0.0
  0
VERTEX
  5
27103
  8
0
 10
638.02065261624045
 20
236.3006083806508
 30
0.0
  0
VERTEX
  5
27104
  8
0
 10
637.7432970204145
 20
236.77719655845701
 30
0.0
  0
VERTEX
  5
27105
  8
0
 10
637.60739350498977
 20
237.02399309110609
 30
0.0
  0
SEQEND
  5
27106
  8
0
  0
LINE
  5
1B5FF
  8
0
 10
643.78514249370085
 20
232.02399309110609
 30
0.0
 11
641.66508829555676
 21
232.02399309110609
 31
0.0
  0
POLYLINE
  5
1B602
  8
0
 66
     1
 10
0.0
 20
0.0
 30
0.0
  0
VERTEX
  5
27107
  8
0
 10
708.78514249370085
 20
256.82847751804411
 30
0.0
  0
VERTEX
  5
27108
  8
0
 10
708.78505457176971
 20
256.74215043878939
 30
0.0
  0
VERTEX
  5
27109
  8
0
 10
708.78432047169031
 20
256.57083796344978
 30
0.0
  0
VERTEX
  5
2710A
  8
0
 10
708.78277321263624
 20
256.40140105726141
 30
0.0
  0
VERTEX
  5
2710B
  8
0
 10
708.78166865102594
 20
256.31741807791559
 30
0.0
  0
VERTEX
  5
2710C
  8
0
 10
708.78032953360753
 20
256.23394231639901
 30
0.0
  0
VERTEX
  5
2710D
  8
0
 10
708.77690573351413
 20
256.06856229535288
 30
0.0
  0
VERTEX
  5
2710E
  8
0
 10
708.77241804633468
 20
255.9053590231743
 30
0.0
  0
VERTEX
  5
2710F
  8
0
 10
708.76678301226787
 20
255.74442753299761
 30
0.0
  0
VERTEX
  5
27110
  8
0
 10
708.75991783960944
 20
255.5858594020101
 30
0.0
  0
VERTEX
  5
27111
  8
0
 10
708.75174071382344
 20
255.4297416402969
 30
0.0
  0
VERTEX
  5
27112
  8
0
 10
708.74713490072793
 20
255.352626832987
 30
0.0
  0
VERTEX
  5
27113
  8
0
 10
708.74217099354189
 20
255.276154838466
 30
0.0
  0
VERTEX
  5
27114
  8
0
 10
708.7311298996342
 20
255.12517925878359
 30
0.0
  0
VERTEX
  5
27115
  8
0
 10
708.71854094570108
 20
254.97689356115831
 30
0.0
  0
VERTEX
  5
27116
  8
0
 10
708.70433036187569
 20
254.83137391843769
 30
0.0
  0
VERTEX
  5
27117
  8
0
 10
708.68842751620878
 20
254.6886934036938
 30
0.0
  0
VERTEX
  5
27118
  8
0
 10
708.67076531359601
 20
254.5489213905189
 30
0.0
  0
VERTEX
  5
27119
  8
0
 10
708.66125454464475
 20
254.4801465951337
 30
0.0
  0
VERTEX
  5
2711A
  8
0
 10
708.65128056367575
 20
254.41212296680081
 30
0.0
  0
VERTEX
  5
2711B
  8
0
 10
708.62991430819102
 20
254.27835836303481
 30
0.0
  0
VERTEX
  5
2711C
  8
0
 10
708.60661209735736
 20
254.1476823969615
 30
0.0
  0
VERTEX
  5
2711D
  8
0
 10
708.59421928003906
 20
254.08351817109181
 30
0.0
  0
SEQEND
  5
2711E
  8
0
  0
POLYLINE
  5
1B603
  8
0
 66
     1
 10
0.0
 20
0.0
 30
0.0
  0
VERTEX
  5
2711F
  8
0
 10
706.54516745501905
 20
254.08351817109181
 30
0.0
  0
VERTEX
  5
27120
  8
0
 10
706.56136810957298
 20
254.14996318243399
 30
0.0
  0
VERTEX
  5
27121
  8
0
 10
706.59132925891004
 20
254.2834887474701
 30
0.0
  0
VERTEX
  5
27122
  8
0
 10
706.6181796568269
 20
254.41743773190461
 30
0.0
  0
VERTEX
  5
27123
  8
0
 10
706.63052167435967
 20
254.48455766061809
 30
0.0
  0
VERTEX
  5
27124
  8
0
 10
706.64229139348629
 20
254.5524121597382
 30
0.0
  0
VERTEX
  5
27125
  8
0
 10
706.66418643010081
 20
254.69051421667379
 30
0.0
  0
VERTEX
  5
27126
  8
0
 10
706.68394464916184
 20
254.8317542265477
 30
0.0
  0
VERTEX
  5
27127
  8
0
 10
706.70163797742714
 20
254.97606308405059
 30
0.0
  0
VERTEX
  5
27128
  8
0
 10
706.71734381097599
 20
255.12336575801049
 30
0.0
  0
VERTEX
  5
27129
  8
0
 10
706.73114458790633
 20
255.2735820207831
 30
0.0
  0
VERTEX
  5
2712A
  8
0
 10
706.73735760114823
 20
255.34975643655119
 30
0.0
  0
VERTEX
  5
2712B
  8
0
 10
706.74312729825544
 20
255.42662718260499
 30
0.0
  0
VERTEX
  5
2712C
  8
0
 10
706.75338294666756
 20
255.5824128306044
 30
0.0
  0
VERTEX
  5
2712D
  8
0
 10
706.76200598145908
 20
255.7408475732486
 30
0.0
  0
VERTEX
  5
2712E
  8
0
 10
706.76909370269607
 20
255.90183780918051
 30
0.0
  0
VERTEX
  5
2712F
  8
0
 10
706.77474567907495
 20
256.06528920143728
 30
0.0
  0
VERTEX
  5
27130
  8
0
 10
706.7790629813278
 20
256.23110151082568
 30
0.0
  0
VERTEX
  5
27131
  8
0
 10
706.78075302288289
 20
256.31486007003832
 30
0.0
  0
VERTEX
  5
27132
  8
0
 10
706.78214776971299
 20
256.39916886208681
 30
0.0
  0
VERTEX
  5
27133
  8
0
 10
706.78410286656083
 20
256.56938180016101
 30
0.0
  0
VERTEX
  5
27134
  8
0
 10
706.78503123994074
 20
256.74162787220388
 30
0.0
  0
VERTEX
  5
27135
  8
0
 10
706.78514249370096
 20
256.82847751804411
 30
0.0
  0
SEQEND
  5
27136
  8
0
  0
POLYLINE
  5
1B605
  8
0
 66
     1
 10
0.0
 20
0.0
 30
0.0
  0
VERTEX
  5
27137
  8
0
 10
702.78514249370096
 20
249.10005466626041
 30
0.0
  0
VERTEX
  5
27138
  8
0
 10
702.93841469206586
 20
249.19083659561471
 30
0.0
  0
VERTEX
  5
27139
  8
0
 10
703.23870604275965
 20
249.382524549907
 30
0.0
  0
VERTEX
  5
2713A
  8
0
 10
703.53016547819789
 20
249.58739173765659
 30
0.0
  0
VERTEX
  5
2713B
  8
0
 10
703.67240188797041
 20
249.69464158252319
 30
0.0
  0
VERTEX
  5
2713C
  8
0
 10
703.81221500168022
 20
249.8050318842879
 30
0.0
  0
VERTEX
  5
2713D
  8
0
 10
704.084295277416
 20
250.03501338501749
 30
0.0
  0
VERTEX
  5
2713E
  8
0
 10
704.34586673974934
 20
250.27688016077451
 30
0.0
  0
VERTEX
  5
2713F
  8
0
 10
704.59641066317783
 20
250.53015256265689
 30
0.0
  0
VERTEX
  5
27140
  8
0
 10
704.835430191044
 20
250.79432832312929
 30
0.0
  0
VERTEX
  5
27141
  8
0
 10
705.06245132085689
 20
251.06888355207369
 30
0.0
  0
VERTEX
  5
27142
  8
0
 10
705.1713208421894
 20
251.2098840939652
 30
0.0
  0
VERTEX
  5
27143
  8
0
 10
705.27702384429324
 20
251.353273775725
 30
0.0
  0
VERTEX
  5
27144
  8
0
 10
705.47872224000946
 20
251.64693501642211
 30
0.0
  0
VERTEX
  5
27145
  8
0
 10
705.66714651749976
 20
251.9492849110384
 30
0.0
  0
VERTEX
  5
27146
  8
0
 10
705.8419230103209
 20
252.25972386587409
 30
0.0
  0
VERTEX
  5
27147
  8
0
 10
706.00270511711483
 20
252.5776362457168
 30
0.0
  0
VERTEX
  5
27148
  8
0
 10
706.14917398895852
 20
252.90239159471551
 30
0.0
  0
VERTEX
  5
27149
  8
0
 10
706.21694906679932
 20
253.0671346197955
 30
0.0
  0
VERTEX
  5
2714A
  8
0
 10
706.28103916167652
 20
253.23334588664471
 30
0.0
  0
VERTEX
  5
2714B
  8
0
 10
706.39803913186438
 20
253.56984280208141
 30
0.0
  0
VERTEX
  5
2714C
  8
0
 10
706.49994187547861
 20
253.9112150299589
 30
0.0
  0
VERTEX
  5
2714D
  8
0
 10
706.54516745501905
 20
254.08351817109181
 30
0.0
  0
SEQEND
  5
2714E
  8
0
  0
POLYLINE
  5
1B607
  8
0
 66
     1
 10
0.0
 20
0.0
 30
0.0
  0
VERTEX
  5
2714F
  8
0
 10
708.59421928003906
 20
254.08351817109181
 30
0.0
  0
VERTEX
  5
27150
  8
0
 10
708.55750553181201
 20
253.90672056446741
 30
0.0
  0
VERTEX
  5
27151
  8
0
 10
708.47453212207802
 20
253.55525797144489
 30
0.0
  0
VERTEX
  5
27152
  8
0
 10
708.37892272690851
 20
253.20702043100479
 30
0.0
  0
VERTEX
  5
27153
  8
0
 10
708.32641785936585
 20
253.03425315429601
 30
0.0
  0
VERTEX
  5
27154
  8
0
 10
708.27080203103276
 20
252.86246208160631
 30
0.0
  0
VERTEX
  5
27155
  8
0
 10
708.15031103523563
 20
252.52203226365779
 30
0.0
  0
VERTEX
  5
27156
  8
0
 10
708.01760687247622
 20
252.18617493352619
 30
0.0
  0
VERTEX
  5
27157
  8
0
 10
707.87286260297128
 20
251.8553280845731
 30
0.0
  0
VERTEX
  5
27158
  8
0
 10
707.71626698850571
 20
251.52992317596409
 30
0.0
  0
VERTEX
  5
27159
  8
0
 10
707.54802424626769
 20
251.2103845700012
 30
0.0
  0
VERTEX
  5
2715A
  8
0
 10
707.45960318105983
 20
251.0529456667891
 30
0.0
  0
VERTEX
  5
2715B
  8
0
 10
707.36835378252738
 20
250.8971289787082
 30
0.0
  0
VERTEX
  5
2715C
  8
0
 10
707.17748990650875
 20
250.59056492039781
 30
0.0
  0
VERTEX
  5
2715D
  8
0
 10
706.97568152482506
 20
250.2910921869165
 30
0.0
  0
VERTEX
  5
2715E
  8
0
 10
706.76319181687859
 20
249.99910132227569
 30
0.0
  0
VERTEX
  5
2715F
  8
0
 10
706.54029789164736
 20
249.71497311334221
 30
0.0
  0
VERTEX
  5
27160
  8
0
 10
706.30729042630503
 20
249.4390780932504
 30
0.0
  0
VERTEX
  5
27161
  8
0
 10
706.18708856982994
 20
249.3043308976699
 30
0.0
  0
VERTEX
  5
27162
  8
0
 10
706.06447328714762
 20
249.17177605818921
 30
0.0
  0
VERTEX
  5
27163
  8
0
 10
705.81216313332015
 20
248.91341559818741
 30
0.0
  0
VERTEX
  5
27164
  8
0
 10
705.55068900385902
 20
248.66433364251949
 30
0.0
  0
VERTEX
  5
27165
  8
0
 10
705.41662155281449
 20
248.54337409726801
 30
0.0
  0
SEQEND
  5
27166
  8
0
  0
LINE
  5
1B608
  8
0
 10
701.82094346462031
 20
248.54337409726801
 30
0.0
 11
702.78514249370096
 21
249.10005466626041
 31
0.0
  0
LINE
  5
1B60B
  8
0
 10
705.41662155281449
 20
248.54337409726801
 30
0.0
 11
703.78514249370085
 21
247.1288299068701
 31
0.0
  0
POLYLINE
  5
1B60C
  8
0
 66
     1
 10
0.0
 20
0.0
 30
0.0
  0
VERTEX
  5
27167
  8
0
 10
703.78514249370085
 20
247.1288299068701
 30
0.0
  0
VERTEX
  5
27168
  8
0
 10
703.65958712896065
 20
247.0216707247873
 30
0.0
  0
VERTEX
  5
27169
  8
0
 10
703.41573216489826
 20
246.80458392648421
 30
0.0
  0
VERTEX
  5
2716A
  8
0
 10
703.18168692605764
 20
246.58392725223979
 30
0.0
  0
VERTEX
  5
2716B
  8
0
 10
703.06839217853621
 20
246.47230628540271
 30
0.0
  0
SEQEND
  5
2716C
  8
0
  0
POLYLINE
  5
1B60D
  8
0
 66
     1
 10
0.0
 20
0.0
 30
0.0
  0
VERTEX
  5
2716D
  8
0
 10
699.06839217853621
 20
246.47230628540271
 30
0.0
  0
VERTEX
  5
2716E
  8
0
 10
699.13176740353799
 20
246.53515266304791
 30
0.0
  0
VERTEX
  5
2716F
  8
0
 10
699.2608842185432
 20
246.6600388670077
 30
0.0
  0
VERTEX
  5
27170
  8
0
 10
699.39313335671079
 20
246.7838276780117
 30
0.0
  0
VERTEX
  5
27171
  8
0
 10
699.46042383036718
 20
246.84530236887079
 30
0.0
  0
VERTEX
  5
27172
  8
0
 10
699.5284868425681
 20
246.90649291025241
 30
0.0
  0
VERTEX
  5
27173
  8
0
 10
699.66691604395999
 20
247.02800861559851
 30
0.0
  0
VERTEX
  5
27174
  8
0
 10
699.80839167810734
 20
247.14834908908691
 30
0.0
  0
VERTEX
  5
27175
  8
0
 10
699.95288381779915
 20
247.26748887435721
 30
0.0
  0
VERTEX
  5
27176
  8
0
 10
700.10036189772563
 20
247.38540276903859
 30
0.0
  0
VERTEX
  5
27177
  8
0
 10
700.25079472094183
 20
247.50206583008
 30
0.0
  0
VERTEX
  5
27178
  8
0
 10
700.32710924114724
 20
247.55992057548971
 30
0.0
  0
VERTEX
  5
27179
  8
0
 10
700.40415046546821
 20
247.61745337902721
 30
0.0
  0
VERTEX
  5
2717A
  8
0
 10
700.56039669102165
 20
247.73154100724329
 30
0.0
  0
VERTEX
  5
2717B
  8
0
 10
700.71950034587758
 20
247.84430458107039
 30
0.0
  0
VERTEX
  5
2717C
  8
0
 10
700.88142777386258
 20
247.95572024693729
 30
0.0
  0
VERTEX
  5
2717D
  8
0
 10
701.04614472147227
 20
248.0657644364033
 30
0.0
  0
VERTEX
  5
2717E
  8
0
 10
701.21361634511845
 20
248.17441387114471
 30
0.0
  0
VERTEX
  5
2717F
  8
0
 10
701.29837411229414
 20
248.2282083615591
 30
0.0
  0
VERTEX
  5
27180
  8
0
 10
701.38380721849944
 20
248.28164556787851
 30
0.0
  0
VERTEX
  5
27181
  8
0
 10
701.55668134009375
 20
248.38743684322529
 30
0.0
  0
VERTEX
  5
27182
  8
0
 10
701.73220214077583
 20
248.4917653185062
 30
0.0
  0
VERTEX
  5
27183
  8
0
 10
701.82094346462031
 20
248.54337409726801
 30
0.0
  0
SEQEND
  5
27184
  8
0
  0
LINE
  5
1B611
  8
0
 10
708.78514249370085
 20
350.52399309110621
 30
0.0
 11
708.78514249370085
 21
256.82847751804411
 31
0.0
  0
LINE
  5
1B613
  8
0
 10
697.53514249370085
 20
244.93905660056731
 30
0.0
 11
699.06839217853621
 21
246.47230628540271
 31
0.0
  0
LINE
  5
1B615
  8
0
 10
703.06839217853621
 20
246.47230628540271
 30
0.0
 11
698.53514249370085
 21
241.9390566005672
 31
0.0
  0
POLYLINE
  5
1B616
  8
0
 66
     1
 10
0.0
 20
0.0
 30
0.0
  0
VERTEX
  5
27185
  8
0
 10
698.53514249370085
 20
241.9390566005672
 30
0.0
  0
VERTEX
  5
27186
  8
0
 10
698.42525529886052
 20
241.82812572300921
 30
0.0
  0
VERTEX
  5
27187
  8
0
 10
698.20707599435946
 20
241.60159737841741
 30
0.0
  0
VERTEX
  5
27188
  8
0
 10
697.99107237927103
 20
241.36889793181899
 30
0.0
  0
VERTEX
  5
27189
  8
0
 10
697.88390465885391
 20
241.25025356630931
 30
0.0
  0
VERTEX
  5
2718A
  8
0
 10
697.77730263048397
 20
241.1300900568404
 30
0.0
  0
VERTEX
  5
2718B
  8
0
 10
697.56582432323398
 20
240.88523807230919
 30
0.0
  0
VERTEX
  5
2718C
  8
0
 10
697.35669441559514
 20
240.6344079249302
 30
0.0
  0
VERTEX
  5
2718D
  8
0
 10
697.14996923314095
 20
240.37766717152499
 30
0.0
  0
VERTEX
  5
2718E
  8
0
 10
696.94570445377303
 20
240.11508496083621
 30
0.0
  0
VERTEX
  5
2718F
  8
0
 10
696.74395509272495
 20
239.8467320149025
 30
0.0
  0
VERTEX
  5
27190
  8
0
 10
696.64404070148316
 20
239.71041404237579
 30
0.0
  0
VERTEX
  5
27191
  8
0
 10
696.54477548774571
 20
239.5726806100129
 30
0.0
  0
VERTEX
  5
27192
  8
0
 10
696.34821928446422
 20
239.29300455723799
 30
0.0
  0
VERTEX
  5
27193
  8
0
 10
696.15433942194079
 20
239.00777918255201
 30
0.0
  0
VERTEX
  5
27194
  8
0
 10
695.96318811840933
 20
238.71708130654361
 30
0.0
  0
VERTEX
  5
27195
  8
0
 10
695.77481685721239
 20
238.42098922372719
 30
0.0
  0
VERTEX
  5
27196
  8
0
 10
695.58927637293618
 20
238.11958268145469
 30
0.0
  0
VERTEX
  5
27197
  8
0
 10
695.4975833185963
 20
237.96691180105199
 30
0.0
  0
VERTEX
  5
27198
  8
0
 10
695.40661663774506
 20
237.8129428584362
 30
0.0
  0
VERTEX
  5
27199
  8
0
 10
695.22688684792274
 20
237.5011523428775
 30
0.0
  0
VERTEX
  5
2719A
  8
0
 10
695.05013541062215
 20
237.1842951102353
 30
0.0
  0
VERTEX
  5
2719B
  8
0
 10
694.96289148241203
 20
237.02399309110609
 30
0.0
  0
SEQEND
  5
2719C
  8
0
  0
POLYLINE
  5
1B617
  8
0
 66
     1
 10
0.0
 20
0.0
 30
0.0
  0
VERTEX
  5
2719D
  8
0
 10
692.34981444005848
 20
237.02399309110609
 30
0.0
  0
VERTEX
  5
2719E
  8
0
 10
692.46756366986097
 20
237.28942074595221
 30
0.0
  0
VERTEX
  5
2719F
  8
0
 10
692.70810294703961
 20
237.81343871987201
 30
0.0
  0
VERTEX
  5
271A0
  8
0
 10
692.95526519305008
 20
238.3281276949138
 30
0.0
  0
VERTEX
  5
271A1
  8
0
 10
693.08129237666935
 20
238.5818951677729
 30
0.0
  0
VERTEX
  5
271A2
  8
0
 10
693.20892984052989
 20
238.83323660242289
 30
0.0
  0
VERTEX
  5
271A3
  8
0
 10
693.46897315020215
 20
239.32851904696551
 30
0.0
  0
VERTEX
  5
271A4
  8
0
 10
693.73526827123692
 20
239.81373342652111
 30
0.0
  0
VERTEX
  5
271A5
  8
0
 10
694.00768530312939
 20
240.28864305033679
 30
0.0
  0
VERTEX
  5
271A6
  8
0
 10
694.28609135906754
 20
240.75301625438621
 30
0.0
  0
VERTEX
  5
271A7
  8
0
 10
694.57035063075284
 20
241.20662651437939
 30
0.0
  0
VERTEX
  5
271A8
  8
0
 10
694.71463199983862
 20
241.4293261841554
 30
0.0
  0
VERTEX
  5
271A9
  8
0
 10
694.86032445465059
 20
241.6492525562594
 30
0.0
  0
VERTEX
  5
271AA
  8
0
 10
695.15587137963018
 20
242.0806784641436
 30
0.0
  0
VERTEX
  5
271AB
  8
0
 10
695.45684723596526
 20
242.5006937856474
 30
0.0
  0
VERTEX
  5
271AC
  8
0
 10
695.76310520566153
 20
242.90909363454651
 30
0.0
  0
VERTEX
  5
271AD
  8
0
 10
696.07449589407508
 20
243.3056787907185
 30
0.0
  0
VERTEX
  5
271AE
  8
0
 10
696.39086740278844
 20
243.6902557973267
 30
0.0
  0
VERTEX
  5
271AF
  8
0
 10
696.55087283008663
 20
243.8779823884629
 30
0.0
  0
VERTEX
  5
271B0
  8
0
 10
696.7120654037069
 20
244.06263705518771
 30
0.0
  0
VERTEX
  5
271B1
  8
0
 10
697.03793321434159
 20
244.4226409142843
 30
0.0
  0
VERTEX
  5
271B2
  8
0
 10
697.36831187423979
 20
244.7700917623765
 30
0.0
  0
VERTEX
  5
271B3
  8
0
 10
697.53514249370085
 20
244.93905660056731
 30
0.0
  0
SEQEND
  5
271B4
  8
0
  0
POLYLINE
  5
1B619
  8
0
 66
     1
 10
0.0
 20
0.0
 30
0.0
  0
VERTEX
  5
271B5
  8
0
 10
694.96289148241192
 20
237.02399309110609
 30
0.0
  0
VERTEX
  5
271B6
  8
0
 10
694.82698796698742
 20
236.77719655845701
 30
0.0
  0
VERTEX
  5
271B7
  8
0
 10
694.54963237116135
 20
236.3006083806508
 30
0.0
  0
VERTEX
  5
271B8
  8
0
 10
694.26862773722553
 20
235.8481503167705
 30
0.0
  0
VERTEX
  5
271B9
  8
0
 10
694.12810143091281
 20
235.6315006956425
 30
0.0
  0
VERTEX
  5
271BA
  8
0
 10
693.98824118344305
 20
235.42151021972859
 30
0.0
  0
VERTEX
  5
271BB
  8
0
 10
693.71243763477719
 20
235.02226248399941
 30
0.0
  0
VERTEX
  5
271BC
  8
0
 10
693.43823093830531
 20
234.64285534758849
 30
0.0
  0
VERTEX
  5
271BD
  8
0
 10
693.16314080037216
 20
234.2780695419074
 30
0.0
  0
VERTEX
  5
271BE
  8
0
 10
692.89070962019116
 20
233.93140311093339
 30
0.0
  0
VERTEX
  5
271BF
  8
0
 10
692.62435488778794
 20
233.60607351254839
 30
0.0
  0
VERTEX
  5
271C0
  8
0
 10
692.49447416065448
 20
233.4523378733725
 30
0.0
  0
VERTEX
  5
271C1
  8
0
 10
692.36731210723269
 20
233.3050211452437
 30
0.0
  0
VERTEX
  5
271C2
  8
0
 10
692.12262597953043
 20
233.03095006342571
 30
0.0
  0
VERTEX
  5
271C3
  8
0
 10
691.89307606728971
 20
232.78627518961869
 30
0.0
  0
VERTEX
  5
271C4
  8
0
 10
691.68099404697
 20
232.5729636730421
 30
0.0
  0
VERTEX
  5
271C5
  8
0
 10
691.48853874302665
 20
232.3928441650678
 30
0.0
  0
VERTEX
  5
271C6
  8
0
 10
691.31757809429814
 20
232.24745845802269
 30
0.0
  0
VERTEX
  5
271C7
  8
0
 10
691.24062428811021
 20
232.18815446412191
 30
0.0
  0
VERTEX
  5
271C8
  8
0
 10
691.2283665873947
 20
232.17914938394051
 30
0.0
  0
VERTEX
  5
271C9
  8
0
 10
691.20434324352391
 20
232.16189613248619
 30
0.0
  0
VERTEX
  5
271CA
  8
0
 10
691.18097952727965
 20
232.1456543546378
 30
0.0
  0
VERTEX
  5
271CB
  8
0
 10
691.1695462869011
 20
232.13791353626269
 30
0.0
  0
VERTEX
  5
271CC
  8
0
 10
691.15827942154851
 20
232.130426463611
 30
0.0
  0
VERTEX
  5
271CD
  8
0
 10
691.13624657948515
 20
232.1162145142703
 30
0.0
  0
VERTEX
  5
271CE
  8
0
 10
691.11488431220823
 20
232.10302018821679
 30
0.0
  0
VERTEX
  5
271CF
  8
0
 10
691.0941955774407
 20
232.090844780233
 30
0.0
  0
VERTEX
  5
271D0
  8
0
 10
691.07418296913727
 20
232.07968918614139
 30
0.0
  0
VERTEX
  5
271D1
  8
0
 10
691.05484870813609
 20
232.06955389211501
 30
0.0
  0
VERTEX
  5
271D2
  8
0
 10
691.04543654780014
 20
232.06486889524919
 30
0.0
  0
VERTEX
  5
271D3
  8
0
 10
691.0361946338727
 20
232.06043896548999
 30
0.0
  0
VERTEX
  5
271D4
  8
0
 10
691.01822219719122
 20
232.05234404712971
 30
0.0
  0
VERTEX
  5
271D5
  8
0
 10
691.00093245428491
 20
232.04526834537461
 30
0.0
  0
VERTEX
  5
271D6
  8
0
 10
690.98432606179915
 20
232.0392106316344
 30
0.0
  0
VERTEX
  5
271D7
  8
0
 10
690.96840327312509
 20
232.03416923765829
 30
0.0
  0
VERTEX
  5
271D8
  8
0
 10
690.95316393590929
 20
232.0301420545261
 30
0.0
  0
VERTEX
  5
271D9
  8
0
 10
690.94580040270921
 20
232.02850801264279
 30
0.0
  0
VERTEX
  5
271DA
  8
0
 10
690.93860749080682
 20
232.02712653340589
 30
0.0
  0
VERTEX
  5
271DB
  8
0
 10
690.92473297149809
 20
232.02511968811311
 30
0.0
  0
VERTEX
  5
271DC
  8
0
 10
690.91153900598806
 20
232.02411809950951
 30
0.0
  0
VERTEX
  5
271DD
  8
0
 10
690.90519669184505
 20
232.02399309110609
 30
0.0
  0
SEQEND
  5
271DE
  8
0
  0
POLYLINE
  5
1B61A
  8
0
 66
     1
 10
0.0
 20
0.0
 30
0.0
  0
VERTEX
  5
271DF
  8
0
 10
688.89138692257643
 20
232.02399309110609
 30
0.0
  0
VERTEX
  5
271E0
  8
0
 10
688.92658297118351
 20
232.02834606941181
 30
0.0
  0
VERTEX
  5
271E1
  8
0
 10
689.01279489618764
 20
232.06350846348909
 30
0.0
  0
VERTEX
  5
271E2
  8
0
 10
689.12006086522115
 20
232.13440617565951
 30
0.0
  0
VERTEX
  5
271E3
  8
0
 10
689.18146697195505
 20
232.1833002071248
 30
0.0
  0
VERTEX
  5
271E4
  8
0
 10
689.24793705702348
 20
232.2411186455756
 30
0.0
  0
VERTEX
  5
271E5
  8
0
 10
689.3955693079107
 20
232.3832455941747
 30
0.0
  0
VERTEX
  5
271E6
  8
0
 10
689.56169503295973
 20
232.5599333680407
 30
0.0
  0
VERTEX
  5
271E7
  8
0
 10
689.74465197275799
 20
232.76988569438339
 30
0.0
  0
VERTEX
  5
271E8
  8
0
 10
689.94250123037273
 20
233.01150230511351
 30
0.0
  0
VERTEX
  5
271E9
  8
0
 10
690.15313131667335
 20
233.2830203115727
 30
0.0
  0
VERTEX
  5
271EA
  8
0
 10
690.26246539546787
 20
233.4293096181955
 30
0.0
  0
VERTEX
  5
271EB
  8
0
 10
690.37403338808952
 20
233.58221277898659
 30
0.0
  0
VERTEX
  5
271EC
  8
0
 10
690.6024648770815
 20
233.90653871208539
 30
0.0
  0
VERTEX
  5
271ED
  8
0
 10
690.83552343932195
 20
234.25319295655891
 30
0.0
  0
VERTEX
  5
271EE
  8
0
 10
691.0701642883422
 20
234.6190610002937
 30
0.0
  0
VERTEX
  5
271EF
  8
0
 10
691.30326058285254
 20
235.00071187681669
 30
0.0
  0
VERTEX
  5
271F0
  8
0
 10
691.53665205897335
 20
235.4032042699323
 30
0.0
  0
VERTEX
  5
271F1
  8
0
 10
691.65452544063919
 20
235.61517848009231
 30
0.0
  0
VERTEX
  5
271F2
  8
0
 10
691.77260516013052
 20
235.8340476479739
 30
0.0
  0
VERTEX
  5
271F3
  8
0
 10
692.00755346676681
 20
236.29160621079109
 30
0.0
  0
VERTEX
  5
271F4
  8
0
 10
692.23773054074115
 20
236.7740517304492
 30
0.0
  0
VERTEX
  5
271F5
  8
0
 10
692.34981444005848
 20
237.02399309110609
 30
0.0
  0
SEQEND
  5
271F6
  8
0
  0
LINE
  5
1B61B
  8
0
 10
688.78514249370085
 20
232.02399309110609
 30
0.0
 11
690.90519669184505
 21
232.02399309110609
 31
0.0
  0
POLYLINE
  5
1B61F
  8
0
 66
     1
 10
0.0
 20
0.0
 30
0.0
  0
VERTEX
  5
271F7
  8
0
 10
705.41662155281449
 20
248.54337409726801
 30
0.0
  0
VERTEX
  5
271F8
  8
0
 10
705.55068900385902
 20
248.66433364251949
 30
0.0
  0
VERTEX
  5
271F9
  8
0
 10
705.81216313332004
 20
248.91341559818741
 30
0.0
  0
VERTEX
  5
271FA
  8
0
 10
706.06447328714762
 20
249.17177605818921
 30
0.0
  0
VERTEX
  5
271FB
  8
0
 10
706.18708856982983
 20
249.3043308976699
 30
0.0
  0
VERTEX
  5
271FC
  8
0
 10
706.30729042630503
 20
249.4390780932504
 30
0.0
  0
VERTEX
  5
271FD
  8
0
 10
706.54029789164736
 20
249.71497311334221
 30
0.0
  0
VERTEX
  5
271FE
  8
0
 10
706.76319181687859
 20
249.99910132227569
 30
0.0
  0
VERTEX
  5
271FF
  8
0
 10
706.97568152482506
 20
250.2910921869161
 30
0.0
  0
VERTEX
  5
27200
  8
0
 10
707.17748990650875
 20
250.59056492039781
 30
0.0
  0
VERTEX
  5
27201
  8
0
 10
707.36835378252738
 20
250.8971289787082
 30
0.0
  0
VERTEX
  5
27202
  8
0
 10
707.45960318105983
 20
251.0529456667891
 30
0.0
  0
VERTEX
  5
27203
  8
0
 10
707.54802424626769
 20
251.2103845700012
 30
0.0
  0
VERTEX
  5
27204
  8
0
 10
707.71626698850571
 20
251.52992317596409
 30
0.0
  0
VERTEX
  5
27205
  8
0
 10
707.87286260297128
 20
251.8553280845731
 30
0.0
  0
VERTEX
  5
27206
  8
0
 10
708.01760687247622
 20
252.18617493352619
 30
0.0
  0
VERTEX
  5
27207
  8
0
 10
708.15031103523563
 20
252.52203226365779
 30
0.0
  0
VERTEX
  5
27208
  8
0
 10
708.27080203103276
 20
252.86246208160631
 30
0.0
  0
VERTEX
  5
27209
  8
0
 10
708.32641785936585
 20
253.03425315429601
 30
0.0
  0
VERTEX
  5
2720A
  8
0
 10
708.37892272690851
 20
253.20702043100479
 30
0.0
  0
VERTEX
  5
2720B
  8
0
 10
708.47453212207802
 20
253.55525797144489
 30
0.0
  0
VERTEX
  5
2720C
  8
0
 10
708.55750553181201
 20
253.90672056446741
 30
0.0
  0
VERTEX
  5
2720D
  8
0
 10
708.59421928003906
 20
254.08351817109181
 30
0.0
  0
SEQEND
  5
2720E
  8
0
  0
LINE
  5
1B626
  8
0
 10
659.27904201361218
 20
341.52399309110621
 30
0.0
 11
673.29124297378974
 21
341.52399309110621
 31
0.0
  0
POLYLINE
  5
1B627
  8
0
 66
     1
 10
0.0
 20
0.0
 30
0.0
  0
VERTEX
  5
2720F
  8
0
 10
656.10696475898385
 20
343.544829175014
 30
0.0
  0
VERTEX
  5
27210
  8
0
 10
656.11477726225553
 20
343.52818943309421
 30
0.0
  0
VERTEX
  5
27211
  8
0
 10
656.13066390958818
 20
343.49503419234452
 30
0.0
  0
VERTEX
  5
27212
  8
0
 10
656.14689794653282
 20
343.46204765574072
 30
0.0
  0
VERTEX
  5
27213
  8
0
 10
656.15514467783544
 20
343.44561878964078
 30
0.0
  0
VERTEX
  5
27214
  8
0
 10
656.16347758183815
 20
343.42923346299182
 30
0.0
  0
VERTEX
  5
27215
  8
0
 10
656.18040098612016
 20
343.3965952347898
 30
0.0
  0
VERTEX
  5
27216
  8
0
 10
656.19766629206345
 20
343.36413657241241
 30
0.0
  0
VERTEX
  5
27217
  8
0
 10
656.21527159462744
 20
343.33186105732329
 30
0.0
  0
VERTEX
  5
27218
  8
0
 10
656.23321495125674
 20
343.29977225077761
 30
0.0
  0
VERTEX
  5
27219
  8
0
 10
656.25149438209485
 20
343.26787369342992
 30
0.0
  0
VERTEX
  5
2721A
  8
0
 10
656.2607594964918
 20
343.2519968589304
 30
0.0
  0
VERTEX
  5
2721B
  8
0
 10
656.27010787020413
 20
343.23616890494208
 30
0.0
  0
VERTEX
  5
2721C
  8
0
 10
656.28905336178605
 20
343.20466138359637
 30
0.0
  0
VERTEX
  5
2721D
  8
0
 10
656.30832876640989
 20
343.17335460590812
 30
0.0
  0
VERTEX
  5
2721E
  8
0
 10
656.37835971593324
 20
343.06541140837447
 30
0.0
  0
VERTEX
  5
2721F
  8
0
 10
656.44151022851645
 20
342.97499007291162
 30
0.0
  0
VERTEX
  5
27220
  8
0
 10
656.50747835344555
 20
342.88660335649001
 30
0.0
  0
VERTEX
  5
27221
  8
0
 10
656.64760268743566
 20
342.71628273825581
 30
0.0
  0
VERTEX
  5
27222
  8
0
 10
656.79817629341665
 20
342.55512588561351
 30
0.0
  0
VERTEX
  5
27223
  8
0
 10
656.95860125353079
 20
342.40377274179349
 30
0.0
  0
VERTEX
  5
27224
  8
0
 10
657.12824053084353
 20
342.26282432014699
 30
0.0
  0
VERTEX
  5
27225
  8
0
 10
657.30642049897415
 20
342.13284031755938
 30
0.0
  0
VERTEX
  5
27226
  8
0
 10
657.39849338439819
 20
342.0721230307613
 30
0.0
  0
VERTEX
  5
27227
  8
0
 10
657.49243361702258
 20
342.01433689193072
 30
0.0
  0
VERTEX
  5
27228
  8
0
 10
657.68554123916635
 20
341.9077846125474
 30
0.0
  0
VERTEX
  5
27229
  8
0
 10
657.88497654777598
 20
341.81360659148322
 30
0.0
  0
VERTEX
  5
2722A
  8
0
 10
658.0899475983955
 20
341.73217680344669
 30
0.0
  0
VERTEX
  5
2722B
  8
0
 10
658.29964046450368
 20
341.66381860075541
 30
0.0
  0
VERTEX
  5
2722C
  8
0
 10
658.51322246956045
 20
341.60880342932342
 30
0.0
  0
VERTEX
  5
2722D
  8
0
 10
658.62120737321175
 20
341.58636984445911
 30
0.0
  0
VERTEX
  5
2722E
  8
0
 10
658.72984549351213
 20
341.56734975076728
 30
0.0
  0
VERTEX
  5
2722F
  8
0
 10
658.94864934061934
 20
341.53962217491022
 30
0.0
  0
VERTEX
  5
27230
  8
0
 10
659.16876515523757
 20
341.52573080612729
 30
0.0
  0
VERTEX
  5
27231
  8
0
 10
659.27904201361218
 20
341.52399309110621
 30
0.0
  0
SEQEND
  5
27232
  8
0
  0
LINE
  5
1B628
  8
0
 10
654.18899878304467
 20
347.65792048371708
 30
0.0
 11
656.10696475898385
 21
343.544829175014
 31
0.0
  0
POLYLINE
  5
1B629
  8
0
 66
     1
 10
0.0
 20
0.0
 30
0.0
  0
VERTEX
  5
27233
  8
0
 10
652.82953710248955
 20
348.52399309110609
 30
0.0
  0
VERTEX
  5
27234
  8
0
 10
652.8428136038209
 20
348.52393433479301
 30
0.0
  0
VERTEX
  5
27235
  8
0
 10
652.87469045652836
 20
348.52331332862008
 30
0.0
  0
VERTEX
  5
27236
  8
0
 10
652.91365916656014
 20
348.5216323929198
 30
0.0
  0
VERTEX
  5
27237
  8
0
 10
652.93578444846764
 20
348.52022552674998
 30
0.0
  0
VERTEX
  5
27238
  8
0
 10
652.95965184031661
 20
348.51833915377068
 30
0.0
  0
VERTEX
  5
27239
  8
0
 10
653.01253184982738
 20
348.51278888719349
 30
0.0
  0
VERTEX
  5
2723A
  8
0
 10
653.07209501972602
 20
348.50425173633897
 30
0.0
  0
VERTEX
  5
2723B
  8
0
 10
653.13806509696178
 20
348.49192036336029
 30
0.0
  0
VERTEX
  5
2723C
  8
0
 10
653.21010301095885
 20
348.47491334712009
 30
0.0
  0
VERTEX
  5
2723D
  8
0
 10
653.28781705973199
 20
348.4522715936364
 30
0.0
  0
VERTEX
  5
2723E
  8
0
 10
653.32866312701867
 20
348.43851534672422
 30
0.0
  0
VERTEX
  5
2723F
  8
0
 10
653.3707528230068
 20
348.42295182668983
 30
0.0
  0
VERTEX
  5
27240
  8
0
 10
653.45838871394903
 20
348.38581013122757
 30
0.0
  0
VERTEX
  5
27241
  8
0
 10
653.55011823531845
 20
348.33957768778242
 30
0.0
  0
VERTEX
  5
27242
  8
0
 10
653.64528541381185
 20
348.28278405571291
 30
0.0
  0
VERTEX
  5
27243
  8
0
 10
653.70209546578212
 20
348.24409222750819
 30
0.0
  0
VERTEX
  5
27244
  8
0
 10
653.71847225129443
 20
348.23221256670649
 30
0.0
  0
VERTEX
  5
27245
  8
0
 10
653.73490616155129
 20
348.21994746602792
 30
0.0
  0
VERTEX
  5
27246
  8
0
 10
653.74314321964414
 20
348.21366693830032
 30
0.0
  0
VERTEX
  5
27247
  8
0
 10
653.75139296115196
 20
348.2072858595493
 30
0.0
  0
VERTEX
  5
27248
  8
0
 10
653.76792828569035
 20
348.19421614133671
 30
0.0
  0
VERTEX
  5
27249
  8
0
 10
653.78450761479371
 20
348.18072612885948
 30
0.0
  0
VERTEX
  5
2724A
  8
0
 10
653.80112623988987
 20
348.16680302634768
 30
0.0
  0
VERTEX
  5
2724B
  8
0
 10
653.81777922621995
 20
348.15243338854589
 30
0.0
  0
VERTEX
  5
2724C
  8
0
 10
653.83446136861676
 20
348.13760308538122
 30
0.0
  0
VERTEX
  5
2724D
  8
0
 10
653.84281166039875
 20
348.1300105730179
 30
0.0
  0
VERTEX
  5
2724E
  8
0
 10
653.85116714058347
 20
348.12229726812848
 30
0.0
  0
VERTEX
  5
2724F
  8
0
 10
653.86789063622984
 20
348.1065003377189
 30
0.0
  0
VERTEX
  5
27250
  8
0
 10
653.88467215474645
 20
348.09014975009183
 30
0.0
  0
VERTEX
  5
27251
  8
0
 10
653.89314532740582
 20
348.08169699291011
 30
0.0
  0
VERTEX
  5
27252
  8
0
 10
653.90167265286982
 20
348.07305236570028
 30
0.0
  0
VERTEX
  5
27253
  8
0
 10
653.91886726912787
 20
348.05518647163763
 30
0.0
  0
VERTEX
  5
27254
  8
0
 10
653.9362103377531
 20
348.03655141058789
 30
0.0
  0
VERTEX
  5
27255
  8
0
 10
653.94492300241041
 20
348.02694587875789
 30
0.0
  0
VERTEX
  5
27256
  8
0
 10
653.95365522913994
 20
348.01714888821789
 30
0.0
  0
VERTEX
  5
27257
  8
0
 10
653.97115454698815
 20
347.99698312724058
 30
0.0
  0
VERTEX
  5
27258
  8
0
 10
653.9886603558366
 20
347.97606098970942
 30
0.0
  0
VERTEX
  5
27259
  8
0
 10
654.00612444205274
 20
347.95439205519642
 30
0.0
  0
VERTEX
  5
2725A
  8
0
 10
654.02349861055291
 20
347.93198864024907
 30
0.0
  0
VERTEX
  5
2725B
  8
0
 10
654.04073501852247
 20
347.90886574194201
 30
0.0
  0
VERTEX
  5
2725C
  8
0
 10
654.04928679823058
 20
347.89703987091838
 30
0.0
  0
VERTEX
  5
2725D
  8
0
 10
654.05778654605251
 20
347.88504088559148
 30
0.0
  0
VERTEX
  5
2725E
  8
0
 10
654.07460758108755
 20
347.8605332893776
 30
0.0
  0
VERTEX
  5
2725F
  8
0
 10
654.09115460148928
 20
347.8353630968486
 30
0.0
  0
VERTEX
  5
27260
  8
0
 10
654.10738233648487
 20
347.80955757474561
 30
0.0
  0
VERTEX
  5
27261
  8
0
 10
654.12324590130652
 20
347.78314890111091
 30
0.0
  0
VERTEX
  5
27262
  8
0
 10
654.13870157355939
 20
347.7561736615184
 30
0.0
  0
VERTEX
  5
27263
  8
0
 10
654.14626323303264
 20
347.74248616493878
 30
0.0
  0
VERTEX
  5
27264
  8
0
 10
654.1537073159576
 20
347.72867262519549
 30
0.0
  0
VERTEX
  5
27265
  8
0
 10
654.16822330625973
 20
347.70069039997912
 30
0.0
  0
VERTEX
  5
27266
  8
0
 10
654.18221246850442
 20
347.67227493889868
 30
0.0
  0
VERTEX
  5
27267
  8
0
 10
654.18899878304467
 20
347.65792048371708
 30
0.0
  0
SEQEND
  5
27268
  8
0
  0
POLYLINE
  5
1B62A
  8
0
 66
     1
 10
0.0
 20
0.0
 30
0.0
  0
VERTEX
  5
27269
  8
0
 10
673.29124297378974
 20
341.52399309110621
 30
0.0
  0
VERTEX
  5
2726A
  8
0
 10
673.40151983216424
 20
341.52573080612729
 30
0.0
  0
VERTEX
  5
2726B
  8
0
 10
673.62163564678247
 20
341.53962217491022
 30
0.0
  0
VERTEX
  5
2726C
  8
0
 10
673.84043949388968
 20
341.56734975076728
 30
0.0
  0
VERTEX
  5
2726D
  8
0
 10
673.94907761419006
 20
341.58636984445911
 30
0.0
  0
VERTEX
  5
2726E
  8
0
 10
674.05706251784125
 20
341.60880342932342
 30
0.0
  0
VERTEX
  5
2726F
  8
0
 10
674.27064452289824
 20
341.66381860075541
 30
0.0
  0
VERTEX
  5
27270
  8
0
 10
674.48033738900631
 20
341.73217680344669
 30
0.0
  0
VERTEX
  5
27271
  8
0
 10
674.68530843962594
 20
341.81360659148322
 30
0.0
  0
VERTEX
  5
27272
  8
0
 10
674.88474374823545
 20
341.9077846125474
 30
0.0
  0
VERTEX
  5
27273
  8
0
 10
675.07785137037934
 20
342.01433689193072
 30
0.0
  0
VERTEX
  5
27274
  8
0
 10
675.17179160300361
 20
342.0721230307613
 30
0.0
  0
VERTEX
  5
27275
  8
0
 10
675.26386448842754
 20
342.13284031755938
 30
0.0
  0
VERTEX
  5
27276
  8
0
 10
675.44204445655828
 20
342.26282432014699
 30
0.0
  0
VERTEX
  5
27277
  8
0
 10
675.61168373387113
 20
342.40377274179349
 30
0.0
  0
VERTEX
  5
27278
  8
0
 10
675.77210869398516
 20
342.55512588561351
 30
0.0
  0
VERTEX
  5
27279
  8
0
 10
675.92268229996614
 20
342.71628273825581
 30
0.0
  0
VERTEX
  5
2727A
  8
0
 10
676.06280663395626
 20
342.88660335649001
 30
0.0
  0
VERTEX
  5
2727B
  8
0
 10
676.12877475888547
 20
342.97499007291162
 30
0.0
  0
VERTEX
  5
2727C
  8
0
 10
676.19192527146868
 20
343.06541140837447
 30
0.0
  0
VERTEX
  5
2727D
  8
0
 10
676.26195622099203
 20
343.17335460590812
 30
0.0
  0
VERTEX
  5
2727E
  8
0
 10
676.28123162561587
 20
343.20466138359637
 30
0.0
  0
VERTEX
  5
2727F
  8
0
 10
676.30017711719768
 20
343.23616890494208
 30
0.0
  0
VERTEX
  5
27280
  8
0
 10
676.30952549091012
 20
343.2519968589304
 30
0.0
  0
VERTEX
  5
27281
  8
0
 10
676.31879060530684
 20
343.26787369342992
 30
0.0
  0
VERTEX
  5
27282
  8
0
 10
676.33707003614506
 20
343.29977225077761
 30
0.0
  0
VERTEX
  5
27283
  8
0
 10
676.35501339277437
 20
343.33186105732329
 30
0.0
  0
VERTEX
  5
27284
  8
0
 10
676.37261869533836
 20
343.36413657241241
 30
0.0
  0
VERTEX
  5
27285
  8
0
 10
676.38988400128164
 20
343.3965952347898
 30
0.0
  0
VERTEX
  5
27286
  8
0
 10
676.40680740556377
 20
343.42923346299182
 30
0.0
  0
VERTEX
  5
27287
  8
0
 10
676.41514030956648
 20
343.44561878964078
 30
0.0
  0
VERTEX
  5
27288
  8
0
 10
676.42338704086899
 20
343.46204765574072
 30
0.0
  0
VERTEX
  5
27289
  8
0
 10
676.43962107781374
 20
343.49503419234452
 30
0.0
  0
VERTEX
  5
2728A
  8
0
 10
676.45550772514639
 20
343.52818943309421
 30
0.0
  0
VERTEX
  5
2728B
  8
0
 10
676.46332022841796
 20
343.544829175014
 30
0.0
  0
SEQEND
  5
2728C
  8
0
  0
LINE
  5
1B62B
  8
0
 10
676.46332022841796
 20
343.544829175014
 30
0.0
 11
678.38128620435725
 21
347.65792048371708
 31
0.0
  0
POLYLINE
  5
1B62C
  8
0
 66
     1
 10
0.0
 20
0.0
 30
0.0
  0
VERTEX
  5
2728D
  8
0
 10
678.38128620435725
 20
347.65792048371708
 30
0.0
  0
VERTEX
  5
2728E
  8
0
 10
678.3880725188975
 20
347.67227493889868
 30
0.0
  0
VERTEX
  5
2728F
  8
0
 10
678.40206168114219
 20
347.70069039997912
 30
0.0
  0
VERTEX
  5
27290
  8
0
 10
678.41657767144432
 20
347.72867262519549
 30
0.0
  0
VERTEX
  5
27291
  8
0
 10
678.42402175436916
 20
347.74248616493878
 30
0.0
  0
VERTEX
  5
27292
  8
0
 10
678.43158341384242
 20
347.75617366151801
 30
0.0
  0
VERTEX
  5
27293
  8
0
 10
678.44703908609529
 20
347.78314890111091
 30
0.0
  0
VERTEX
  5
27294
  8
0
 10
678.46290265091693
 20
347.80955757474561
 30
0.0
  0
VERTEX
  5
27295
  8
0
 10
678.47913038591264
 20
347.8353630968486
 30
0.0
  0
VERTEX
  5
27296
  8
0
 10
678.49567740631426
 20
347.8605332893776
 30
0.0
  0
VERTEX
  5
27297
  8
0
 10
678.51249844134941
 20
347.88504088559148
 30
0.0
  0
VERTEX
  5
27298
  8
0
 10
678.52099818917134
 20
347.89703987091838
 30
0.0
  0
VERTEX
  5
27299
  8
0
 10
678.52954996887934
 20
347.90886574194201
 30
0.0
  0
VERTEX
  5
2729A
  8
0
 10
678.54678637684901
 20
347.93198864024907
 30
0.0
  0
VERTEX
  5
2729B
  8
0
 10
678.56416054534907
 20
347.95439205519642
 30
0.0
  0
VERTEX
  5
2729C
  8
0
 10
678.58162463156532
 20
347.97606098970942
 30
0.0
  0
VERTEX
  5
2729D
  8
0
 10
678.59913044041366
 20
347.99698312724058
 30
0.0
  0
VERTEX
  5
2729E
  8
0
 10
678.61662975826187
 20
348.01714888821789
 30
0.0
  0
VERTEX
  5
2729F
  8
0
 10
678.62536198499151
 20
348.02694587875789
 30
0.0
  0
VERTEX
  5
272A0
  8
0
 10
678.63407464964894
 20
348.03655141058789
 30
0.0
  0
VERTEX
  5
272A1
  8
0
 10
678.65141771827393
 20
348.05518647163763
 30
0.0
  0
VERTEX
  5
272A2
  8
0
 10
678.6686123345321
 20
348.07305236570028
 30
0.0
  0
VERTEX
  5
272A3
  8
0
 10
678.67713965999599
 20
348.08169699291011
 30
0.0
  0
VERTEX
  5
272A4
  8
0
 10
678.68561283265535
 20
348.09014975009183
 30
0.0
  0
VERTEX
  5
272A5
  8
0
 10
678.70239435117185
 20
348.1065003377189
 30
0.0
  0
VERTEX
  5
272A6
  8
0
 10
678.71911784681834
 20
348.12229726812848
 30
0.0
  0
VERTEX
  5
272A7
  8
0
 10
678.72747332700305
 20
348.1300105730179
 30
0.0
  0
VERTEX
  5
272A8
  8
0
 10
678.73582361878505
 20
348.13760308538122
 30
0.0
  0
VERTEX
  5
272A9
  8
0
 10
678.75250576118185
 20
348.15243338854589
 30
0.0
  0
VERTEX
  5
272AA
  8
0
 10
678.76915874751205
 20
348.16680302634768
 30
0.0
  0
VERTEX
  5
272AB
  8
0
 10
678.78577737260821
 20
348.18072612885948
 30
0.0
  0
VERTEX
  5
272AC
  8
0
 10
678.80235670171135
 20
348.19421614133671
 30
0.0
  0
VERTEX
  5
272AD
  8
0
 10
678.81889202624984
 20
348.2072858595493
 30
0.0
  0
VERTEX
  5
272AE
  8
0
 10
678.82714176775767
 20
348.21366693830032
 30
0.0
  0
VERTEX
  5
272AF
  8
0
 10
678.83537882585063
 20
348.21994746602792
 30
0.0
  0
VERTEX
  5
272B0
  8
0
 10
678.85181273610749
 20
348.23221256670649
 30
0.0
  0
VERTEX
  5
272B1
  8
0
 10
678.8681895216198
 20
348.24409222750819
 30
0.0
  0
VERTEX
  5
272B2
  8
0
 10
678.92499957358996
 20
348.28278405571291
 30
0.0
  0
VERTEX
  5
272B3
  8
0
 10
679.02016675208336
 20
348.33957768778242
 30
0.0
  0
VERTEX
  5
272B4
  8
0
 10
679.11189627345288
 20
348.38581013122757
 30
0.0
  0
VERTEX
  5
272B5
  8
0
 10
679.19953216439512
 20
348.42295182668983
 30
0.0
  0
VERTEX
  5
272B6
  8
0
 10
679.24162186038325
 20
348.43851534672422
 30
0.0
  0
VERTEX
  5
272B7
  8
0
 10
679.28246792767004
 20
348.4522715936364
 30
0.0
  0
VERTEX
  5
272B8
  8
0
 10
679.36018197644307
 20
348.47491334712009
 30
0.0
  0
VERTEX
  5
272B9
  8
0
 10
679.43221989044014
 20
348.49192036336029
 30
0.0
  0
VERTEX
  5
272BA
  8
0
 10
679.49818996767578
 20
348.50425173633897
 30
0.0
  0
VERTEX
  5
272BB
  8
0
 10
679.55775313757442
 20
348.51278888719349
 30
0.0
  0
VERTEX
  5
272BC
  8
0
 10
679.61063314708531
 20
348.51833915377068
 30
0.0
  0
VERTEX
  5
272BD
  8
0
 10
679.63450053893405
 20
348.52022552674998
 30
0.0
  0
VERTEX
  5
272BE
  8
0
 10
679.65662582084167
 20
348.5216323929198
 30
0.0
  0
VERTEX
  5
272BF
  8
0
 10
679.69559453087345
 20
348.52331332862008
 30
0.0
  0
VERTEX
  5
272C0
  8
0
 10
679.72747138358102
 20
348.52393433479301
 30
0.0
  0
VERTEX
  5
272C1
  8
0
 10
679.74074788491225
 20
348.52399309110609
 30
0.0
  0
SEQEND
  5
272C2
  8
0
  0
LINE
  5
1B62D
  8
0
 10
623.78514249370096
 20
350.52399309110621
 30
0.0
 11
708.78514249370085
 21
350.52399309110621
 31
0.0
  0
LINE
  5
1B6B9
  8
0
 10
668.78514249370085
 20
318.52399309110621
 30
0.0
 11
663.78514249370085
 21
318.52399309110621
 31
0.0
  0
LINE
  5
1B6BA
  8
0
 10
663.78514249370085
 20
168.52399309110609
 30
0.0
 11
668.78514249370085
 21
168.52399309110609
 31
0.0
  0
ARC
  5
1B6BB
  8
0
 10
668.78514249370085
 20
168.77399309110609
 30
0.0
 40
0.25
 50
270.0
 51
0.0
  0
ARC
  5
1B6BC
  8
0
 10
668.78514249370085
 20
318.27399309110621
 30
0.0
 40
0.2499999999999951
 50
0.0
 51
90.0
  0
LINE
  5
1B6BD
  8
0
 10
671.03514249370085
 20
318.27399309110621
 30
0.0
 11
669.03514249370085
 21
318.27399309110621
 31
0.0
  0
LINE
  5
1B6BE
  8
0
 10
669.03514249370085
 20
168.77399309110609
 30
0.0
 11
671.03514249370085
 21
168.77399309110609
 31
0.0
  0
ARC
  5
1B6BF
  8
0
 10
671.28514249370085
 20
168.77399309110609
 30
0.0
 40
0.2499999999999956
 50
180.0
 51
270.0
  0
ARC
  5
1B6C0
  8
0
 10
671.28514249370085
 20
318.27399309110621
 30
0.0
 40
0.25
 50
90.0
 51
180.0
  0
LINE
  5
1B6C1
  8
0
 10
675.36090320509675
 20
318.52399309110621
 30
0.0
 11
671.28514249370085
 21
318.52399309110621
 31
0.0
  0
LINE
  5
1B6C2
  8
0
 10
671.28514249370085
 20
168.52399309110609
 30
0.0
 11
675.36090320509675
 21
168.52399309110609
 31
0.0
  0
ARC
  5
1B6C3
  8
0
 10
675.36090320509675
 20
169.35732642443961
 30
0.0
 40
0.8333333333333001
 50
270.0
 51
341.00000000001199
  0
ARC
  5
1B6C4
  8
0
 10
675.36090320509675
 20
317.69065975777312
 30
0.0
 40
0.8333333333332944
 50
18.99999999998807
 51
90.0
  0
LINE
  5
1B6C5
  8
0
 10
678.31735806668758
 20
311.66411929501459
 30
0.0
 11
676.14883535142963
 21
317.96196655315413
 31
0.0
  0
LINE
  5
1B6C6
  8
0
 10
676.14883535142963
 20
169.08601962905871
 30
0.0
 11
678.31735806668758
 21
175.38386688719811
 31
0.0
  0
ARC
  5
1B6C7
  8
0
 10
675.95356162768894
 20
176.19778727334091
 30
0.0
 40
2.5000000000003242
 50
341.00000000001199
 51
0.0000008537736463
  0
ARC
  5
1B6C8
  8
0
 10
675.95356162768894
 20
310.85019890887139
 30
0.0
 40
2.5000000000003122
 50
0.0000008537736463
 51
18.99999999998807
  0
ARC
  5
1B6C9
  8
0
 10
679.12022829435591
 20
177.7155713357547
 30
0.0
 40
0.6666666666666661
 50
180.0
 51
0.0
  0
ARC
  5
1B6CA
  8
0
 10
679.12022829435591
 20
309.33241484645811
 30
0.0
 40
0.6666666666666661
 50
0.0
 51
180.0
  0
ARC
  5
1B6CB
  8
0
 10
680.45356162768928
 20
181.5878525059893
 30
0.0
 40
0.6666666666666661
 50
180.0
 51
0.0
  0
ARC
  5
1B6CC
  8
0
 10
680.45356162768928
 20
305.46013367622339
 30
0.0
 40
0.6666666666666661
 50
0.0
 51
180.0
  0
LINE
  5
1B6CD
  8
0
 10
686.14893893269925
 20
288.91955695454538
 30
0.0
 11
681.12022829435591
 21
303.52399309110609
 31
0.0
  0
LINE
  5
1B6CE
  8
0
 10
681.12022829435591
 20
183.52399309110609
 30
0.0
 11
686.14893893269925
 21
198.1284292276668
 31
0.0
  0
ARC
  5
1B6CF
  8
0
 10
683.78514249370085
 20
198.94234961380971
 30
0.0
 40
2.500000000000131
 50
341.00000000001199
 51
0.0
  0
ARC
  5
1B6D0
  8
0
 10
683.78514249370073
 20
288.10563656840259
 30
0.0
 40
2.5000000000002158
 50
0.0
 51
18.99999999998807
  0
ARC
  5
1B6D1
  8
0
 10
648.78514249370085
 20
198.94234961380971
 30
0.0
 40
2.4999999999998819
 50
180.0
 51
198.99999999998809
  0
ARC
  5
1B6D2
  8
0
 10
648.78514249370085
 20
288.10563656840259
 30
0.0
 40
2.4999999999998881
 50
160.9999999999844
 51
180.0
  0
LINE
  5
1B6D3
  8
0
 10
651.45005669304589
 20
303.52399309110609
 30
0.0
 11
646.42134605470267
 21
288.91955695454538
 31
0.0
  0
LINE
  5
1B6D4
  8
0
 10
646.42134605470267
 20
198.1284292276668
 30
0.0
 11
651.45005669304589
 21
183.52399309110609
 31
0.0
  0
ARC
  5
1B6D5
  8
0
 10
652.11672335971264
 20
181.58785250598879
 30
0.0
 40
0.6666666666666661
 50
180.0
 51
0.0
  0
ARC
  5
1B6D6
  8
0
 10
652.11672335971264
 20
305.46013367622339
 30
0.0
 40
0.6666666666666661
 50
0.0
 51
180.0
  0
ARC
  5
1B6D7
  8
0
 10
653.45005669304601
 20
177.7155713357547
 30
0.0
 40
0.6666666666666679
 50
180.0
 51
0.0
  0
ARC
  5
1B6D8
  8
0
 10
653.45005669304601
 20
309.33241484645811
 30
0.0
 40
0.6666666666666679
 50
0.0
 51
180.0
  0
ARC
  5
1B6D9
  8
0
 10
656.61672335971298
 20
176.19778727334091
 30
0.0
 40
2.5000000000004441
 50
180.0
 51
198.99999999998809
  0
ARC
  5
1B6DA
  8
0
 10
656.61672335971275
 20
310.85019890887139
 30
0.0
 40
2.5000000000002771
 50
161.00000000001191
 51
180.0
  0
LINE
  5
1B6DB
  8
0
 10
656.42144963597218
 20
317.96196655315413
 30
0.0
 11
654.25292692071434
 21
311.66411929501459
 31
0.0
  0
LINE
  5
1B6DC
  8
0
 10
654.25292692071434
 20
175.38386688719811
 30
0.0
 11
656.42144963597218
 21
169.08601962905871
 31
0.0
  0
ARC
  5
1B6DD
  8
0
 10
657.20938178230506
 20
169.35732642443961
 30
0.0
 40
0.8333333333333454
 50
198.99999999998809
 51
270.0
  0
ARC
  5
1B6DE
  8
0
 10
657.20938178230506
 20
317.69065975777312
 30
0.0
 40
0.8333333333333428
 50
90.0
 51
160.9999999999844
  0
LINE
  5
1B6DF
  8
0
 10
661.28514249370096
 20
318.52399309110621
 30
0.0
 11
657.20938178230494
 21
318.52399309110621
 31
0.0
  0
LINE
  5
1B6E0
  8
0
 10
657.20938178230494
 20
168.52399309110609
 30
0.0
 11
661.28514249370096
 21
168.52399309110609
 31
0.0
  0
ARC
  5
1B6E1
  8
0
 10
661.28514249370096
 20
168.77399309110609
 30
0.0
 40
0.25
 50
270.0
 51
0.0
  0
ARC
  5
1B6E2
  8
0
 10
661.28514249370096
 20
318.27399309110621
 30
0.0
 40
0.2499999999999956
 50
0.0
 51
90.0
  0
LINE
  5
1B6E3
  8
0
 10
663.53514249370096
 20
318.27399309110621
 30
0.0
 11
661.53514249370085
 21
318.27399309110621
 31
0.0
  0
LINE
  5
1B6E4
  8
0
 10
661.53514249370085
 20
168.77399309110609
 30
0.0
 11
663.53514249370096
 21
168.77399309110609
 31
0.0
  0
ARC
  5
1B6E5
  8
0
 10
663.78514249370085
 20
168.77399309110609
 30
0.0
 40
0.2499999999999978
 50
180.0
 51
270.0
  0
ARC
  5
1B6E6
  8
0
 10
663.78514249370085
 20
318.27399309110621
 30
0.0
 40
0.25
 50
90.0
 51
180.0
  0
LINE
  5
1B6E8
  8
0
 10
669.03514249370085
 20
168.77399309110609
 30
0.0
 11
669.03514249370085
 21
318.27399309110621
 31
0.0
  0
LINE
  5
1B6E9
  8
0
 10
671.03514249370085
 20
168.77399309110609
 30
0.0
 11
671.03514249370085
 21
318.27399309110621
 31
0.0
  0
LINE
  5
1B6EE
  8
0
 10
678.45356162768917
 20
176.19778727334091
 30
0.0
 11
678.45356162768917
 21
310.85019890887139
 31
0.0
  0
LINE
  5
1B6EF
  8
0
 10
679.78689496102265
 20
177.7155713357547
 30
0.0
 11
679.78689496102265
 21
309.33241484645811
 31
0.0
  0
LINE
  5
1B6F0
  8
0
 10
681.12022829435591
 20
181.5878525059893
 30
0.0
 11
681.12022829435591
 21
305.46013367622339
 31
0.0
  0
LINE
  5
1B6F2
  8
0
 10
686.28514249370096
 20
198.94234961380971
 30
0.0
 11
686.28514249370096
 21
288.10563656840259
 31
0.0
  0
LINE
  5
1B6F4
  8
0
 10
651.45005669304589
 20
181.5878525059893
 30
0.0
 11
651.45005669304589
 21
305.46013367622339
 31
0.0
  0
LINE
  5
1B6F5
  8
0
 10
652.78339002637915
 20
177.7155713357547
 30
0.0
 11
652.78339002637915
 21
309.33241484645811
 31
0.0
  0
LINE
  5
1B6F6
  8
0
 10
654.11672335971264
 20
176.19778727334091
 30
0.0
 11
654.11672335971264
 21
310.85019890887139
 31
0.0
  0
LINE
  5
1B6FB
  8
0
 10
661.53514249370085
 20
168.77399309110609
 30
0.0
 11
661.53514249370085
 21
318.27399309110621
 31
0.0
  0
LINE
  5
1B6FD
  8
0
 10
663.53514249370096
 20
168.77399309110609
 30
0.0
 11
663.53514249370096
 21
318.27399309110621
 31
0.0
  0
LINE
  5
1B6FE
  8
0
 10
646.28514249370085
 20
198.94234961380971
 30
0.0
 11
646.28514249370085
 21
288.10563656840259
 31
0.0
  0
LINE
  5
1B704
  8
0
 10
400.97595475864028
 20
239.9107426564278
 30
0.0
 11
407.23428809197372
 21
236.29749222174951
 31
0.0
  0
LINE
  5
1B705
  8
0
 10
407.23428809197372
 20
236.29749222174951
 30
0.0
 11
413.49262142530688
 21
239.9107426564278
 31
0.0
  0
LINE
  5
1B706
  8
0
 10
413.49262142530688
 20
239.9107426564278
 30
0.0
 11
413.49262142530688
 21
247.1372435257845
 31
0.0
  0
LINE
  5
1B707
  8
0
 10
407.23428809197372
 20
250.75049396046279
 30
0.0
 11
400.97595475864028
 21
247.1372435257845
 31
0.0
  0
LINE
  5
1B708
  8
0
 10
413.49262142530688
 20
247.1372435257845
 30
0.0
 11
407.23428809197372
 21
250.75049396046279
 31
0.0
  0
LINE
  5
1B709
  8
0
 10
400.97595475864028
 20
247.1372435257845
 30
0.0
 11
400.97595475864028
 21
239.9107426564278
 31
0.0
  0
CIRCLE
  5
1B70B
  8
0
 10
407.23428809197372
 20
243.52399309110621
 30
0.0
 40
6.2583333333333391
  0
LINE
  5
1B73F
  8
0
 10
457.23428809197372
 20
350.52399309110621
 30
0.0
 11
457.23428809197372
 21
348.52399309110609
 31
0.0
  0
LINE
  5
1B740
  8
0
 10
452.54517722442898
 20
350.52399309110621
 30
0.0
 11
452.54517722442898
 21
348.30812451634438
 31
0.0
  0
LINE
  5
1B742
  8
0
 10
429.98984159143879
 20
350.52399309110621
 30
0.0
 11
429.98984159143879
 21
247.1288299068697
 31
0.0
  0
LINE
  5
1B743
  8
0
 10
426.95875267819321
 20
350.52399309110621
 30
0.0
 11
426.95875267819321
 21
241.9390566005672
 31
0.0
  0
LINE
  5
1B746
  8
0
 10
387.50982350575413
 20
350.52399309110621
 30
0.0
 11
387.50982350575413
 21
241.9390566005672
 31
0.0
  0
LINE
  5
1B747
  8
0
 10
384.4787345925086
 20
350.52399309110621
 30
0.0
 11
384.4787345925086
 21
247.1288299068697
 31
0.0
  0
LINE
  5
1B749
  8
0
 10
361.92339895951829
 20
350.52399309110621
 30
0.0
 11
361.92339895951829
 21
348.30812451634438
 31
0.0
  0
LINE
  5
1B74A
  8
0
 10
357.23428809197372
 20
350.52399309110621
 30
0.0
 11
357.23428809197372
 21
348.52399309110609
 31
0.0
  0
LINE
  5
1B74B
  8
0
 10
357.23428809197372
 20
348.52399309110609
 30
0.0
 11
361.92339895951829
 21
348.52399309110609
 31
0.0
  0
LINE
  5
1B74C
  8
0
 10
452.54517722442898
 20
348.52399309110609
 30
0.0
 11
457.23428809197372
 21
348.52399309110609
 31
0.0
  0
LINE
  5
1B74D
  8
0
 10
442.31378001628491
 20
331.23724601866161
 30
0.0
 11
451.71693782278408
 21
347.52399309110621
 31
0.0
  0
ARC
  5
1B74E
  8
0
 10
459.63428809197342
 20
321.23724601866161
 30
0.0
 40
19.999999999999719
 50
149.99999999999989
 51
180.0
  0
LINE
  5
1B74F
  8
0
 10
439.63428809197359
 20
261.15458598295709
 30
0.0
 11
439.63428809197359
 21
321.23724601866161
 31
0.0
  0
POLYLINE
  5
1B750
  8
0
 66
     1
 10
0.0
 20
0.0
 30
0.0
  0
VERTEX
  5
272C3
  8
0
 10
436.70535590383901
 20
254.0835181710913
 30
0.0
  0
VERTEX
  5
272C4
  8
0
 10
436.76894310371478
 20
254.1476823969615
 30
0.0
  0
VERTEX
  5
272C5
  8
0
 10
436.89496944560818
 20
254.27835836303441
 30
0.0
  0
VERTEX
  5
272C6
  8
0
 10
437.01935359444292
 20
254.4121229668003
 30
0.0
  0
VERTEX
  5
272C7
  8
0
 10
437.08088858201393
 20
254.48014659513319
 30
0.0
  0
VERTEX
  5
272C8
  8
0
 10
437.14196385030328
 20
254.5489213905189
 30
0.0
  0
VERTEX
  5
272C9
  8
0
 10
437.26267148253743
 20
254.6886934036938
 30
0.0
  0
VERTEX
  5
272CA
  8
0
 10
437.38135135408248
 20
254.83137391843769
 30
0.0
  0
VERTEX
  5
272CB
  8
0
 10
437.4978824572525
 20
254.97689356115779
 30
0.0
  0
VERTEX
  5
272CC
  8
0
 10
437.61214836616318
 20
255.12517925878359
 30
0.0
  0
VERTEX
  5
272CD
  8
0
 10
437.7240376109313
 20
255.2761548384656
 30
0.0
  0
VERTEX
  5
272CE
  8
0
 10
437.77905758055221
 20
255.352626832987
 30
0.0
  0
VERTEX
  5
272CF
  8
0
 10
437.8334439785458
 20
255.4297416402965
 30
0.0
  0
VERTEX
  5
272D0
  8
0
 10
437.94026691849689
 20
255.58585940200959
 30
0.0
  0
VERTEX
  5
272D1
  8
0
 10
438.04441208311272
 20
255.74442753299761
 30
0.0
  0
VERTEX
  5
272D2
  8
0
 10
438.14578715645621
 20
255.90535902317379
 30
0.0
  0
VERTEX
  5
272D3
  8
0
 10
438.24430336775168
 20
256.06856229535288
 30
0.0
  0
VERTEX
  5
272D4
  8
0
 10
438.33987629190369
 20
256.23394231639901
 30
0.0
  0
VERTEX
  5
272D5
  8
0
 10
438.38653389853289
 20
256.31741807791559
 30
0.0
  0
VERTEX
  5
272D6
  8
0
 10
438.43242613715921
 20
256.40140105726141
 30
0.0
  0
VERTEX
  5
272D7
  8
0
 10
438.52187798427087
 20
256.57083796344978
 30
0.0
  0
VERTEX
  5
272D8
  8
0
 10
438.60816198057751
 20
256.74215043878939
 30
0.0
  0
VERTEX
  5
272D9
  8
0
 10
438.65009562928321
 20
256.82847751804411
 30
0.0
  0
SEQEND
  5
272DA
  8
0
  0
ARC
  5
1B751
  8
0
 10
429.63428809197342
 20
261.15458598295709
 30
0.0
 40
10.00000000000019
 50
334.36663451367389
 51
0.0
  0
LINE
  5
1B752
  8
0
 10
431.16521183001549
 20
248.54337409726801
 30
0.0
 11
436.70535590383912
 21
254.0835181710913
 31
0.0
  0
POLYLINE
  5
1B753
  8
0
 66
     1
 10
0.0
 20
0.0
 30
0.0
  0
VERTEX
  5
272DB
  8
0
 10
429.5760256040366
 20
246.47230628540231
 30
0.0
  0
VERTEX
  5
272DC
  8
0
 10
429.64143635701589
 20
246.58392725223939
 30
0.0
  0
VERTEX
  5
272DD
  8
0
 10
429.77656243866318
 20
246.80458392648421
 30
0.0
  0
VERTEX
  5
272DE
  8
0
 10
429.91735216780768
 20
247.0216707247873
 30
0.0
  0
VERTEX
  5
272DF
  8
0
 10
429.98984159143879
 20
247.1288299068697
 30
0.0
  0
SEQEND
  5
272E0
  8
0
  0
POLYLINE
  5
1B754
  8
0
 66
     1
 10
0.0
 20
0.0
 30
0.0
  0
VERTEX
  5
272E1
  8
0
 10
429.98984159143879
 20
247.1288299068697
 30
0.0
  0
VERTEX
  5
272E2
  8
0
 10
430.15825467798481
 20
247.36683872510179
 30
0.0
  0
VERTEX
  5
272E3
  8
0
 10
430.52827648625191
 20
247.8430744771367
 30
0.0
  0
VERTEX
  5
272E4
  8
0
 10
430.94215879013029
 20
248.3130519318984
 30
0.0
  0
VERTEX
  5
272E5
  8
0
 10
431.16521183001549
 20
248.54337409726801
 30
0.0
  0
SEQEND
  5
272E6
  8
0
  0
LINE
  5
1B755
  8
0
 10
424.1210394379217
 20
237.02399309110609
 30
0.0
 11
429.5760256040366
 21
246.47230628540231
 31
0.0
  0
POLYLINE
  5
1B756
  8
0
 66
     1
 10
0.0
 20
0.0
 30
0.0
  0
VERTEX
  5
272E7
  8
0
 10
415.46078540007733
 20
232.02399309110609
 30
0.0
  0
VERTEX
  5
272E8
  8
0
 10
415.51078692444401
 20
232.02411809950951
 30
0.0
  0
VERTEX
  5
272E9
  8
0
 10
415.61088760163398
 20
232.02511968811271
 30
0.0
  0
VERTEX
  5
272EA
  8
0
 10
415.71110325307711
 20
232.02712653340589
 30
0.0
  0
VERTEX
  5
272EB
  8
0
 10
415.76124845307589
 20
232.02850801264279
 30
0.0
  0
VERTEX
  5
272EC
  8
0
 10
415.81141548812292
 20
232.0301420545257
 30
0.0
  0
VERTEX
  5
272ED
  8
0
 10
415.9118057733217
 20
232.03416923765829
 30
0.0
  0
VERTEX
  5
272EE
  8
0
 10
416.01225546909973
 20
232.0392106316344
 30
0.0
  0
VERTEX
  5
272EF
  8
0
 10
416.11274586584523
 20
232.04526834537461
 30
0.0
  0
VERTEX
  5
272F0
  8
0
 10
416.2132582193621
 20
232.05234404712971
 30
0.0
  0
VERTEX
  5
272F1
  8
0
 10
416.31377378564781
 20
232.06043896548999
 30
0.0
  0
VERTEX
  5
272F2
  8
0
 10
416.36402692452828
 20
232.06486889524919
 30
0.0
  0
VERTEX
  5
272F3
  8
0
 10
416.41427385495422
 20
232.0695538921145
 30
0.0
  0
VERTEX
  5
272F4
  8
0
 10
416.51473978509779
 20
232.07968918614139
 30
0.0
  0
VERTEX
  5
272F5
  8
0
 10
416.61515303397829
 20
232.090844780233
 30
0.0
  0
VERTEX
  5
272F6
  8
0
 10
416.71549519127677
 20
232.10302018821679
 30
0.0
  0
VERTEX
  5
272F7
  8
0
 10
416.81574800930031
 20
232.1162145142703
 30
0.0
  0
VERTEX
  5
272F8
  8
0
 10
416.91589343294362
 20
232.130426463611
 30
0.0
  0
VERTEX
  5
272F9
  8
0
 10
416.96592028948203
 20
232.13791353626269
 30
0.0
  0
VERTEX
  5
272FA
  8
0
 10
417.0159136287424
 20
232.1456543546378
 30
0.0
  0
VERTEX
  5
272FB
  8
0
 10
417.11579101299151
 20
232.16189613248619
 30
0.0
  0
VERTEX
  5
272FC
  8
0
 10
417.21550827890468
 20
232.17914938394051
 30
0.0
  0
VERTEX
  5
272FD
  8
0
 10
417.26530154129802
 20
232.18815446412191
 30
0.0
  0
VERTEX
  5
272FE
  8
0
 10
417.56301530380188
 20
232.24745845802229
 30
0.0
  0
VERTEX
  5
272FF
  8
0
 10
418.15169052000812
 20
232.3928441650678
 30
0.0
  0
VERTEX
  5
27300
  8
0
 10
418.7285128885448
 20
232.5729636730421
 30
0.0
  0
VERTEX
  5
27301
  8
0
 10
419.29021981948381
 20
232.78627518961869
 30
0.0
  0
VERTEX
  5
27302
  8
0
 10
419.83401956969232
 20
233.03095006342571
 30
0.0
  0
VERTEX
  5
27303
  8
0
 10
420.3576750462982
 20
233.3050211452437
 30
0.0
  0
VERTEX
  5
27304
  8
0
 10
420.61119575540829
 20
233.4523378733725
 30
0.0
  0
VERTEX
  5
27305
  8
0
 10
420.85880633083838
 20
233.60607351254839
 30
0.0
  0
VERTEX
  5
27306
  8
0
 10
421.3353055858293
 20
233.93140311093339
 30
0.0
  0
VERTEX
  5
27307
  8
0
 10
421.78539355947862
 20
234.2780695419074
 30
0.0
  0
VERTEX
  5
27308
  8
0
 10
422.20754800233482
 20
234.64285534758849
 30
0.0
  0
VERTEX
  5
27309
  8
0
 10
422.60051708309641
 20
235.02226248399941
 30
0.0
  0
VERTEX
  5
2730A
  8
0
 10
422.97125941528878
 20
235.42151021972859
 30
0.0
  0
VERTEX
  5
2730B
  8
0
 10
423.15078156223097
 20
235.6315006956425
 30
0.0
  0
VERTEX
  5
2730C
  8
0
 10
423.32583250907072
 20
235.8481503167705
 30
0.0
  0
VERTEX
  5
2730D
  8
0
 10
423.660960243099
 20
236.3006083806504
 30
0.0
  0
VERTEX
  5
2730E
  8
0
 10
423.97378288304321
 20
236.77719655845701
 30
0.0
  0
VERTEX
  5
2730F
  8
0
 10
424.1210394379217
 20
237.02399309110609
 30
0.0
  0
SEQEND
  5
27310
  8
0
  0
LINE
  5
1B757
  8
0
 10
399.00779078386989
 20
232.02399309110609
 30
0.0
 11
415.46078540007733
 21
232.02399309110609
 31
0.0
  0
POLYLINE
  5
1B758
  8
0
 66
     1
 10
0.0
 20
0.0
 30
0.0
  0
VERTEX
  5
27311
  8
0
 10
390.34753674602553
 20
237.02399309110609
 30
0.0
  0
VERTEX
  5
27312
  8
0
 10
390.4946329696977
 20
236.77745670688091
 30
0.0
  0
VERTEX
  5
27313
  8
0
 10
390.8072824875037
 20
236.30108616531831
 30
0.0
  0
VERTEX
  5
27314
  8
0
 10
391.14254390440368
 20
235.84840473654049
 30
0.0
  0
VERTEX
  5
27315
  8
0
 10
391.31782506198829
 20
235.63146407699239
 30
0.0
  0
VERTEX
  5
27316
  8
0
 10
391.4977147184045
 20
235.4210575703755
 30
0.0
  0
VERTEX
  5
27317
  8
0
 10
391.86969008816698
 20
235.02059973802309
 30
0.0
  0
VERTEX
  5
27318
  8
0
 10
392.26124856169389
 20
234.64265391420901
 30
0.0
  0
VERTEX
  5
27319
  8
0
 10
392.68210557496081
 20
234.2789490862092
 30
0.0
  0
VERTEX
  5
2731A
  8
0
 10
393.1312764866646
 20
233.93285103854399
 30
0.0
  0
VERTEX
  5
2731B
  8
0
 10
393.60721420814741
 20
233.6077128765601
 30
0.0
  0
VERTEX
  5
2731C
  8
0
 10
393.85466844695952
 20
233.45396799307761
 30
0.0
  0
VERTEX
  5
2731D
  8
0
 10
394.10811152010928
 20
233.3065884823782
 30
0.0
  0
VERTEX
  5
2731E
  8
0
 10
394.63182756333231
 20
233.03227768788611
 30
0.0
  0
VERTEX
  5
2731F
  8
0
 10
395.17591665616351
 20
232.78728693201401
 30
0.0
  0
VERTEX
  5
27320
  8
0
 10
395.73804790044971
 20
232.57366074370569
 30
0.0
  0
VERTEX
  5
27321
  8
0
 10
396.31541212594692
 20
232.39325598731381
 30
0.0
  0
VERTEX
  5
27322
  8
0
 10
396.9046651436181
 20
232.24765110950011
 30
0.0
  0
VERTEX
  5
27323
  8
0
 10
397.2026508686651
 20
232.1882689242471
 30
0.0
  0
VERTEX
  5
27324
  8
0
 10
397.25248710432493
 20
232.17925292223529
 30
0.0
  0
VERTEX
  5
27325
  8
0
 10
397.35228784806998
 20
232.1619796035084
 30
0.0
  0
VERTEX
  5
27326
  8
0
 10
397.45224506801628
 20
232.14572008789901
 30
0.0
  0
VERTEX
  5
27327
  8
0
 10
397.50227682425532
 20
232.13797125634349
 30
0.0
  0
VERTEX
  5
27328
  8
0
 10
397.55234102331838
 20
232.13047672964419
 30
0.0
  0
VERTEX
  5
27329
  8
0
 10
397.65255768184841
 20
232.11625150993899
 30
0.0
  0
VERTEX
  5
2732A
  8
0
 10
397.75287674845771
 20
232.1030460212078
 30
0.0
  0
VERTEX
  5
2732B
  8
0
 10
397.85327969421871
 20
232.0908614528021
 30
0.0
  0
VERTEX
  5
2732C
  8
0
 10
397.95374778662517
 20
232.07969857817261
 30
0.0
  0
VERTEX
  5
2732D
  8
0
 10
398.05426212072268
 20
232.06955774355581
 30
0.0
  0
VERTEX
  5
2732E
  8
0
 10
398.1045306813196
 20
232.064870580205
 30
0.0
  0
VERTEX
  5
2732F
  8
0
 10
398.15480365114593
 20
232.0604388582328
 30
0.0
  0
VERTEX
  5
27330
  8
0
 10
398.25535322503271
 20
232.05234138639571
 30
0.0
  0
VERTEX
  5
27331
  8
0
 10
398.35589161578463
 20
232.0452643406766
 30
0.0
  0
VERTEX
  5
27332
  8
0
 10
398.45639955764238
 20
232.0392062773758
 30
0.0
  0
VERTEX
  5
27333
  8
0
 10
398.55685778104288
 20
232.03416529344301
 30
0.0
  0
VERTEX
  5
27334
  8
0
 10
398.65724704871923
 20
232.0301390252439
 30
0.0
  0
VERTEX
  5
27335
  8
0
 10
398.7074098303903
 20
232.02850554507901
 30
0.0
  0
VERTEX
  5
27336
  8
0
 10
398.75754819250869
 20
232.0271246491657
 30
0.0
  0
VERTEX
  5
27337
  8
0
 10
398.8577421508262
 20
232.02511888409069
 30
0.0
  0
VERTEX
  5
27338
  8
0
 10
398.95781000676237
 20
232.02411799579019
 30
0.0
  0
VERTEX
  5
27339
  8
0
 10
399.00779078386989
 20
232.02399309110609
 30
0.0
  0
SEQEND
  5
2733A
  8
0
  0
LINE
  5
1B759
  8
0
 10
384.89255057991068
 20
246.47230628540231
 30
0.0
 11
390.34753674602553
 21
237.02399309110609
 31
0.0
  0
POLYLINE
  5
1B75A
  8
0
 66
     1
 10
0.0
 20
0.0
 30
0.0
  0
VERTEX
  5
2733B
  8
0
 10
383.30336435393173
 20
248.54337409726801
 30
0.0
  0
VERTEX
  5
2733C
  8
0
 10
383.5264173938167
 20
248.3130519318988
 30
0.0
  0
VERTEX
  5
2733D
  8
0
 10
383.94029969769701
 20
247.84307447713439
 30
0.0
  0
VERTEX
  5
2733E
  8
0
 10
384.31032150596337
 20
247.36683872510051
 30
0.0
  0
VERTEX
  5
2733F
  8
0
 10
384.4787345925086
 20
247.1288299068697
 30
0.0
  0
SEQEND
  5
27340
  8
0
  0
POLYLINE
  5
1B75B
  8
0
 66
     1
 10
0.0
 20
0.0
 30
0.0
  0
VERTEX
  5
27341
  8
0
 10
384.4787345925086
 20
247.1288299068697
 30
0.0
  0
VERTEX
  5
27342
  8
0
 10
384.5512240161396
 20
247.0216707247873
 30
0.0
  0
VERTEX
  5
27343
  8
0
 10
384.6920137452841
 20
246.80458392648421
 30
0.0
  0
VERTEX
  5
27344
  8
0
 10
384.82713982693139
 20
246.58392725223939
 30
0.0
  0
VERTEX
  5
27345
  8
0
 10
384.89255057991068
 20
246.47230628540231
 30
0.0
  0
SEQEND
  5
27346
  8
0
  0
LINE
  5
1B75C
  8
0
 10
377.76322028010821
 20
254.0835181710913
 30
0.0
 11
383.30336435393173
 21
248.54337409726801
 31
0.0
  0
ARC
  5
1B75D
  8
0
 10
384.83428809197369
 20
261.15458598295709
 30
0.0
 40
9.9999999999999964
 50
180.0
 51
205.633365486326
  0
POLYLINE
  5
1B75E
  8
0
 66
     1
 10
0.0
 20
0.0
 30
0.0
  0
VERTEX
  5
27347
  8
0
 10
375.81848055466412
 20
256.82847751804411
 30
0.0
  0
VERTEX
  5
27348
  8
0
 10
375.86041420336983
 20
256.74215043878939
 30
0.0
  0
VERTEX
  5
27349
  8
0
 10
375.9466981996764
 20
256.57083796344978
 30
0.0
  0
VERTEX
  5
2734A
  8
0
 10
376.03615004678812
 20
256.40140105726141
 30
0.0
  0
VERTEX
  5
2734B
  8
0
 10
376.08204228541427
 20
256.31741807791559
 30
0.0
  0
VERTEX
  5
2734C
  8
0
 10
376.12869989204353
 20
256.23394231639901
 30
0.0
  0
VERTEX
  5
2734D
  8
0
 10
376.22427281619571
 20
256.06856229535288
 30
0.0
  0
VERTEX
  5
2734E
  8
0
 10
376.32278902749113
 20
255.90535902317379
 30
0.0
  0
VERTEX
  5
2734F
  8
0
 10
376.42416410083462
 20
255.74442753299761
 30
0.0
  0
VERTEX
  5
27350
  8
0
 10
376.52830926545039
 20
255.58585940200959
 30
0.0
  0
VERTEX
  5
27351
  8
0
 10
376.63513220540148
 20
255.4297416402965
 30
0.0
  0
VERTEX
  5
27352
  8
0
 10
376.68951860339507
 20
255.352626832987
 30
0.0
  0
VERTEX
  5
27353
  8
0
 10
376.74453857301597
 20
255.2761548384656
 30
0.0
  0
VERTEX
  5
27354
  8
0
 10
376.85642781778398
 20
255.12517925878359
 30
0.0
  0
VERTEX
  5
27355
  8
0
 10
376.97069372669472
 20
254.97689356115779
 30
0.0
  0
VERTEX
  5
27356
  8
0
 10
377.08722482986479
 20
254.83137391843769
 30
0.0
  0
VERTEX
  5
27357
  8
0
 10
377.20590470140991
 20
254.6886934036938
 30
0.0
  0
VERTEX
  5
27358
  8
0
 10
377.32661233364399
 20
254.5489213905189
 30
0.0
  0
VERTEX
  5
27359
  8
0
 10
377.38768760193341
 20
254.48014659513319
 30
0.0
  0
VERTEX
  5
2735A
  8
0
 10
377.44922258950442
 20
254.4121229668003
 30
0.0
  0
VERTEX
  5
2735B
  8
0
 10
377.57360673833909
 20
254.27835836303481
 30
0.0
  0
VERTEX
  5
2735C
  8
0
 10
377.6996330802325
 20
254.1476823969615
 30
0.0
  0
VERTEX
  5
2735D
  8
0
 10
377.76322028010821
 20
254.0835181710913
 30
0.0
  0
SEQEND
  5
2735E
  8
0
  0
LINE
  5
1B75F
  8
0
 10
374.83428809197369
 20
321.23724601866161
 30
0.0
 11
374.83428809197369
 21
261.15458598295709
 31
0.0
  0
ARC
  5
1B760
  8
0
 10
354.83428809197369
 20
321.23724601866161
 30
0.0
 40
20.000000000000028
 50
0.0
 51
30.00000000000006
  0
LINE
  5
1B761
  8
0
 10
362.75163836116332
 20
347.52399309110621
 30
0.0
 11
372.15479616766243
 21
331.23724601866161
 31
0.0
  0
ARC
  5
1B762
  8
0
 10
361.01958755359419
 20
346.52399309110609
 30
0.0
 40
2.0000000000002811
 50
30.00000000000006
 51
63.133982235384522
  0
ARC
  5
1B763
  8
0
 10
453.44898863035291
 20
346.52399309110609
 30
0.0
 40
1.9999999999999969
 50
116.86601776461541
 51
149.99999999999989
  0
LINE
  5
1B764
  8
0
 10
357.23428809197372
 20
350.52399309110621
 30
0.0
 11
457.23428809197372
 21
350.52399309110621
 31
0.0
  0
ARC
  5
1B7B7
  8
0
 10
407.23428809197372
 20
243.52399309110621
 30
0.0
 40
62.602807251783879
 50
121.16796469845031
 51
58.832035301549674
  0
ARC
  5
1B7B8
  8
0
 10
407.23428809197372
 20
243.52399309110621
 30
0.0
 40
66.475088422018331
 50
119.16987526135161
 51
60.830124738648358
  0
ARC
  5
1B7B9
  8
0
 10
407.23428809197333
 20
243.76017847401499
 30
0.0
 40
45.230447874855898
 50
135.75243680637519
 51
44.247563193624678
  0
ARC
  5
1B7BA
  8
0
 10
407.23428809197372
 20
243.52399309110621
 30
0.0
 40
60.000000000000028
 50
122.6836388462622
 51
57.316361153737788
  0
ARC
  5
1B7C0
  8
0
 10
407.23428809197372
 20
243.52399309110621
 30
0.0
 40
75.000000000000014
 50
115.5945522783818
 51
64.405447721618174
  0
ARC
  5
1B7C1
  8
0
 10
407.23428809197372
 20
243.52399309110621
 30
0.0
 40
31.293484606211521
 50
345.43502715480059
 51
14.56497284519943
  0
ARC
  5
1B7C2
  8
0
 10
407.2342880919735
 20
243.52399309110621
 30
0.0
 40
31.293484606211688
 50
309.43502715479508
 51
338.56497284520958
  0
ARC
  5
1B7C3
  8
0
 10
407.23428809197372
 20
243.52399309110621
 30
0.0
 40
31.293484606211489
 50
273.43502715480008
 51
302.56497284518889
  0
ARC
  5
1B7C4
  8
0
 10
407.23428809197372
 20
243.52399309110621
 30
0.0
 40
31.293484606211411
 50
237.435027154811
 51
266.56497284519992
  0
ARC
  5
1B7C5
  8
0
 10
407.2342880919735
 20
243.52399309110621
 30
0.0
 40
31.29348460621139
 50
201.43502715479039
 51
230.56497284520481
  0
ARC
  5
1B7C6
  8
0
 10
407.2342880919735
 20
243.52399309110621
 30
0.0
 40
31.293484606211429
 50
165.43502715480051
 51
194.56497284519941
  0
ARC
  5
1B7C7
  8
0
 10
407.23428809197372
 20
243.52399309110621
 30
0.0
 40
29.128421096750351
 50
345.69068801259482
 51
14.30931198740519
  0
ARC
  5
1B7C8
  8
0
 10
407.23428809197372
 20
243.52399309110621
 30
0.0
 40
29.12842109675038
 50
309.69068801258823
 51
338.30931198742218
  0
ARC
  5
1B7C9
  8
0
 10
407.23428809197372
 20
243.52399309110621
 30
0.0
 40
29.128421096750401
 50
273.69068801258481
 51
302.30931198740859
  0
ARC
  5
1B7CA
  8
0
 10
407.23428809197372
 20
243.52399309110621
 30
0.0
 40
29.128421096750301
 50
237.69068801258859
 51
266.30931198741507
  0
ARC
  5
1B7CB
  8
0
 10
407.23428809197372
 20
243.52399309110621
 30
0.0
 40
29.128421096750369
 50
201.69068801257791
 51
230.30931198741121
  0
ARC
  5
1B7CC
  8
0
 10
407.2342880919735
 20
243.52399309110621
 30
0.0
 40
29.128421096750309
 50
165.69068801259479
 51
194.30931198740521
  0
ARC
  5
1B7CE
  8
0
 10
407.23428809197372
 20
243.52399309110621
 30
0.0
 40
13.6288933513966
 50
277.90756735659608
 51
298.09243264341211
  0
ARC
  5
1B7CF
  8
0
 10
407.23428809197372
 20
243.52399309110621
 30
0.0
 40
13.62889335139651
 50
241.90756735658789
 51
262.09243264340392
  0
ARC
  5
1B7D3
  8
0
 10
407.23428809197361
 20
243.52399309110621
 30
0.0
 40
37.49999999999995
 50
164.86598398260921
 51
195.13401601739071
  0
ARC
  5
1B7D5
  8
0
 10
407.23428809197299
 20
243.5239930911066
 30
0.0
 40
37.499999999999339
 50
149.76871374487271
 51
159.13401601740429
  0
ARC
  5
1B7D6
  8
0
 10
407.23428809197378
 20
243.52399309110621
 30
0.0
 40
37.500000000000291
 50
200.86598398259559
 51
231.13401601741239
  0
ARC
  5
1B7D7
  8
0
 10
407.23428809197372
 20
243.5239930911066
 30
0.0
 40
11.813794291606779
 50
256.76477091834039
 51
260.86781138873857
  0
ARC
  5
1B7D8
  8
0
 10
407.23428809197372
 20
243.52399309110621
 30
0.0
 40
37.500000000000021
 50
236.86598398260469
 51
267.13401601740082
  0
ARC
  5
1B7D9
  8
0
 10
407.23428809197333
 20
243.52399309110751
 30
0.0
 40
11.8137942916079
 50
279.13218861126143
 51
283.2352290816595
  0
ARC
  5
1B7DA
  8
0
 10
407.23428809197361
 20
243.52399309110621
 30
0.0
 40
37.500000000000213
 50
272.86598398259918
 51
303.13401601739531
  0
ARC
  5
1B7DB
  8
0
 10
407.23428809197372
 20
243.52399309110621
 30
0.0
 40
37.5
 50
20.865983982595651
 51
30.231286255127319
  0
ARC
  5
1B7DC
  8
0
 10
407.23428809197372
 20
243.52399309110621
 30
0.0
 40
37.499999999999893
 50
308.86598398258758
 51
339.13401601740429
  0
ARC
  5
1B7DD
  8
0
 10
407.23428809197372
 20
243.52399309110621
 30
0.0
 40
37.499999999999901
 50
344.86598398260918
 51
15.13401601739076
  0
LINE
  5
1B7DE
  8
0
 10
388.89092694134803
 20
239.5353654286009
 30
0.0
 11
371.03487053852092
 21
233.73358100627681
 31
0.0
  0
LINE
  5
1B7DF
  8
0
 10
372.19368426742687
 20
230.16711907017
 30
0.0
 11
390.85661373509828
 21
236.231072443622
 31
0.0
  0
LINE
  5
1B7E0
  8
0
 10
371.03487053852092
 20
253.31440517593549
 30
0.0
 11
382.14090147277568
 21
249.70583697842409
 31
0.0
  0
LINE
  5
1B7E1
  8
0
 10
396.74919716729482
 20
232.28244403920189
 30
0.0
 11
383.70300394208419
 21
214.32589955304871
 31
0.0
  0
LINE
  5
1B7E2
  8
0
 10
376.62791904508708
 20
255.4400968950595
 30
0.0
 11
372.19368426742687
 21
256.88086711204232
 31
0.0
  0
LINE
  5
1B7E3
  8
0
 10
386.73681767099021
 20
212.12170485695151
 30
0.0
 11
401.196676477724
 21
232.02399309110609
 31
0.0
  0
LINE
  5
1B7E4
  8
0
 10
405.35928809197361
 20
231.8599410265619
 30
0.0
 11
405.35928809197361
 21
206.07089742465951
 31
0.0
  0
LINE
  5
1B7E5
  8
0
 10
409.10928809197361
 20
206.07089742465951
 30
0.0
 11
409.10928809197361
 21
231.8599410265619
 31
0.0
  0
LINE
  5
1B7E6
  8
0
 10
413.27189970622322
 20
232.02399309110609
 30
0.0
 11
427.73175851295701
 21
212.12170485695199
 31
0.0
  0
LINE
  5
1B7E7
  8
0
 10
430.76557224186308
 20
214.32589955304871
 30
0.0
 11
417.71939152964438
 21
232.28242681654589
 31
0.0
  0
LINE
  5
1B7E8
  8
0
 10
423.611947260195
 20
236.2310773787149
 30
0.0
 11
442.2748919165204
 21
230.16711907017
 31
0.0
  0
LINE
  5
1B7E9
  8
0
 10
443.43370564542653
 20
233.73358100627681
 30
0.0
 11
425.57764924259942
 21
239.5353654286009
 31
0.0
  0
LINE
  5
1B7EA
  8
0
 10
442.27489191652029
 20
256.88086711204232
 30
0.0
 11
437.84065713886019
 21
255.4400968950595
 31
0.0
  0
LINE
  5
1B7EB
  8
0
 10
432.32767471117171
 20
249.70583697842409
 30
0.0
 11
443.43370564542641
 21
253.31440517593549
 31
0.0
  0
LINE
  5
23EF1
  8
1
 10
316.51073923940822
 20
243.52399309110621
 30
0.0
 11
497.95783694453922
 21
243.52399309110621
 31
0.0
  0
LINE
  5
23EF2
  8
1
 10
407.23428809197372
 20
152.8004442385409
 30
0.0
 11
407.23428809197372
 21
366.24754194367102
 31
0.0
  0
LINE
  5
23EF3
  8
1
 10
623.60999415949345
 20
243.52399309110621
 30
0.0
 11
708.96029082790847
 21
243.52399309110621
 31
0.0
  0
LINE
  5
23EF4
  8
1
 10
666.28514249370085
 20
152.8004442385409
 30
0.0
 11
666.28514249370085
 21
366.24754194367102
 31
0.0
  0
LINE
  5
23EF5
  8
3
 10
701.28514249370085
 20
240.2909930911064
 30
0.0
 11
698.78514249370096
 21
240.2909930911064
 31
0.0
  0
LINE
  5
23EFE
  8
0
 10
115.6834336902464
 20
239.52399309110621
 30
0.0
 11
113.9504336902464
 21
239.52399309110621
 31
0.0
  0
LINE
  5
23EFF
  8
0
 10
113.9504336902464
 20
239.52399309110621
 30
0.0
 11
113.1834336902463
 21
240.2909930911064
 31
0.0
  0
LINE
  5
23F00
  8
0
 10
178.4834336902463
 20
237.26565975777299
 30
0.0
 11
178.22401398083079
 21
236.29749222174951
 31
0.0
  0
LINE
  5
23F01
  8
0
 10
118.1834336902463
 20
237.70899309110609
 30
0.0
 11
115.6834336902464
 21
237.70899309110609
 31
0.0
  0
LINE
  5
23F02
  8
0
 10
118.4428533996619
 20
236.29749222174951
 30
0.0
 11
118.1834336902463
 21
237.26565975777299
 31
0.0
  0
LINE
  5
23F03
  8
0
 10
125.6834336902463
 20
251.02399309110609
 30
0.0
 11
128.1834336902464
 21
251.02399309110609
 31
0.0
  0
LINE
  5
23F04
  8
0
 10
168.18343369024629
 20
251.02399309110609
 30
0.0
 11
170.6834336902464
 21
251.02399309110609
 31
0.0
  0
LINE
  5
23F05
  8
0
 10
170.6834336902464
 20
236.02399309110609
 30
0.0
 11
168.18343369024629
 21
236.02399309110609
 31
0.0
  0
LINE
  5
23F06
  8
0
 10
128.1834336902464
 20
236.02399309110609
 30
0.0
 11
125.6834336902463
 21
236.02399309110609
 31
0.0
  0
LINE
  5
23F07
  8
0
 10
113.9504336902464
 20
239.52399309110621
 30
0.0
 11
113.9504336902464
 21
243.9220949837827
 31
0.0
  0
LINE
  5
23F08
  8
0
 10
113.1834336902463
 20
240.2909930911064
 30
0.0
 11
113.1834336902463
 21
244.6900406439681
 31
0.0
  0
LINE
  5
23F09
  8
0
 10
178.4834336902463
 20
237.26565975777299
 30
0.0
 11
178.4834336902463
 21
239.6401166966175
 31
0.0
  0
LINE
  5
23F0A
  8
0
 10
178.22401398083079
 20
236.29749222174951
 30
0.0
 11
176.4460537361266
 21
236.29749222174951
 31
0.0
  0
POLYLINE
  5
23F0B
  8
0
 66
     1
 10
0.0
 20
0.0
 30
0.0
  0
VERTEX
  5
2735F
  8
0
 10
178.22401398083079
 20
236.29749222174951
 30
0.0
  0
VERTEX
  5
27360
  8
0
 10
178.30485863408899
 20
236.62206611742161
 30
0.0
  0
VERTEX
  5
27361
  8
0
 10
178.41946897284211
 20
237.23162669619339
 30
0.0
  0
VERTEX
  5
27362
  8
0
 10
178.47624355662651
 20
237.81403486776929
 30
0.0
  0
VERTEX
  5
27363
  8
0
 10
178.4834336902463
 20
238.1041174390889
 30
0.0
  0
SEQEND
  5
27364
  8
0
  0
POLYLINE
  5
23F0C
  8
0
 66
     1
 10
0.0
 20
0.0
 30
0.0
  0
VERTEX
  5
27365
  8
0
 10
178.4834336902463
 20
238.1041174390889
 30
0.0
  0
VERTEX
  5
27366
  8
0
 10
178.47939327586371
 20
238.321468877657
 30
0.0
  0
VERTEX
  5
27367
  8
0
 10
178.4474982723936
 20
238.75539148339749
 30
0.0
  0
VERTEX
  5
27368
  8
0
 10
178.38386014922091
 20
239.19835908172939
 30
0.0
  0
VERTEX
  5
27369
  8
0
 10
178.3397258391
 20
239.42705411385671
 30
0.0
  0
SEQEND
  5
2736A
  8
0
  0
LINE
  5
23F0D
  8
0
 10
115.6834336902464
 20
237.70899309110609
 30
0.0
 11
115.6834336902464
 21
242.1875123167429
 31
0.0
  0
LINE
  5
23F0E
  8
0
 10
118.1834336902463
 20
237.26565975777299
 30
0.0
 11
118.1834336902463
 21
239.20152503749711
 31
0.0
  0
LINE
  5
23F0F
  8
0
 10
119.9208199796842
 20
236.29749222174951
 30
0.0
 11
118.4428533996619
 21
236.29749222174951
 31
0.0
  0
POLYLINE
  5
23F10
  8
0
 66
     1
 10
0.0
 20
0.0
 30
0.0
  0
VERTEX
  5
2736B
  8
0
 10
118.2632815948096
 20
239.08119521777601
 30
0.0
  0
VERTEX
  5
2736C
  8
0
 10
118.2389248001531
 20
238.9157570940497
 30
0.0
  0
VERTEX
  5
2736D
  8
0
 10
118.20351817292701
 20
238.58986984330519
 30
0.0
  0
VERTEX
  5
2736E
  8
0
 10
118.1856891776572
 20
238.266468193066
 30
0.0
  0
VERTEX
  5
2736F
  8
0
 10
118.1834336902463
 20
238.1041174390889
 30
0.0
  0
SEQEND
  5
27370
  8
0
  0
POLYLINE
  5
23F11
  8
0
 66
     1
 10
0.0
 20
0.0
 30
0.0
  0
VERTEX
  5
27371
  8
0
 10
118.1834336902463
 20
238.1041174390889
 30
0.0
  0
VERTEX
  5
27372
  8
0
 10
118.1906238238663
 20
237.81403486776929
 30
0.0
  0
VERTEX
  5
27373
  8
0
 10
118.24739840765071
 20
237.23162669619339
 30
0.0
  0
VERTEX
  5
27374
  8
0
 10
118.3620087464037
 20
236.62206611742161
 30
0.0
  0
VERTEX
  5
27375
  8
0
 10
118.4428533996619
 20
236.29749222174951
 30
0.0
  0
SEQEND
  5
27376
  8
0
  0
LINE
  5
23F12
  8
0
 10
188.68343369024629
 20
348.52399309110609
 30
0.0
 11
107.6834336902463
 21
348.52399309110609
 31
0.0
  0
LINE
  5
23F13
  8
0
 10
107.6834336902463
 20
348.52399309110609
 30
0.0
 11
107.6834336902463
 21
256.82847751804411
 31
0.0
  0
LINE
  5
23F14
  8
0
 10
125.6834336902463
 20
348.52399309110609
 30
0.0
 11
125.6834336902463
 21
232.02399309110609
 31
0.0
  0
LINE
  5
23F15
  8
0
 10
170.6834336902464
 20
348.52399309110609
 30
0.0
 11
170.6834336902464
 21
232.02399309110609
 31
0.0
  0
LINE
  5
23F16
  8
0
 10
188.68343369024629
 20
348.52399309110609
 30
0.0
 11
188.68343369024629
 21
256.82847751804411
 31
0.0
  0
POLYLINE
  5
23F17
  8
0
 66
     1
 10
0.0
 20
0.0
 30
0.0
  0
VERTEX
  5
27377
  8
0
 10
188.68343369024629
 20
256.82847751804411
 30
0.0
  0
VERTEX
  5
27378
  8
0
 10
188.68332243648609
 20
256.74162787220388
 30
0.0
  0
VERTEX
  5
27379
  8
0
 10
188.68239406310619
 20
256.56938180016101
 30
0.0
  0
VERTEX
  5
2737A
  8
0
 10
188.68043896625841
 20
256.39916886208681
 30
0.0
  0
VERTEX
  5
2737B
  8
0
 10
188.67904421942831
 20
256.31486007003832
 30
0.0
  0
VERTEX
  5
2737C
  8
0
 10
188.67735417787321
 20
256.23110151082568
 30
0.0
  0
VERTEX
  5
2737D
  8
0
 10
188.67303687562051
 20
256.06528920143728
 30
0.0
  0
VERTEX
  5
2737E
  8
0
 10
188.6673848992416
 20
255.90183780918051
 30
0.0
  0
VERTEX
  5
2737F
  8
0
 10
188.66029717800441
 20
255.7408475732486
 30
0.0
  0
VERTEX
  5
27380
  8
0
 10
188.65167414321311
 20
255.5824128306044
 30
0.0
  0
VERTEX
  5
27381
  8
0
 10
188.641418494801
 20
255.42662718260499
 30
0.0
  0
VERTEX
  5
27382
  8
0
 10
188.63564879769359
 20
255.34975643655119
 30
0.0
  0
VERTEX
  5
27383
  8
0
 10
188.62943578445169
 20
255.2735820207831
 30
0.0
  0
VERTEX
  5
27384
  8
0
 10
188.6156350075214
 20
255.12336575801049
 30
0.0
  0
VERTEX
  5
27385
  8
0
 10
188.5999291739725
 20
254.97606308405059
 30
0.0
  0
VERTEX
  5
27386
  8
0
 10
188.5822358457072
 20
254.8317542265477
 30
0.0
  0
VERTEX
  5
27387
  8
0
 10
188.5624776266462
 20
254.69051421667379
 30
0.0
  0
VERTEX
  5
27388
  8
0
 10
188.5405825900317
 20
254.5524121597382
 30
0.0
  0
VERTEX
  5
27389
  8
0
 10
188.52881287090511
 20
254.48455766061809
 30
0.0
  0
VERTEX
  5
2738A
  8
0
 10
188.51647085337231
 20
254.41743773190461
 30
0.0
  0
VERTEX
  5
2738B
  8
0
 10
188.48962045545539
 20
254.2834887474701
 30
0.0
  0
VERTEX
  5
2738C
  8
0
 10
188.45965930611851
 20
254.14996318243399
 30
0.0
  0
VERTEX
  5
2738D
  8
0
 10
188.44345865156441
 20
254.08351817109181
 30
0.0
  0
SEQEND
  5
2738E
  8
0
  0
POLYLINE
  5
23F18
  8
0
 66
     1
 10
0.0
 20
0.0
 30
0.0
  0
VERTEX
  5
2738F
  8
0
 10
190.49251047658461
 20
254.08351817109181
 30
0.0
  0
VERTEX
  5
27390
  8
0
 10
190.50490329390269
 20
254.1476823969615
 30
0.0
  0
VERTEX
  5
27391
  8
0
 10
190.52820550473641
 20
254.27835836303481
 30
0.0
  0
VERTEX
  5
27392
  8
0
 10
190.5495717602212
 20
254.41212296680081
 30
0.0
  0
VERTEX
  5
27393
  8
0
 10
190.55954574119019
 20
254.4801465951337
 30
0.0
  0
VERTEX
  5
27394
  8
0
 10
190.56905651014151
 20
254.5489213905189
 30
0.0
  0
VERTEX
  5
27395
  8
0
 10
190.58671871275419
 20
254.6886934036938
 30
0.0
  0
VERTEX
  5
27396
  8
0
 10
190.60262155842111
 20
254.83137391843769
 30
0.0
  0
VERTEX
  5
27397
  8
0
 10
190.61683214224649
 20
254.97689356115831
 30
0.0
  0
VERTEX
  5
27398
  8
0
 10
190.62942109617961
 20
255.12517925878359
 30
0.0
  0
VERTEX
  5
27399
  8
0
 10
190.64046219008739
 20
255.276154838466
 30
0.0
  0
VERTEX
  5
2739A
  8
0
 10
190.64542609727329
 20
255.352626832987
 30
0.0
  0
VERTEX
  5
2739B
  8
0
 10
190.6500319103688
 20
255.4297416402969
 30
0.0
  0
VERTEX
  5
2739C
  8
0
 10
190.6582090361548
 20
255.5858594020101
 30
0.0
  0
VERTEX
  5
2739D
  8
0
 10
190.66507420881339
 20
255.74442753299761
 30
0.0
  0
VERTEX
  5
2739E
  8
0
 10
190.67070924288009
 20
255.9053590231743
 30
0.0
  0
VERTEX
  5
2739F
  8
0
 10
190.67519693005951
 20
256.06856229535288
 30
0.0
  0
VERTEX
  5
273A0
  8
0
 10
190.67862073015289
 20
256.23394231639901
 30
0.0
  0
VERTEX
  5
273A1
  8
0
 10
190.67995984757141
 20
256.31741807791559
 30
0.0
  0
VERTEX
  5
273A2
  8
0
 10
190.6810644091816
 20
256.40140105726141
 30
0.0
  0
VERTEX
  5
273A3
  8
0
 10
190.68261166823569
 20
256.57083796345017
 30
0.0
  0
VERTEX
  5
273A4
  8
0
 10
190.68334576831509
 20
256.74215043878939
 30
0.0
  0
VERTEX
  5
273A5
  8
0
 10
190.6834336902464
 20
256.82847751804411
 30
0.0
  0
SEQEND
  5
273A6
  8
0
  0
LINE
  5
23F19
  8
0
 10
190.6834336902464
 20
256.82847751804411
 30
0.0
 11
190.6834336902464
 21
350.52399309110621
 31
0.0
  0
POLYLINE
  5
23F1A
  8
0
 66
     1
 10
0.0
 20
0.0
 30
0.0
  0
VERTEX
  5
273A7
  8
0
 10
188.44345865156441
 20
254.08351817109181
 30
0.0
  0
VERTEX
  5
273A8
  8
0
 10
188.398233072024
 20
253.9112150299589
 30
0.0
  0
VERTEX
  5
273A9
  8
0
 10
188.29633032840979
 20
253.56984280208141
 30
0.0
  0
VERTEX
  5
273AA
  8
0
 10
188.1793303582219
 20
253.23334588664471
 30
0.0
  0
VERTEX
  5
273AB
  8
0
 10
188.1152402633447
 20
253.0671346197955
 30
0.0
  0
VERTEX
  5
273AC
  8
0
 10
188.04746518550391
 20
252.90239159471551
 30
0.0
  0
VERTEX
  5
273AD
  8
0
 10
187.90099631366019
 20
252.5776362457168
 30
0.0
  0
VERTEX
  5
273AE
  8
0
 10
187.74021420686631
 20
252.25972386587409
 30
0.0
  0
VERTEX
  5
273AF
  8
0
 10
187.56543771404529
 20
251.9492849110384
 30
0.0
  0
VERTEX
  5
273B0
  8
0
 10
187.37701343655499
 20
251.64693501642211
 30
0.0
  0
VERTEX
  5
273B1
  8
0
 10
187.1753150408386
 20
251.353273775725
 30
0.0
  0
VERTEX
  5
273B2
  8
0
 10
187.06961203873479
 20
251.2098840939652
 30
0.0
  0
VERTEX
  5
273B3
  8
0
 10
186.96074251740239
 20
251.06888355207369
 30
0.0
  0
VERTEX
  5
273B4
  8
0
 10
186.73372138758941
 20
250.79432832312889
 30
0.0
  0
VERTEX
  5
273B5
  8
0
 10
186.49470185972319
 20
250.53015256265689
 30
0.0
  0
VERTEX
  5
273B6
  8
0
 10
186.2441579362947
 20
250.27688016077451
 30
0.0
  0
VERTEX
  5
273B7
  8
0
 10
185.98258647396139
 20
250.03501338501749
 30
0.0
  0
VERTEX
  5
273B8
  8
0
 10
185.7105061982256
 20
249.8050318842879
 30
0.0
  0
VERTEX
  5
273B9
  8
0
 10
185.5706930845158
 20
249.69464158252319
 30
0.0
  0
VERTEX
  5
273BA
  8
0
 10
185.4284566747433
 20
249.58739173765619
 30
0.0
  0
VERTEX
  5
273BB
  8
0
 10
185.13699723930509
 20
249.382524549907
 30
0.0
  0
VERTEX
  5
273BC
  8
0
 10
184.83670588861131
 20
249.19083659561471
 30
0.0
  0
VERTEX
  5
273BD
  8
0
 10
184.6834336902464
 20
249.10005466626041
 30
0.0
  0
SEQEND
  5
273BE
  8
0
  0
LINE
  5
23F1B
  8
0
 10
184.6834336902464
 20
249.10005466626041
 30
0.0
 11
183.7192346611657
 21
248.54337409726801
 31
0.0
  0
POLYLINE
  5
23F1C
  8
0
 66
     1
 10
0.0
 20
0.0
 30
0.0
  0
VERTEX
  5
273BF
  8
0
 10
187.31491274935999
 20
248.54337409726801
 30
0.0
  0
VERTEX
  5
273C0
  8
0
 10
187.44898020040449
 20
248.66433364251949
 30
0.0
  0
VERTEX
  5
273C1
  8
0
 10
187.71045432986551
 20
248.91341559818741
 30
0.0
  0
VERTEX
  5
273C2
  8
0
 10
187.96276448369301
 20
249.17177605818921
 30
0.0
  0
VERTEX
  5
273C3
  8
0
 10
188.0853797663753
 20
249.3043308976699
 30
0.0
  0
VERTEX
  5
273C4
  8
0
 10
188.20558162285039
 20
249.4390780932504
 30
0.0
  0
VERTEX
  5
273C5
  8
0
 10
188.43858908819291
 20
249.71497311334221
 30
0.0
  0
VERTEX
  5
273C6
  8
0
 10
188.66148301342409
 20
249.99910132227569
 30
0.0
  0
VERTEX
  5
273C7
  8
0
 10
188.87397272137051
 20
250.2910921869161
 30
0.0
  0
VERTEX
  5
273C8
  8
0
 10
189.07578110305411
 20
250.59056492039781
 30
0.0
  0
VERTEX
  5
273C9
  8
0
 10
189.26664497907279
 20
250.8971289787082
 30
0.0
  0
VERTEX
  5
273CA
  8
0
 10
189.35789437760539
 20
251.0529456667891
 30
0.0
  0
VERTEX
  5
273CB
  8
0
 10
189.4463154428131
 20
251.2103845700012
 30
0.0
  0
VERTEX
  5
273CC
  8
0
 10
189.6145581850511
 20
251.52992317596409
 30
0.0
  0
VERTEX
  5
273CD
  8
0
 10
189.7711537995167
 20
251.8553280845731
 30
0.0
  0
VERTEX
  5
273CE
  8
0
 10
189.91589806902161
 20
252.18617493352619
 30
0.0
  0
VERTEX
  5
273CF
  8
0
 10
190.04860223178099
 20
252.52203226365779
 30
0.0
  0
VERTEX
  5
273D0
  8
0
 10
190.16909322757829
 20
252.86246208160631
 30
0.0
  0
VERTEX
  5
273D1
  8
0
 10
190.2247090559114
 20
253.03425315429601
 30
0.0
  0
VERTEX
  5
273D2
  8
0
 10
190.2772139234539
 20
253.20702043100479
 30
0.0
  0
VERTEX
  5
273D3
  8
0
 10
190.3728233186234
 20
253.55525797144489
 30
0.0
  0
VERTEX
  5
273D4
  8
0
 10
190.4557967283574
 20
253.90672056446741
 30
0.0
  0
VERTEX
  5
273D5
  8
0
 10
190.49251047658461
 20
254.08351817109181
 30
0.0
  0
SEQEND
  5
273D6
  8
0
  0
POLYLINE
  5
23F1D
  8
0
 66
     1
 10
0.0
 20
0.0
 30
0.0
  0
VERTEX
  5
273D7
  8
0
 10
183.7192346611657
 20
248.54337409726801
 30
0.0
  0
VERTEX
  5
273D8
  8
0
 10
183.6304933373213
 20
248.4917653185062
 30
0.0
  0
VERTEX
  5
273D9
  8
0
 10
183.4549725366391
 20
248.38743684322529
 30
0.0
  0
VERTEX
  5
273DA
  8
0
 10
183.2820984150448
 20
248.28164556787851
 30
0.0
  0
VERTEX
  5
273DB
  8
0
 10
183.1966653088395
 20
248.2282083615591
 30
0.0
  0
VERTEX
  5
273DC
  8
0
 10
183.11190754166401
 20
248.17441387114471
 30
0.0
  0
VERTEX
  5
273DD
  8
0
 10
182.94443591801769
 20
248.0657644364033
 30
0.0
  0
VERTEX
  5
273DE
  8
0
 10
182.77971897040811
 20
247.95572024693729
 30
0.0
  0
VERTEX
  5
273DF
  8
0
 10
182.61779154242319
 20
247.84430458107039
 30
0.0
  0
VERTEX
  5
273E0
  8
0
 10
182.45868788756701
 20
247.73154100724329
 30
0.0
  0
VERTEX
  5
273E1
  8
0
 10
182.30244166201359
 20
247.61745337902721
 30
0.0
  0
VERTEX
  5
273E2
  8
0
 10
182.2254004376926
 20
247.55992057548971
 30
0.0
  0
VERTEX
  5
273E3
  8
0
 10
182.14908591748721
 20
247.50206583008
 30
0.0
  0
VERTEX
  5
273E4
  8
0
 10
181.99865309427099
 20
247.38540276903859
 30
0.0
  0
VERTEX
  5
273E5
  8
0
 10
181.85117501434479
 20
247.26748887435721
 30
0.0
  0
VERTEX
  5
273E6
  8
0
 10
181.7066828746527
 20
247.14834908908691
 30
0.0
  0
VERTEX
  5
273E7
  8
0
 10
181.5652072405056
 20
247.02800861559851
 30
0.0
  0
VERTEX
  5
273E8
  8
0
 10
181.42677803911349
 20
246.90649291025241
 30
0.0
  0
VERTEX
  5
273E9
  8
0
 10
181.35871502691271
 20
246.84530236887079
 30
0.0
  0
VERTEX
  5
273EA
  8
0
 10
181.29142455325629
 20
246.7838276780117
 30
0.0
  0
VERTEX
  5
273EB
  8
0
 10
181.15917541508861
 20
246.6600388670077
 30
0.0
  0
VERTEX
  5
273EC
  8
0
 10
181.03005860008349
 20
246.53515266304791
 30
0.0
  0
VERTEX
  5
273ED
  8
0
 10
180.9666833750816
 20
246.47230628540271
 30
0.0
  0
SEQEND
  5
273EE
  8
0
  0
POLYLINE
  5
23F1E
  8
0
 66
     1
 10
0.0
 20
0.0
 30
0.0
  0
VERTEX
  5
273EF
  8
0
 10
184.9666833750816
 20
246.47230628540271
 30
0.0
  0
VERTEX
  5
273F0
  8
0
 10
185.07997812260299
 20
246.58392725223979
 30
0.0
  0
VERTEX
  5
273F1
  8
0
 10
185.3140233614439
 20
246.80458392648421
 30
0.0
  0
VERTEX
  5
273F2
  8
0
 10
185.5578783255061
 20
247.0216707247873
 30
0.0
  0
VERTEX
  5
273F3
  8
0
 10
185.6834336902464
 20
247.1288299068701
 30
0.0
  0
SEQEND
  5
273F4
  8
0
  0
LINE
  5
23F1F
  8
0
 10
185.6834336902464
 20
247.1288299068701
 30
0.0
 11
187.31491274935999
 21
248.54337409726801
 31
0.0
  0
LINE
  5
23F20
  8
0
 10
180.9666833750816
 20
246.47230628540271
 30
0.0
 11
179.4334336902464
 21
244.93905660056731
 31
0.0
  0
POLYLINE
  5
23F21
  8
0
 66
     1
 10
0.0
 20
0.0
 30
0.0
  0
VERTEX
  5
273F5
  8
0
 10
179.4334336902464
 20
244.93905660056731
 30
0.0
  0
VERTEX
  5
273F6
  8
0
 10
179.26660307078529
 20
244.7700917623765
 30
0.0
  0
VERTEX
  5
273F7
  8
0
 10
178.93622441088701
 20
244.4226409142843
 30
0.0
  0
VERTEX
  5
273F8
  8
0
 10
178.61035660025229
 20
244.06263705518771
 30
0.0
  0
VERTEX
  5
273F9
  8
0
 10
178.44916402663199
 20
243.8779823884629
 30
0.0
  0
VERTEX
  5
273FA
  8
0
 10
178.2891585993338
 20
243.6902557973267
 30
0.0
  0
VERTEX
  5
273FB
  8
0
 10
177.97278709062061
 20
243.3056787907185
 30
0.0
  0
VERTEX
  5
273FC
  8
0
 10
177.66139640220689
 20
242.90909363454651
 30
0.0
  0
VERTEX
  5
273FD
  8
0
 10
177.35513843251081
 20
242.5006937856474
 30
0.0
  0
VERTEX
  5
273FE
  8
0
 10
177.05416257617571
 20
242.0806784641436
 30
0.0
  0
VERTEX
  5
273FF
  8
0
 10
176.7586156511961
 20
241.6492525562594
 30
0.0
  0
VERTEX
  5
27400
  8
0
 10
176.612923196384
 20
241.4293261841554
 30
0.0
  0
VERTEX
  5
27401
  8
0
 10
176.4686418272982
 20
241.20662651437939
 30
0.0
  0
VERTEX
  5
27402
  8
0
 10
176.1843825556129
 20
240.75301625438621
 30
0.0
  0
VERTEX
  5
27403
  8
0
 10
175.90597649967501
 20
240.28864305033679
 30
0.0
  0
VERTEX
  5
27404
  8
0
 10
175.63355946778231
 20
239.81373342652111
 30
0.0
  0
VERTEX
  5
27405
  8
0
 10
175.3672643467475
 20
239.32851904696551
 30
0.0
  0
VERTEX
  5
27406
  8
0
 10
175.10722103707539
 20
238.83323660242289
 30
0.0
  0
VERTEX
  5
27407
  8
0
 10
174.97958357321471
 20
238.5818951677729
 30
0.0
  0
VERTEX
  5
27408
  8
0
 10
174.85355638959561
 20
238.3281276949138
 30
0.0
  0
VERTEX
  5
27409
  8
0
 10
174.60639414358511
 20
237.81343871987201
 30
0.0
  0
VERTEX
  5
2740A
  8
0
 10
174.36585486640649
 20
237.28942074595221
 30
0.0
  0
VERTEX
  5
2740B
  8
0
 10
174.2481056366039
 20
237.02399309110609
 30
0.0
  0
SEQEND
  5
2740C
  8
0
  0
POLYLINE
  5
23F22
  8
0
 66
     1
 10
0.0
 20
0.0
 30
0.0
  0
VERTEX
  5
2740D
  8
0
 10
176.86118267895739
 20
237.02399309110609
 30
0.0
  0
VERTEX
  5
2740E
  8
0
 10
176.94842660716751
 20
237.1842951102353
 30
0.0
  0
VERTEX
  5
2740F
  8
0
 10
177.1251780444681
 20
237.5011523428775
 30
0.0
  0
VERTEX
  5
27410
  8
0
 10
177.3049078342905
 20
237.8129428584362
 30
0.0
  0
VERTEX
  5
27411
  8
0
 10
177.39587451514171
 20
237.96691180105199
 30
0.0
  0
VERTEX
  5
27412
  8
0
 10
177.48756756948171
 20
238.11958268145469
 30
0.0
  0
VERTEX
  5
27413
  8
0
 10
177.67310805375789
 20
238.42098922372719
 30
0.0
  0
VERTEX
  5
27414
  8
0
 10
177.86147931495469
 20
238.71708130654361
 30
0.0
  0
VERTEX
  5
27415
  8
0
 10
178.05263061848621
 20
239.00777918255201
 30
0.0
  0
VERTEX
  5
27416
  8
0
 10
178.24651048100961
 20
239.29300455723799
 30
0.0
  0
VERTEX
  5
27417
  8
0
 10
178.4430666842911
 20
239.5726806100129
 30
0.0
  0
VERTEX
  5
27418
  8
0
 10
178.54233189802849
 20
239.71041404237579
 30
0.0
  0
VERTEX
  5
27419
  8
0
 10
178.6422462892703
 20
239.8467320149025
 30
0.0
  0
VERTEX
  5
2741A
  8
0
 10
178.84399565031839
 20
240.11508496083621
 30
0.0
  0
VERTEX
  5
2741B
  8
0
 10
179.04826042968651
 20
240.37766717152499
 30
0.0
  0
VERTEX
  5
2741C
  8
0
 10
179.2549856121407
 20
240.6344079249302
 30
0.0
  0
VERTEX
  5
2741D
  8
0
 10
179.4641155197794
 20
240.88523807230919
 30
0.0
  0
VERTEX
  5
2741E
  8
0
 10
179.6755938270295
 20
241.1300900568404
 30
0.0
  0
VERTEX
  5
2741F
  8
0
 10
179.78219585539929
 20
241.25025356630931
 30
0.0
  0
VERTEX
  5
27420
  8
0
 10
179.88936357581639
 20
241.36889793181899
 30
0.0
  0
VERTEX
  5
27421
  8
0
 10
180.1053671909049
 20
241.60159737841741
 30
0.0
  0
VERTEX
  5
27422
  8
0
 10
180.32354649540591
 20
241.82812572300921
 30
0.0
  0
VERTEX
  5
27423
  8
0
 10
180.4334336902464
 20
241.9390566005672
 30
0.0
  0
SEQEND
  5
27424
  8
0
  0
LINE
  5
23F23
  8
0
 10
180.4334336902464
 20
241.9390566005672
 30
0.0
 11
184.9666833750816
 21
246.47230628540271
 31
0.0
  0
POLYLINE
  5
23F24
  8
0
 66
     1
 10
0.0
 20
0.0
 30
0.0
  0
VERTEX
  5
27425
  8
0
 10
174.2481056366039
 20
237.02399309110609
 30
0.0
  0
VERTEX
  5
27426
  8
0
 10
174.13602173728651
 20
236.7740517304492
 30
0.0
  0
VERTEX
  5
27427
  8
0
 10
173.90584466331219
 20
236.29160621079109
 30
0.0
  0
VERTEX
  5
27428
  8
0
 10
173.670896356676
 20
235.8340476479739
 30
0.0
  0
VERTEX
  5
27429
  8
0
 10
173.55281663718461
 20
235.61517848009231
 30
0.0
  0
VERTEX
  5
2742A
  8
0
 10
173.43494325551879
 20
235.4032042699323
 30
0.0
  0
VERTEX
  5
2742B
  8
0
 10
173.20155177939799
 20
235.00071187681669
 30
0.0
  0
VERTEX
  5
2742C
  8
0
 10
172.96845548488761
 20
234.6190610002937
 30
0.0
  0
VERTEX
  5
2742D
  8
0
 10
172.73381463586739
 20
234.25319295655891
 30
0.0
  0
VERTEX
  5
2742E
  8
0
 10
172.50075607362689
 20
233.90653871208539
 30
0.0
  0
VERTEX
  5
2742F
  8
0
 10
172.2723245846349
 20
233.58221277898659
 30
0.0
  0
VERTEX
  5
27430
  8
0
 10
172.16075659201331
 20
233.4293096181955
 30
0.0
  0
VERTEX
  5
27431
  8
0
 10
172.05142251321871
 20
233.2830203115727
 30
0.0
  0
VERTEX
  5
27432
  8
0
 10
171.84079242691811
 20
233.01150230511351
 30
0.0
  0
VERTEX
  5
27433
  8
0
 10
171.64294316930341
 20
232.76988569438339
 30
0.0
  0
VERTEX
  5
27434
  8
0
 10
171.45998622950509
 20
232.5599333680407
 30
0.0
  0
VERTEX
  5
27435
  8
0
 10
171.29386050445629
 20
232.3832455941747
 30
0.0
  0
VERTEX
  5
27436
  8
0
 10
171.14622825356901
 20
232.2411186455756
 30
0.0
  0
VERTEX
  5
27437
  8
0
 10
171.0797581685006
 20
232.1833002071248
 30
0.0
  0
VERTEX
  5
27438
  8
0
 10
171.01835206176659
 20
232.13440617565951
 30
0.0
  0
VERTEX
  5
27439
  8
0
 10
170.91108609273309
 20
232.06350846348909
 30
0.0
  0
VERTEX
  5
2743A
  8
0
 10
170.82487416772889
 20
232.02834606941181
 30
0.0
  0
VERTEX
  5
2743B
  8
0
 10
170.78967811912179
 20
232.02399309110609
 30
0.0
  0
SEQEND
  5
2743C
  8
0
  0
POLYLINE
  5
23F25
  8
0
 66
     1
 10
0.0
 20
0.0
 30
0.0
  0
VERTEX
  5
2743D
  8
0
 10
172.80348788839041
 20
232.02399309110609
 30
0.0
  0
VERTEX
  5
2743E
  8
0
 10
172.8098302025335
 20
232.02411809950951
 30
0.0
  0
VERTEX
  5
2743F
  8
0
 10
172.8230241680435
 20
232.02511968811311
 30
0.0
  0
VERTEX
  5
27440
  8
0
 10
172.8368986873522
 20
232.02712653340589
 30
0.0
  0
VERTEX
  5
27441
  8
0
 10
172.8440915992546
 20
232.02850801264279
 30
0.0
  0
VERTEX
  5
27442
  8
0
 10
172.8514551324547
 20
232.0301420545261
 30
0.0
  0
VERTEX
  5
27443
  8
0
 10
172.86669446967059
 20
232.03416923765829
 30
0.0
  0
VERTEX
  5
27444
  8
0
 10
172.88261725834471
 20
232.0392106316344
 30
0.0
  0
VERTEX
  5
27445
  8
0
 10
172.89922365083029
 20
232.04526834537461
 30
0.0
  0
VERTEX
  5
27446
  8
0
 10
172.91651339373661
 20
232.05234404712971
 30
0.0
  0
VERTEX
  5
27447
  8
0
 10
172.93448583041811
 20
232.06043896548999
 30
0.0
  0
VERTEX
  5
27448
  8
0
 10
172.94372774434549
 20
232.06486889524919
 30
0.0
  0
VERTEX
  5
27449
  8
0
 10
172.95313990468151
 20
232.06955389211501
 30
0.0
  0
VERTEX
  5
2744A
  8
0
 10
172.97247416568271
 20
232.07968918614139
 30
0.0
  0
VERTEX
  5
2744B
  8
0
 10
172.99248677398609
 20
232.090844780233
 30
0.0
  0
VERTEX
  5
2744C
  8
0
 10
173.01317550875359
 20
232.10302018821679
 30
0.0
  0
VERTEX
  5
2744D
  8
0
 10
173.0345377760305
 20
232.1162145142703
 30
0.0
  0
VERTEX
  5
2744E
  8
0
 10
173.0565706180939
 20
232.130426463611
 30
0.0
  0
VERTEX
  5
2744F
  8
0
 10
173.06783748344651
 20
232.13791353626269
 30
0.0
  0
VERTEX
  5
27450
  8
0
 10
173.0792707238252
 20
232.1456543546378
 30
0.0
  0
VERTEX
  5
27451
  8
0
 10
173.10263444006929
 20
232.16189613248619
 30
0.0
  0
VERTEX
  5
27452
  8
0
 10
173.12665778394
 20
232.17914938394051
 30
0.0
  0
VERTEX
  5
27453
  8
0
 10
173.1389154846556
 20
232.18815446412191
 30
0.0
  0
VERTEX
  5
27454
  8
0
 10
173.2158692908435
 20
232.24745845802269
 30
0.0
  0
VERTEX
  5
27455
  8
0
 10
173.38682993957201
 20
232.3928441650678
 30
0.0
  0
VERTEX
  5
27456
  8
0
 10
173.5792852435155
 20
232.5729636730421
 30
0.0
  0
VERTEX
  5
27457
  8
0
 10
173.7913672638351
 20
232.78627518961869
 30
0.0
  0
VERTEX
  5
27458
  8
0
 10
174.02091717607581
 20
233.03095006342571
 30
0.0
  0
VERTEX
  5
27459
  8
0
 10
174.26560330377811
 20
233.3050211452437
 30
0.0
  0
VERTEX
  5
2745A
  8
0
 10
174.39276535719989
 20
233.4523378733725
 30
0.0
  0
VERTEX
  5
2745B
  8
0
 10
174.52264608433339
 20
233.60607351254839
 30
0.0
  0
VERTEX
  5
2745C
  8
0
 10
174.78900081673669
 20
233.93140311093339
 30
0.0
  0
VERTEX
  5
2745D
  8
0
 10
175.06143199691769
 20
234.2780695419074
 30
0.0
  0
VERTEX
  5
2745E
  8
0
 10
175.3365221348507
 20
234.64285534758849
 30
0.0
  0
VERTEX
  5
2745F
  8
0
 10
175.6107288313226
 20
235.02226248399941
 30
0.0
  0
VERTEX
  5
27460
  8
0
 10
175.88653237998841
 20
235.42151021972859
 30
0.0
  0
VERTEX
  5
27461
  8
0
 10
176.02639262745819
 20
235.6315006956425
 30
0.0
  0
VERTEX
  5
27462
  8
0
 10
176.16691893377089
 20
235.8481503167705
 30
0.0
  0
VERTEX
  5
27463
  8
0
 10
176.44792356770671
 20
236.3006083806508
 30
0.0
  0
VERTEX
  5
27464
  8
0
 10
176.7252791635328
 20
236.77719655845701
 30
0.0
  0
VERTEX
  5
27465
  8
0
 10
176.86118267895739
 20
237.02399309110609
 30
0.0
  0
SEQEND
  5
27466
  8
0
  0
LINE
  5
23F26
  8
0
 10
170.6834336902464
 20
232.02399309110609
 30
0.0
 11
172.80348788839041
 21
232.02399309110609
 31
0.0
  0
POLYLINE
  5
23F27
  8
0
 66
     1
 10
0.0
 20
0.0
 30
0.0
  0
VERTEX
  5
27467
  8
0
 10
176.44465498076119
 20
236.29518279087731
 30
0.0
  0
VERTEX
  5
27468
  8
0
 10
176.2521219454872
 20
235.98248905730861
 30
0.0
  0
VERTEX
  5
27469
  8
0
 10
175.86701862671049
 20
235.39263280086291
 30
0.0
  0
VERTEX
  5
2746A
  8
0
 10
175.48976780265031
 20
234.85285755003181
 30
0.0
  0
VERTEX
  5
2746B
  8
0
 10
175.3021214865212
 20
234.59639758965201
 30
0.0
  0
SEQEND
  5
2746C
  8
0
  0
POLYLINE
  5
23F28
  8
0
 66
     1
 10
0.0
 20
0.0
 30
0.0
  0
VERTEX
  5
2746D
  8
0
 10
105.6834336902463
 20
256.82847751804411
 30
0.0
  0
VERTEX
  5
2746E
  8
0
 10
105.6835216121776
 20
256.74215043878939
 30
0.0
  0
VERTEX
  5
2746F
  8
0
 10
105.684255712257
 20
256.57083796344978
 30
0.0
  0
VERTEX
  5
27470
  8
0
 10
105.68580297131111
 20
256.40140105726141
 30
0.0
  0
VERTEX
  5
27471
  8
0
 10
105.6869075329214
 20
256.31741807791559
 30
0.0
  0
VERTEX
  5
27472
  8
0
 10
105.68824665033981
 20
256.23394231639901
 30
0.0
  0
VERTEX
  5
27473
  8
0
 10
105.69167045043319
 20
256.06856229535288
 30
0.0
  0
VERTEX
  5
27474
  8
0
 10
105.6961581376126
 20
255.9053590231743
 30
0.0
  0
VERTEX
  5
27475
  8
0
 10
105.7017931716793
 20
255.74442753299761
 30
0.0
  0
VERTEX
  5
27476
  8
0
 10
105.70865834433791
 20
255.5858594020101
 30
0.0
  0
VERTEX
  5
27477
  8
0
 10
105.7168354701239
 20
255.4297416402969
 30
0.0
  0
VERTEX
  5
27478
  8
0
 10
105.72144128321941
 20
255.352626832987
 30
0.0
  0
VERTEX
  5
27479
  8
0
 10
105.7264051904053
 20
255.276154838466
 30
0.0
  0
VERTEX
  5
2747A
  8
0
 10
105.73744628431309
 20
255.12517925878359
 30
0.0
  0
VERTEX
  5
2747B
  8
0
 10
105.7500352382462
 20
254.97689356115831
 30
0.0
  0
VERTEX
  5
2747C
  8
0
 10
105.7642458220716
 20
254.83137391843769
 30
0.0
  0
VERTEX
  5
2747D
  8
0
 10
105.7801486677385
 20
254.6886934036938
 30
0.0
  0
VERTEX
  5
2747E
  8
0
 10
105.7978108703512
 20
254.5489213905189
 30
0.0
  0
VERTEX
  5
2747F
  8
0
 10
105.8073216393024
 20
254.4801465951337
 30
0.0
  0
VERTEX
  5
27480
  8
0
 10
105.81729562027159
 20
254.41212296680081
 30
0.0
  0
VERTEX
  5
27481
  8
0
 10
105.8386618757563
 20
254.27835836303481
 30
0.0
  0
VERTEX
  5
27482
  8
0
 10
105.86196408659001
 20
254.1476823969615
 30
0.0
  0
VERTEX
  5
27483
  8
0
 10
105.87435690390809
 20
254.08351817109181
 30
0.0
  0
SEQEND
  5
27484
  8
0
  0
POLYLINE
  5
23F29
  8
0
 66
     1
 10
0.0
 20
0.0
 30
0.0
  0
VERTEX
  5
27485
  8
0
 10
107.92340872892819
 20
254.08351817109181
 30
0.0
  0
VERTEX
  5
27486
  8
0
 10
107.9072080743742
 20
254.14996318243399
 30
0.0
  0
VERTEX
  5
27487
  8
0
 10
107.8772469250373
 20
254.2834887474701
 30
0.0
  0
VERTEX
  5
27488
  8
0
 10
107.8503965271204
 20
254.41743773190461
 30
0.0
  0
VERTEX
  5
27489
  8
0
 10
107.83805450958759
 20
254.48455766061809
 30
0.0
  0
VERTEX
  5
2748A
  8
0
 10
107.826284790461
 20
254.5524121597382
 30
0.0
  0
VERTEX
  5
2748B
  8
0
 10
107.80438975384649
 20
254.69051421667379
 30
0.0
  0
VERTEX
  5
2748C
  8
0
 10
107.7846315347855
 20
254.8317542265477
 30
0.0
  0
VERTEX
  5
2748D
  8
0
 10
107.76693820652019
 20
254.97606308405059
 30
0.0
  0
VERTEX
  5
2748E
  8
0
 10
107.7512323729713
 20
255.12336575801049
 30
0.0
  0
VERTEX
  5
2748F
  8
0
 10
107.73743159604101
 20
255.2735820207831
 30
0.0
  0
VERTEX
  5
27490
  8
0
 10
107.7312185827991
 20
255.34975643655119
 30
0.0
  0
VERTEX
  5
27491
  8
0
 10
107.7254488856917
 20
255.42662718260499
 30
0.0
  0
VERTEX
  5
27492
  8
0
 10
107.71519323727961
 20
255.5824128306044
 30
0.0
  0
VERTEX
  5
27493
  8
0
 10
107.70657020248819
 20
255.7408475732486
 30
0.0
  0
VERTEX
  5
27494
  8
0
 10
107.6994824812511
 20
255.90183780918051
 30
0.0
  0
VERTEX
  5
27495
  8
0
 10
107.6938305048722
 20
256.06528920143728
 30
0.0
  0
VERTEX
  5
27496
  8
0
 10
107.68951320261949
 20
256.23110151082568
 30
0.0
  0
VERTEX
  5
27497
  8
0
 10
107.6878231610644
 20
256.31486007003832
 30
0.0
  0
VERTEX
  5
27498
  8
0
 10
107.6864284142343
 20
256.39916886208681
 30
0.0
  0
VERTEX
  5
27499
  8
0
 10
107.68447331738651
 20
256.56938180016101
 30
0.0
  0
VERTEX
  5
2749A
  8
0
 10
107.6835449440066
 20
256.74162787220388
 30
0.0
  0
VERTEX
  5
2749B
  8
0
 10
107.6834336902463
 20
256.82847751804411
 30
0.0
  0
SEQEND
  5
2749C
  8
0
  0
POLYLINE
  5
23F2A
  8
0
 66
     1
 10
0.0
 20
0.0
 30
0.0
  0
VERTEX
  5
2749D
  8
0
 10
111.6834336902464
 20
249.10005466626041
 30
0.0
  0
VERTEX
  5
2749E
  8
0
 10
111.5301614918815
 20
249.19083659561471
 30
0.0
  0
VERTEX
  5
2749F
  8
0
 10
111.2298701411875
 20
249.382524549907
 30
0.0
  0
VERTEX
  5
274A0
  8
0
 10
110.9384107057494
 20
249.58739173765659
 30
0.0
  0
VERTEX
  5
274A1
  8
0
 10
110.7961742959769
 20
249.69464158252319
 30
0.0
  0
VERTEX
  5
274A2
  8
0
 10
110.6563611822671
 20
249.8050318842879
 30
0.0
  0
VERTEX
  5
274A3
  8
0
 10
110.3842809065313
 20
250.03501338501749
 30
0.0
  0
VERTEX
  5
274A4
  8
0
 10
110.12270944419799
 20
250.27688016077451
 30
0.0
  0
VERTEX
  5
274A5
  8
0
 10
109.8721655207695
 20
250.53015256265689
 30
0.0
  0
VERTEX
  5
274A6
  8
0
 10
109.63314599290329
 20
250.79432832312929
 30
0.0
  0
VERTEX
  5
274A7
  8
0
 10
109.4061248630903
 20
251.06888355207369
 30
0.0
  0
VERTEX
  5
274A8
  8
0
 10
109.2972553417579
 20
251.2098840939652
 30
0.0
  0
VERTEX
  5
274A9
  8
0
 10
109.19155233965409
 20
251.353273775725
 30
0.0
  0
VERTEX
  5
274AA
  8
0
 10
108.9898539439377
 20
251.64693501642211
 30
0.0
  0
VERTEX
  5
274AB
  8
0
 10
108.8014296664474
 20
251.9492849110384
 30
0.0
  0
VERTEX
  5
274AC
  8
0
 10
108.62665317362639
 20
252.25972386587409
 30
0.0
  0
VERTEX
  5
274AD
  8
0
 10
108.46587106683251
 20
252.5776362457168
 30
0.0
  0
VERTEX
  5
274AE
  8
0
 10
108.3194021949888
 20
252.90239159471551
 30
0.0
  0
VERTEX
  5
274AF
  8
0
 10
108.251627117148
 20
253.0671346197955
 30
0.0
  0
VERTEX
  5
274B0
  8
0
 10
108.1875370222708
 20
253.23334588664471
 30
0.0
  0
VERTEX
  5
274B1
  8
0
 10
108.0705370520829
 20
253.56984280208141
 30
0.0
  0
VERTEX
  5
274B2
  8
0
 10
107.96863430846869
 20
253.9112150299589
 30
0.0
  0
VERTEX
  5
274B3
  8
0
 10
107.92340872892819
 20
254.08351817109181
 30
0.0
  0
SEQEND
  5
274B4
  8
0
  0
POLYLINE
  5
23F2B
  8
0
 66
     1
 10
0.0
 20
0.0
 30
0.0
  0
VERTEX
  5
274B5
  8
0
 10
105.87435690390809
 20
254.08351817109181
 30
0.0
  0
VERTEX
  5
274B6
  8
0
 10
105.91107065213529
 20
253.90672056446741
 30
0.0
  0
VERTEX
  5
274B7
  8
0
 10
105.9940440618693
 20
253.55525797144489
 30
0.0
  0
VERTEX
  5
274B8
  8
0
 10
106.08965345703881
 20
253.20702043100479
 30
0.0
  0
VERTEX
  5
274B9
  8
0
 10
106.1421583245814
 20
253.03425315429601
 30
0.0
  0
VERTEX
  5
274BA
  8
0
 10
106.19777415291441
 20
252.86246208160631
 30
0.0
  0
VERTEX
  5
274BB
  8
0
 10
106.3182651487117
 20
252.52203226365779
 30
0.0
  0
VERTEX
  5
274BC
  8
0
 10
106.4509693114711
 20
252.18617493352619
 30
0.0
  0
VERTEX
  5
274BD
  8
0
 10
106.595713580976
 20
251.8553280845731
 30
0.0
  0
VERTEX
  5
274BE
  8
0
 10
106.7523091954416
 20
251.52992317596409
 30
0.0
  0
VERTEX
  5
274BF
  8
0
 10
106.9205519376796
 20
251.2103845700012
 30
0.0
  0
VERTEX
  5
274C0
  8
0
 10
107.0089730028875
 20
251.0529456667891
 30
0.0
  0
VERTEX
  5
274C1
  8
0
 10
107.1002224014199
 20
250.8971289787082
 30
0.0
  0
VERTEX
  5
274C2
  8
0
 10
107.2910862774385
 20
250.59056492039781
 30
0.0
  0
VERTEX
  5
274C3
  8
0
 10
107.4928946591223
 20
250.2910921869165
 30
0.0
  0
VERTEX
  5
274C4
  8
0
 10
107.7053843670686
 20
249.99910132227569
 30
0.0
  0
VERTEX
  5
274C5
  8
0
 10
107.92827829229979
 20
249.71497311334221
 30
0.0
  0
VERTEX
  5
274C6
  8
0
 10
108.1612857576423
 20
249.4390780932504
 30
0.0
  0
VERTEX
  5
274C7
  8
0
 10
108.2814876141174
 20
249.3043308976699
 30
0.0
  0
VERTEX
  5
274C8
  8
0
 10
108.4041028967997
 20
249.17177605818921
 30
0.0
  0
VERTEX
  5
274C9
  8
0
 10
108.65641305062719
 20
248.91341559818741
 30
0.0
  0
VERTEX
  5
274CA
  8
0
 10
108.9178871800883
 20
248.66433364251949
 30
0.0
  0
VERTEX
  5
274CB
  8
0
 10
109.0519546311328
 20
248.54337409726801
 30
0.0
  0
SEQEND
  5
274CC
  8
0
  0
LINE
  5
23F2C
  8
0
 10
112.64763271932701
 20
248.54337409726801
 30
0.0
 11
111.6834336902464
 21
249.10005466626041
 31
0.0
  0
LINE
  5
23F2D
  8
0
 10
109.0519546311328
 20
248.54337409726801
 30
0.0
 11
110.6834336902464
 21
247.1288299068701
 31
0.0
  0
POLYLINE
  5
23F2E
  8
0
 66
     1
 10
0.0
 20
0.0
 30
0.0
  0
VERTEX
  5
274CD
  8
0
 10
110.6834336902464
 20
247.1288299068701
 30
0.0
  0
VERTEX
  5
274CE
  8
0
 10
110.8089890549867
 20
247.0216707247873
 30
0.0
  0
VERTEX
  5
274CF
  8
0
 10
111.05284401904891
 20
246.80458392648421
 30
0.0
  0
VERTEX
  5
274D0
  8
0
 10
111.2868892578897
 20
246.58392725223979
 30
0.0
  0
VERTEX
  5
274D1
  8
0
 10
111.40018400541111
 20
246.47230628540271
 30
0.0
  0
SEQEND
  5
274D2
  8
0
  0
POLYLINE
  5
23F2F
  8
0
 66
     1
 10
0.0
 20
0.0
 30
0.0
  0
VERTEX
  5
274D3
  8
0
 10
115.40018400541111
 20
246.47230628540271
 30
0.0
  0
VERTEX
  5
274D4
  8
0
 10
115.3368087804092
 20
246.53515266304791
 30
0.0
  0
VERTEX
  5
274D5
  8
0
 10
115.20769196540409
 20
246.6600388670077
 30
0.0
  0
VERTEX
  5
274D6
  8
0
 10
115.0754428272364
 20
246.7838276780117
 30
0.0
  0
VERTEX
  5
274D7
  8
0
 10
115.00815235358
 20
246.84530236887079
 30
0.0
  0
VERTEX
  5
274D8
  8
0
 10
114.94008934137921
 20
246.90649291025241
 30
0.0
  0
VERTEX
  5
274D9
  8
0
 10
114.80166013998721
 20
247.02800861559851
 30
0.0
  0
VERTEX
  5
274DA
  8
0
 10
114.66018450583999
 20
247.14834908908691
 30
0.0
  0
VERTEX
  5
274DB
  8
0
 10
114.515692366148
 20
247.26748887435721
 30
0.0
  0
VERTEX
  5
274DC
  8
0
 10
114.3682142862217
 20
247.38540276903859
 30
0.0
  0
VERTEX
  5
274DD
  8
0
 10
114.21778146300549
 20
247.50206583008
 30
0.0
  0
VERTEX
  5
274DE
  8
0
 10
114.14146694280009
 20
247.55992057548971
 30
0.0
  0
VERTEX
  5
274DF
  8
0
 10
114.0644257184791
 20
247.61745337902721
 30
0.0
  0
VERTEX
  5
274E0
  8
0
 10
113.9081794929257
 20
247.73154100724329
 30
0.0
  0
VERTEX
  5
274E1
  8
0
 10
113.7490758380696
 20
247.84430458107039
 30
0.0
  0
VERTEX
  5
274E2
  8
0
 10
113.58714841008459
 20
247.95572024693729
 30
0.0
  0
VERTEX
  5
274E3
  8
0
 10
113.422431462475
 20
248.0657644364033
 30
0.0
  0
VERTEX
  5
274E4
  8
0
 10
113.2549598388289
 20
248.17441387114471
 30
0.0
  0
VERTEX
  5
274E5
  8
0
 10
113.17020207165319
 20
248.2282083615591
 30
0.0
  0
VERTEX
  5
274E6
  8
0
 10
113.08476896544791
 20
248.28164556787851
 30
0.0
  0
VERTEX
  5
274E7
  8
0
 10
112.9118948438536
 20
248.38743684322529
 30
0.0
  0
VERTEX
  5
274E8
  8
0
 10
112.73637404317149
 20
248.4917653185062
 30
0.0
  0
VERTEX
  5
274E9
  8
0
 10
112.64763271932701
 20
248.54337409726801
 30
0.0
  0
SEQEND
  5
274EA
  8
0
  0
LINE
  5
23F30
  8
0
 10
105.6834336902463
 20
350.52399309110621
 30
0.0
 11
105.6834336902463
 21
256.82847751804411
 31
0.0
  0
LINE
  5
23F31
  8
0
 10
116.9334336902464
 20
244.93905660056731
 30
0.0
 11
115.40018400541111
 21
246.47230628540271
 31
0.0
  0
LINE
  5
23F32
  8
0
 10
111.40018400541111
 20
246.47230628540271
 30
0.0
 11
115.9334336902464
 21
241.9390566005672
 31
0.0
  0
POLYLINE
  5
23F33
  8
0
 66
     1
 10
0.0
 20
0.0
 30
0.0
  0
VERTEX
  5
274EB
  8
0
 10
115.9334336902464
 20
241.9390566005672
 30
0.0
  0
VERTEX
  5
274EC
  8
0
 10
116.0433208850868
 20
241.82812572300921
 30
0.0
  0
VERTEX
  5
274ED
  8
0
 10
116.26150018958781
 20
241.60159737841741
 30
0.0
  0
VERTEX
  5
274EE
  8
0
 10
116.4775038046763
 20
241.36889793181899
 30
0.0
  0
VERTEX
  5
274EF
  8
0
 10
116.5846715250934
 20
241.25025356630931
 30
0.0
  0
VERTEX
  5
274F0
  8
0
 10
116.6912735534632
 20
241.1300900568404
 30
0.0
  0
VERTEX
  5
274F1
  8
0
 10
116.90275186071329
 20
240.88523807230919
 30
0.0
  0
VERTEX
  5
274F2
  8
0
 10
117.11188176835201
 20
240.6344079249302
 30
0.0
  0
VERTEX
  5
274F3
  8
0
 10
117.3186069508062
 20
240.37766717152499
 30
0.0
  0
VERTEX
  5
274F4
  8
0
 10
117.5228717301743
 20
240.11508496083621
 30
0.0
  0
VERTEX
  5
274F5
  8
0
 10
117.7246210912224
 20
239.8467320149025
 30
0.0
  0
VERTEX
  5
274F6
  8
0
 10
117.8245354824641
 20
239.71041404237579
 30
0.0
  0
VERTEX
  5
274F7
  8
0
 10
117.9238006962016
 20
239.5726806100129
 30
0.0
  0
VERTEX
  5
274F8
  8
0
 10
118.1203568994831
 20
239.29300455723799
 30
0.0
  0
VERTEX
  5
274F9
  8
0
 10
118.3142367620065
 20
239.00777918255201
 30
0.0
  0
VERTEX
  5
274FA
  8
0
 10
118.505388065538
 20
238.71708130654361
 30
0.0
  0
VERTEX
  5
274FB
  8
0
 10
118.69375932673481
 20
238.42098922372719
 30
0.0
  0
VERTEX
  5
274FC
  8
0
 10
118.87929981101099
 20
238.11958268145469
 30
0.0
  0
VERTEX
  5
274FD
  8
0
 10
118.97099286535099
 20
237.96691180105199
 30
0.0
  0
VERTEX
  5
274FE
  8
0
 10
119.0619595462021
 20
237.8129428584362
 30
0.0
  0
VERTEX
  5
274FF
  8
0
 10
119.24168933602461
 20
237.5011523428775
 30
0.0
  0
VERTEX
  5
27500
  8
0
 10
119.4184407733252
 20
237.1842951102353
 30
0.0
  0
VERTEX
  5
27501
  8
0
 10
119.5056847015353
 20
237.02399309110609
 30
0.0
  0
SEQEND
  5
27502
  8
0
  0
POLYLINE
  5
23F34
  8
0
 66
     1
 10
0.0
 20
0.0
 30
0.0
  0
VERTEX
  5
27503
  8
0
 10
122.1187617438888
 20
237.02399309110609
 30
0.0
  0
VERTEX
  5
27504
  8
0
 10
122.0010125140862
 20
237.28942074595221
 30
0.0
  0
VERTEX
  5
27505
  8
0
 10
121.7604732369077
 20
237.81343871987201
 30
0.0
  0
VERTEX
  5
27506
  8
0
 10
121.5133109908971
 20
238.3281276949138
 30
0.0
  0
VERTEX
  5
27507
  8
0
 10
121.387283807278
 20
238.5818951677729
 30
0.0
  0
VERTEX
  5
27508
  8
0
 10
121.2596463434174
 20
238.83323660242289
 30
0.0
  0
VERTEX
  5
27509
  8
0
 10
120.9996030337452
 20
239.32851904696551
 30
0.0
  0
VERTEX
  5
2750A
  8
0
 10
120.7333079127104
 20
239.81373342652111
 30
0.0
  0
VERTEX
  5
2750B
  8
0
 10
120.4608908808178
 20
240.28864305033679
 30
0.0
  0
VERTEX
  5
2750C
  8
0
 10
120.18248482487979
 20
240.75301625438621
 30
0.0
  0
VERTEX
  5
2750D
  8
0
 10
119.89822555319449
 20
241.20662651437939
 30
0.0
  0
VERTEX
  5
2750E
  8
0
 10
119.7539441841087
 20
241.4293261841554
 30
0.0
  0
VERTEX
  5
2750F
  8
0
 10
119.6082517292966
 20
241.6492525562594
 30
0.0
  0
VERTEX
  5
27510
  8
0
 10
119.31270480431709
 20
242.0806784641436
 30
0.0
  0
VERTEX
  5
27511
  8
0
 10
119.01172894798211
 20
242.5006937856474
 30
0.0
  0
VERTEX
  5
27512
  8
0
 10
118.7054709782858
 20
242.90909363454651
 30
0.0
  0
VERTEX
  5
27513
  8
0
 10
118.39408028987209
 20
243.3056787907185
 30
0.0
  0
VERTEX
  5
27514
  8
0
 10
118.0777087811589
 20
243.6902557973267
 30
0.0
  0
VERTEX
  5
27515
  8
0
 10
117.9177033538607
 20
243.8779823884629
 30
0.0
  0
VERTEX
  5
27516
  8
0
 10
117.7565107802404
 20
244.06263705518771
 30
0.0
  0
VERTEX
  5
27517
  8
0
 10
117.4306429696057
 20
244.4226409142843
 30
0.0
  0
VERTEX
  5
27518
  8
0
 10
117.1002643097075
 20
244.7700917623765
 30
0.0
  0
VERTEX
  5
27519
  8
0
 10
116.9334336902464
 20
244.93905660056731
 30
0.0
  0
SEQEND
  5
2751A
  8
0
  0
POLYLINE
  5
23F35
  8
0
 66
     1
 10
0.0
 20
0.0
 30
0.0
  0
VERTEX
  5
2751B
  8
0
 10
119.5056847015354
 20
237.02399309110609
 30
0.0
  0
VERTEX
  5
2751C
  8
0
 10
119.6415882169599
 20
236.77719655845701
 30
0.0
  0
VERTEX
  5
2751D
  8
0
 10
119.918943812786
 20
236.3006083806508
 30
0.0
  0
VERTEX
  5
2751E
  8
0
 10
120.19994844672181
 20
235.8481503167705
 30
0.0
  0
VERTEX
  5
2751F
  8
0
 10
120.3404747530345
 20
235.6315006956425
 30
0.0
  0
VERTEX
  5
27520
  8
0
 10
120.4803350005043
 20
235.42151021972859
 30
0.0
  0
VERTEX
  5
27521
  8
0
 10
120.7561385491701
 20
235.02226248399941
 30
0.0
  0
VERTEX
  5
27522
  8
0
 10
121.030345245642
 20
234.64285534758849
 30
0.0
  0
VERTEX
  5
27523
  8
0
 10
121.305435383575
 20
234.2780695419074
 30
0.0
  0
VERTEX
  5
27524
  8
0
 10
121.577866563756
 20
233.93140311093339
 30
0.0
  0
VERTEX
  5
27525
  8
0
 10
121.8442212961593
 20
233.60607351254839
 30
0.0
  0
VERTEX
  5
27526
  8
0
 10
121.9741020232928
 20
233.4523378733725
 30
0.0
  0
VERTEX
  5
27527
  8
0
 10
122.1012640767146
 20
233.3050211452437
 30
0.0
  0
VERTEX
  5
27528
  8
0
 10
122.34595020441689
 20
233.03095006342571
 30
0.0
  0
VERTEX
  5
27529
  8
0
 10
122.57550011665759
 20
232.78627518961869
 30
0.0
  0
VERTEX
  5
2752A
  8
0
 10
122.78758213697721
 20
232.5729636730421
 30
0.0
  0
VERTEX
  5
2752B
  8
0
 10
122.9800374409206
 20
232.3928441650678
 30
0.0
  0
VERTEX
  5
2752C
  8
0
 10
123.15099808964921
 20
232.24745845802269
 30
0.0
  0
VERTEX
  5
2752D
  8
0
 10
123.22795189583709
 20
232.18815446412191
 30
0.0
  0
VERTEX
  5
2752E
  8
0
 10
123.2402095965526
 20
232.17914938394051
 30
0.0
  0
VERTEX
  5
2752F
  8
0
 10
123.2642329404234
 20
232.16189613248619
 30
0.0
  0
VERTEX
  5
27530
  8
0
 10
123.2875966566675
 20
232.1456543546378
 30
0.0
  0
VERTEX
  5
27531
  8
0
 10
123.2990298970462
 20
232.13791353626269
 30
0.0
  0
VERTEX
  5
27532
  8
0
 10
123.31029676239881
 20
232.130426463611
 30
0.0
  0
VERTEX
  5
27533
  8
0
 10
123.3323296044622
 20
232.1162145142703
 30
0.0
  0
VERTEX
  5
27534
  8
0
 10
123.3536918717391
 20
232.10302018821679
 30
0.0
  0
VERTEX
  5
27535
  8
0
 10
123.37438060650661
 20
232.090844780233
 30
0.0
  0
VERTEX
  5
27536
  8
0
 10
123.39439321480999
 20
232.07968918614139
 30
0.0
  0
VERTEX
  5
27537
  8
0
 10
123.4137274758112
 20
232.06955389211501
 30
0.0
  0
VERTEX
  5
27538
  8
0
 10
123.4231396361472
 20
232.06486889524919
 30
0.0
  0
VERTEX
  5
27539
  8
0
 10
123.4323815500746
 20
232.06043896548999
 30
0.0
  0
VERTEX
  5
2753A
  8
0
 10
123.4503539867561
 20
232.05234404712971
 30
0.0
  0
VERTEX
  5
2753B
  8
0
 10
123.4676437296624
 20
232.04526834537461
 30
0.0
  0
VERTEX
  5
2753C
  8
0
 10
123.484250122148
 20
232.0392106316344
 30
0.0
  0
VERTEX
  5
2753D
  8
0
 10
123.5001729108221
 20
232.03416923765829
 30
0.0
  0
VERTEX
  5
2753E
  8
0
 10
123.515412248038
 20
232.0301420545261
 30
0.0
  0
VERTEX
  5
2753F
  8
0
 10
123.5227757812381
 20
232.02850801264279
 30
0.0
  0
VERTEX
  5
27540
  8
0
 10
123.5299686931405
 20
232.02712653340589
 30
0.0
  0
VERTEX
  5
27541
  8
0
 10
123.5438432124492
 20
232.02511968811311
 30
0.0
  0
VERTEX
  5
27542
  8
0
 10
123.5570371779592
 20
232.02411809950951
 30
0.0
  0
VERTEX
  5
27543
  8
0
 10
123.5633794921023
 20
232.02399309110609
 30
0.0
  0
SEQEND
  5
27544
  8
0
  0
POLYLINE
  5
23F36
  8
0
 66
     1
 10
0.0
 20
0.0
 30
0.0
  0
VERTEX
  5
27545
  8
0
 10
125.5771892613709
 20
232.02399309110609
 30
0.0
  0
VERTEX
  5
27546
  8
0
 10
125.5419932127638
 20
232.02834606941181
 30
0.0
  0
VERTEX
  5
27547
  8
0
 10
125.45578128775971
 20
232.06350846348909
 30
0.0
  0
VERTEX
  5
27548
  8
0
 10
125.3485153187262
 20
232.13440617565951
 30
0.0
  0
VERTEX
  5
27549
  8
0
 10
125.2871092119921
 20
232.1833002071248
 30
0.0
  0
VERTEX
  5
2754A
  8
0
 10
125.2206391269237
 20
232.2411186455756
 30
0.0
  0
VERTEX
  5
2754B
  8
0
 10
125.0730068760365
 20
232.3832455941747
 30
0.0
  0
VERTEX
  5
2754C
  8
0
 10
124.9068811509876
 20
232.5599333680407
 30
0.0
  0
VERTEX
  5
2754D
  8
0
 10
124.7239242111893
 20
232.76988569438339
 30
0.0
  0
VERTEX
  5
2754E
  8
0
 10
124.52607495357459
 20
233.01150230511351
 30
0.0
  0
VERTEX
  5
2754F
  8
0
 10
124.315444867274
 20
233.2830203115727
 30
0.0
  0
VERTEX
  5
27550
  8
0
 10
124.20611078847941
 20
233.4293096181955
 30
0.0
  0
VERTEX
  5
27551
  8
0
 10
124.09454279585781
 20
233.58221277898659
 30
0.0
  0
VERTEX
  5
27552
  8
0
 10
123.8661113068658
 20
233.90653871208539
 30
0.0
  0
VERTEX
  5
27553
  8
0
 10
123.6330527446253
 20
234.25319295655891
 30
0.0
  0
VERTEX
  5
27554
  8
0
 10
123.39841189560509
 20
234.6190610002937
 30
0.0
  0
VERTEX
  5
27555
  8
0
 10
123.1653156010946
 20
235.00071187681669
 30
0.0
  0
VERTEX
  5
27556
  8
0
 10
122.931924124974
 20
235.4032042699323
 30
0.0
  0
VERTEX
  5
27557
  8
0
 10
122.8140507433081
 20
235.61517848009231
 30
0.0
  0
VERTEX
  5
27558
  8
0
 10
122.6959710238168
 20
235.8340476479739
 30
0.0
  0
VERTEX
  5
27559
  8
0
 10
122.4610227171805
 20
236.29160621079109
 30
0.0
  0
VERTEX
  5
2755A
  8
0
 10
122.23084564320619
 20
236.7740517304492
 30
0.0
  0
VERTEX
  5
2755B
  8
0
 10
122.1187617438888
 20
237.02399309110609
 30
0.0
  0
SEQEND
  5
2755C
  8
0
  0
LINE
  5
23F37
  8
0
 10
125.6834336902463
 20
232.02399309110609
 30
0.0
 11
123.5633794921023
 21
232.02399309110609
 31
0.0
  0
POLYLINE
  5
23F38
  8
0
 66
     1
 10
0.0
 20
0.0
 30
0.0
  0
VERTEX
  5
2755D
  8
0
 10
123.5633794921023
 20
232.02399309110609
 30
0.0
  0
VERTEX
  5
2755E
  8
0
 10
123.5570294601096
 20
232.0241184000156
 30
0.0
  0
VERTEX
  5
2755F
  8
0
 10
123.5438176475694
 20
232.02512253000299
 30
0.0
  0
VERTEX
  5
27560
  8
0
 10
123.5299219313419
 20
232.02713479709971
 30
0.0
  0
VERTEX
  5
27561
  8
0
 10
123.52271711782799
 20
232.0285201719739
 30
0.0
  0
SEQEND
  5
27562
  8
0
  0
POLYLINE
  5
23F39
  8
0
 66
     1
 10
0.0
 20
0.0
 30
0.0
  0
VERTEX
  5
27563
  8
0
 10
123.4070709329189
 20
232.0729679609658
 30
0.0
  0
VERTEX
  5
27564
  8
0
 10
123.38642816090881
 20
232.0840518937348
 30
0.0
  0
VERTEX
  5
27565
  8
0
 10
123.3428839897706
 20
232.10962026459359
 30
0.0
  0
VERTEX
  5
27566
  8
0
 10
123.29634896792879
 20
232.1397159310086
 30
0.0
  0
VERTEX
  5
27567
  8
0
 10
123.27196933217419
 20
232.1564570951723
 30
0.0
  0
VERTEX
  5
27568
  8
0
 10
123.2468541810303
 20
232.17432384073339
 30
0.0
  0
VERTEX
  5
27569
  8
0
 10
123.1944374646543
 20
232.2134214889561
 30
0.0
  0
VERTEX
  5
2756A
  8
0
 10
123.1391428594694
 20
232.25697960656501
 30
0.0
  0
VERTEX
  5
2756B
  8
0
 10
123.0810208633461
 20
232.30496221749129
 30
0.0
  0
VERTEX
  5
2756C
  8
0
 10
123.02012943990491
 20
232.3573259007635
 30
0.0
  0
VERTEX
  5
2756D
  8
0
 10
122.95653397853469
 20
232.4140197682496
 30
0.0
  0
VERTEX
  5
2756E
  8
0
 10
122.9237446203142
 20
232.4439726339692
 30
0.0
  0
VERTEX
  5
2756F
  8
0
 10
122.8903069720245
 20
232.4749857056554
 30
0.0
  0
VERTEX
  5
27570
  8
0
 10
122.82152763017351
 20
232.54015871153709
 30
0.0
  0
VERTEX
  5
27571
  8
0
 10
122.75028143841691
 20
232.60946732125191
 30
0.0
  0
VERTEX
  5
27572
  8
0
 10
122.6766596699178
 20
232.68283410401139
 30
0.0
  0
VERTEX
  5
27573
  8
0
 10
122.6007588587416
 20
232.7601762226864
 30
0.0
  0
VERTEX
  5
27574
  8
0
 10
122.52267967454711
 20
232.84140664260261
 30
0.0
  0
VERTEX
  5
27575
  8
0
 10
122.4828499750456
 20
232.883457803699
 30
0.0
  0
VERTEX
  5
27576
  8
0
 10
122.44250817354209
 20
232.9264542977167
 30
0.0
  0
VERTEX
  5
27577
  8
0
 10
122.36034306547251
 20
233.01523621764821
 30
0.0
  0
VERTEX
  5
27578
  8
0
 10
122.27629742938591
 20
233.10765470513891
 30
0.0
  0
VERTEX
  5
27579
  8
0
 10
122.233606204037
 20
233.1551956204348
 30
0.0
  0
SEQEND
  5
2757A
  8
0
  0
POLYLINE
  5
23F3A
  8
0
 66
     1
 10
0.0
 20
0.0
 30
0.0
  0
VERTEX
  5
2757B
  8
0
 10
121.0647458799844
 20
234.59639760849129
 30
0.0
  0
VERTEX
  5
2757C
  8
0
 10
120.87709955354291
 20
234.85285758373399
 30
0.0
  0
VERTEX
  5
2757D
  8
0
 10
120.49984870769779
 20
235.39263286894271
 30
0.0
  0
VERTEX
  5
2757E
  8
0
 10
120.11474536708511
 20
235.98248916534109
 30
0.0
  0
VERTEX
  5
2757F
  8
0
 10
119.9222123215536
 20
236.2951829205972
 30
0.0
  0
SEQEND
  5
27580
  8
0
  0
POLYLINE
  5
23F3B
  8
0
 66
     1
 10
0.0
 20
0.0
 30
0.0
  0
VERTEX
  5
27581
  8
0
 10
109.0519546311328
 20
248.54337409726801
 30
0.0
  0
VERTEX
  5
27582
  8
0
 10
108.9178871800883
 20
248.66433364251949
 30
0.0
  0
VERTEX
  5
27583
  8
0
 10
108.65641305062729
 20
248.91341559818741
 30
0.0
  0
VERTEX
  5
27584
  8
0
 10
108.4041028967997
 20
249.17177605818921
 30
0.0
  0
VERTEX
  5
27585
  8
0
 10
108.28148761411749
 20
249.3043308976699
 30
0.0
  0
VERTEX
  5
27586
  8
0
 10
108.1612857576423
 20
249.4390780932504
 30
0.0
  0
VERTEX
  5
27587
  8
0
 10
107.92827829229979
 20
249.71497311334221
 30
0.0
  0
VERTEX
  5
27588
  8
0
 10
107.7053843670686
 20
249.99910132227569
 30
0.0
  0
VERTEX
  5
27589
  8
0
 10
107.4928946591223
 20
250.2910921869161
 30
0.0
  0
VERTEX
  5
2758A
  8
0
 10
107.2910862774385
 20
250.59056492039781
 30
0.0
  0
VERTEX
  5
2758B
  8
0
 10
107.1002224014199
 20
250.8971289787082
 30
0.0
  0
VERTEX
  5
2758C
  8
0
 10
107.0089730028875
 20
251.0529456667891
 30
0.0
  0
VERTEX
  5
2758D
  8
0
 10
106.9205519376796
 20
251.2103845700012
 30
0.0
  0
VERTEX
  5
2758E
  8
0
 10
106.7523091954416
 20
251.52992317596409
 30
0.0
  0
VERTEX
  5
2758F
  8
0
 10
106.595713580976
 20
251.8553280845731
 30
0.0
  0
VERTEX
  5
27590
  8
0
 10
106.4509693114711
 20
252.18617493352619
 30
0.0
  0
VERTEX
  5
27591
  8
0
 10
106.3182651487117
 20
252.52203226365779
 30
0.0
  0
VERTEX
  5
27592
  8
0
 10
106.19777415291441
 20
252.86246208160631
 30
0.0
  0
VERTEX
  5
27593
  8
0
 10
106.1421583245814
 20
253.03425315429601
 30
0.0
  0
VERTEX
  5
27594
  8
0
 10
106.08965345703881
 20
253.20702043100479
 30
0.0
  0
VERTEX
  5
27595
  8
0
 10
105.9940440618693
 20
253.55525797144489
 30
0.0
  0
VERTEX
  5
27596
  8
0
 10
105.91107065213529
 20
253.90672056446741
 30
0.0
  0
VERTEX
  5
27597
  8
0
 10
105.87435690390809
 20
254.08351817109181
 30
0.0
  0
SEQEND
  5
27598
  8
0
  0
LINE
  5
23F3C
  8
0
 10
155.18953417033509
 20
341.52399309110621
 30
0.0
 11
141.1773332101576
 21
341.52399309110621
 31
0.0
  0
POLYLINE
  5
23F3D
  8
0
 66
     1
 10
0.0
 20
0.0
 30
0.0
  0
VERTEX
  5
27599
  8
0
 10
158.3616114249634
 20
343.544829175014
 30
0.0
  0
VERTEX
  5
2759A
  8
0
 10
158.3537989216918
 20
343.52818943309421
 30
0.0
  0
VERTEX
  5
2759B
  8
0
 10
158.3379122743591
 20
343.49503419234452
 30
0.0
  0
VERTEX
  5
2759C
  8
0
 10
158.32167823741449
 20
343.46204765574072
 30
0.0
  0
VERTEX
  5
2759D
  8
0
 10
158.3134315061119
 20
343.44561878964078
 30
0.0
  0
VERTEX
  5
2759E
  8
0
 10
158.30509860210921
 20
343.42923346299182
 30
0.0
  0
VERTEX
  5
2759F
  8
0
 10
158.2881751978272
 20
343.3965952347898
 30
0.0
  0
VERTEX
  5
275A0
  8
0
 10
158.2709098918838
 20
343.36413657241241
 30
0.0
  0
VERTEX
  5
275A1
  8
0
 10
158.2533045893199
 20
343.33186105732329
 30
0.0
  0
VERTEX
  5
275A2
  8
0
 10
158.23536123269059
 20
343.29977225077761
 30
0.0
  0
VERTEX
  5
275A3
  8
0
 10
158.21708180185229
 20
343.26787369342992
 30
0.0
  0
VERTEX
  5
275A4
  8
0
 10
158.20781668745551
 20
343.2519968589304
 30
0.0
  0
VERTEX
  5
275A5
  8
0
 10
158.19846831374321
 20
343.23616890494208
 30
0.0
  0
VERTEX
  5
275A6
  8
0
 10
158.17952282216129
 20
343.20466138359637
 30
0.0
  0
VERTEX
  5
275A7
  8
0
 10
158.16024741753739
 20
343.17335460590812
 30
0.0
  0
VERTEX
  5
275A8
  8
0
 10
158.09021646801409
 20
343.06541140837447
 30
0.0
  0
VERTEX
  5
275A9
  8
0
 10
158.02706595543091
 20
342.97499007291162
 30
0.0
  0
VERTEX
  5
275AA
  8
0
 10
157.96109783050181
 20
342.88660335649001
 30
0.0
  0
VERTEX
  5
275AB
  8
0
 10
157.8209734965115
 20
342.71628273825581
 30
0.0
  0
VERTEX
  5
275AC
  8
0
 10
157.67039989053069
 20
342.55512588561351
 30
0.0
  0
VERTEX
  5
275AD
  8
0
 10
157.50997493041649
 20
342.40377274179349
 30
0.0
  0
VERTEX
  5
275AE
  8
0
 10
157.34033565310381
 20
342.26282432014699
 30
0.0
  0
VERTEX
  5
275AF
  8
0
 10
157.16215568497299
 20
342.13284031755938
 30
0.0
  0
VERTEX
  5
275B0
  8
0
 10
157.070082799549
 20
342.0721230307613
 30
0.0
  0
VERTEX
  5
275B1
  8
0
 10
156.97614256692469
 20
342.01433689193072
 30
0.0
  0
VERTEX
  5
275B2
  8
0
 10
156.78303494478089
 20
341.9077846125474
 30
0.0
  0
VERTEX
  5
275B3
  8
0
 10
156.5835996361713
 20
341.81360659148322
 30
0.0
  0
VERTEX
  5
275B4
  8
0
 10
156.3786285855517
 20
341.73217680344669
 30
0.0
  0
VERTEX
  5
275B5
  8
0
 10
156.1689357194436
 20
341.66381860075541
 30
0.0
  0
VERTEX
  5
275B6
  8
0
 10
155.9553537143868
 20
341.60880342932342
 30
0.0
  0
VERTEX
  5
275B7
  8
0
 10
155.84736881073559
 20
341.58636984445911
 30
0.0
  0
VERTEX
  5
275B8
  8
0
 10
155.7387306904352
 20
341.56734975076728
 30
0.0
  0
VERTEX
  5
275B9
  8
0
 10
155.51992684332799
 20
341.53962217491022
 30
0.0
  0
VERTEX
  5
275BA
  8
0
 10
155.2998110287096
 20
341.52573080612729
 30
0.0
  0
VERTEX
  5
275BB
  8
0
 10
155.18953417033509
 20
341.52399309110621
 30
0.0
  0
SEQEND
  5
275BC
  8
0
  0
LINE
  5
23F3E
  8
0
 10
160.27957740090261
 20
347.65792048371708
 30
0.0
 11
158.3616114249634
 21
343.544829175014
 31
0.0
  0
POLYLINE
  5
23F3F
  8
0
 66
     1
 10
0.0
 20
0.0
 30
0.0
  0
VERTEX
  5
275BD
  8
0
 10
161.63903908145761
 20
348.52399309110609
 30
0.0
  0
VERTEX
  5
275BE
  8
0
 10
161.62576258012641
 20
348.52393433479301
 30
0.0
  0
VERTEX
  5
275BF
  8
0
 10
161.59388572741881
 20
348.52331332862008
 30
0.0
  0
VERTEX
  5
275C0
  8
0
 10
161.5549170173872
 20
348.5216323929198
 30
0.0
  0
VERTEX
  5
275C1
  8
0
 10
161.53279173547961
 20
348.52022552674998
 30
0.0
  0
VERTEX
  5
275C2
  8
0
 10
161.5089243436307
 20
348.51833915377068
 30
0.0
  0
VERTEX
  5
275C3
  8
0
 10
161.45604433411981
 20
348.51278888719349
 30
0.0
  0
VERTEX
  5
275C4
  8
0
 10
161.39648116422131
 20
348.50425173633897
 30
0.0
  0
VERTEX
  5
275C5
  8
0
 10
161.3305110869855
 20
348.49192036336029
 30
0.0
  0
VERTEX
  5
275C6
  8
0
 10
161.25847317298849
 20
348.47491334712009
 30
0.0
  0
VERTEX
  5
275C7
  8
0
 10
161.18075912421531
 20
348.4522715936364
 30
0.0
  0
VERTEX
  5
275C8
  8
0
 10
161.13991305692849
 20
348.43851534672422
 30
0.0
  0
VERTEX
  5
275C9
  8
0
 10
161.09782336094051
 20
348.42295182668983
 30
0.0
  0
VERTEX
  5
275CA
  8
0
 10
161.0101874699983
 20
348.38581013122757
 30
0.0
  0
VERTEX
  5
275CB
  8
0
 10
160.9184579486288
 20
348.33957768778242
 30
0.0
  0
VERTEX
  5
275CC
  8
0
 10
160.82329077013549
 20
348.28278405571291
 30
0.0
  0
VERTEX
  5
275CD
  8
0
 10
160.76648071816521
 20
348.24409222750819
 30
0.0
  0
VERTEX
  5
275CE
  8
0
 10
160.75010393265291
 20
348.23221256670649
 30
0.0
  0
VERTEX
  5
275CF
  8
0
 10
160.73367002239601
 20
348.21994746602792
 30
0.0
  0
VERTEX
  5
275D0
  8
0
 10
160.7254329643032
 20
348.21366693830032
 30
0.0
  0
VERTEX
  5
275D1
  8
0
 10
160.7171832227952
 20
348.2072858595493
 30
0.0
  0
VERTEX
  5
275D2
  8
0
 10
160.7006478982569
 20
348.19421614133671
 30
0.0
  0
VERTEX
  5
275D3
  8
0
 10
160.6840685691536
 20
348.18072612885948
 30
0.0
  0
VERTEX
  5
275D4
  8
0
 10
160.66744994405741
 20
348.16680302634768
 30
0.0
  0
VERTEX
  5
275D5
  8
0
 10
160.65079695772741
 20
348.15243338854589
 30
0.0
  0
VERTEX
  5
275D6
  8
0
 10
160.63411481533061
 20
348.13760308538122
 30
0.0
  0
VERTEX
  5
275D7
  8
0
 10
160.62576452354841
 20
348.1300105730179
 30
0.0
  0
VERTEX
  5
275D8
  8
0
 10
160.61740904336369
 20
348.12229726812848
 30
0.0
  0
VERTEX
  5
275D9
  8
0
 10
160.6006855477174
 20
348.1065003377189
 30
0.0
  0
VERTEX
  5
275DA
  8
0
 10
160.58390402920071
 20
348.09014975009183
 30
0.0
  0
VERTEX
  5
275DB
  8
0
 10
160.57543085654149
 20
348.08169699291011
 30
0.0
  0
VERTEX
  5
275DC
  8
0
 10
160.56690353107749
 20
348.07305236570028
 30
0.0
  0
VERTEX
  5
275DD
  8
0
 10
160.54970891481929
 20
348.05518647163763
 30
0.0
  0
VERTEX
  5
275DE
  8
0
 10
160.53236584619421
 20
348.03655141058789
 30
0.0
  0
VERTEX
  5
275DF
  8
0
 10
160.5236531815369
 20
348.02694587875789
 30
0.0
  0
VERTEX
  5
275E0
  8
0
 10
160.51492095480739
 20
348.01714888821789
 30
0.0
  0
VERTEX
  5
275E1
  8
0
 10
160.49742163695919
 20
347.99698312724058
 30
0.0
  0
VERTEX
  5
275E2
  8
0
 10
160.47991582811071
 20
347.97606098970942
 30
0.0
  0
VERTEX
  5
275E3
  8
0
 10
160.4624517418946
 20
347.95439205519642
 30
0.0
  0
VERTEX
  5
275E4
  8
0
 10
160.4450775733944
 20
347.93198864024907
 30
0.0
  0
VERTEX
  5
275E5
  8
0
 10
160.4278411654247
 20
347.90886574194201
 30
0.0
  0
VERTEX
  5
275E6
  8
0
 10
160.4192893857167
 20
347.89703987091838
 30
0.0
  0
VERTEX
  5
275E7
  8
0
 10
160.41078963789479
 20
347.88504088559148
 30
0.0
  0
VERTEX
  5
275E8
  8
0
 10
160.39396860285979
 20
347.8605332893776
 30
0.0
  0
VERTEX
  5
275E9
  8
0
 10
160.377421582458
 20
347.8353630968486
 30
0.0
  0
VERTEX
  5
275EA
  8
0
 10
160.36119384746229
 20
347.80955757474561
 30
0.0
  0
VERTEX
  5
275EB
  8
0
 10
160.34533028264079
 20
347.78314890111091
 30
0.0
  0
VERTEX
  5
275EC
  8
0
 10
160.32987461038789
 20
347.7561736615184
 30
0.0
  0
VERTEX
  5
275ED
  8
0
 10
160.32231295091469
 20
347.74248616493878
 30
0.0
  0
VERTEX
  5
275EE
  8
0
 10
160.3148688679897
 20
347.72867262519549
 30
0.0
  0
VERTEX
  5
275EF
  8
0
 10
160.3003528776876
 20
347.70069039997912
 30
0.0
  0
VERTEX
  5
275F0
  8
0
 10
160.28636371544289
 20
347.67227493889868
 30
0.0
  0
VERTEX
  5
275F1
  8
0
 10
160.27957740090261
 20
347.65792048371708
 30
0.0
  0
SEQEND
  5
275F2
  8
0
  0
POLYLINE
  5
23F40
  8
0
 66
     1
 10
0.0
 20
0.0
 30
0.0
  0
VERTEX
  5
275F3
  8
0
 10
141.1773332101576
 20
341.52399309110621
 30
0.0
  0
VERTEX
  5
275F4
  8
0
 10
141.06705635178309
 20
341.52573080612729
 30
0.0
  0
VERTEX
  5
275F5
  8
0
 10
140.8469405371647
 20
341.53962217491022
 30
0.0
  0
VERTEX
  5
275F6
  8
0
 10
140.62813669005749
 20
341.56734975076728
 30
0.0
  0
VERTEX
  5
275F7
  8
0
 10
140.5194985697571
 20
341.58636984445911
 30
0.0
  0
VERTEX
  5
275F8
  8
0
 10
140.411513666106
 20
341.60880342932342
 30
0.0
  0
VERTEX
  5
275F9
  8
0
 10
140.1979316610491
 20
341.66381860075541
 30
0.0
  0
VERTEX
  5
275FA
  8
0
 10
139.988238794941
 20
341.73217680344669
 30
0.0
  0
VERTEX
  5
275FB
  8
0
 10
139.78326774432139
 20
341.81360659148322
 30
0.0
  0
VERTEX
  5
275FC
  8
0
 10
139.58383243571191
 20
341.9077846125474
 30
0.0
  0
VERTEX
  5
275FD
  8
0
 10
139.390724813568
 20
342.01433689193072
 30
0.0
  0
VERTEX
  5
275FE
  8
0
 10
139.29678458094369
 20
342.0721230307613
 30
0.0
  0
VERTEX
  5
275FF
  8
0
 10
139.20471169551971
 20
342.13284031755938
 30
0.0
  0
VERTEX
  5
27600
  8
0
 10
139.02653172738891
 20
342.26282432014699
 30
0.0
  0
VERTEX
  5
27601
  8
0
 10
138.8568924500762
 20
342.40377274179349
 30
0.0
  0
VERTEX
  5
27602
  8
0
 10
138.696467489962
 20
342.55512588561351
 30
0.0
  0
VERTEX
  5
27603
  8
0
 10
138.54589388398119
 20
342.71628273825581
 30
0.0
  0
VERTEX
  5
27604
  8
0
 10
138.40576954999091
 20
342.88660335649001
 30
0.0
  0
VERTEX
  5
27605
  8
0
 10
138.33980142506181
 20
342.97499007291162
 30
0.0
  0
VERTEX
  5
27606
  8
0
 10
138.2766509124786
 20
343.06541140837447
 30
0.0
  0
VERTEX
  5
27607
  8
0
 10
138.2066199629553
 20
343.17335460590812
 30
0.0
  0
VERTEX
  5
27608
  8
0
 10
138.1873445583314
 20
343.20466138359637
 30
0.0
  0
VERTEX
  5
27609
  8
0
 10
138.16839906674949
 20
343.23616890494208
 30
0.0
  0
VERTEX
  5
2760A
  8
0
 10
138.15905069303719
 20
343.2519968589304
 30
0.0
  0
VERTEX
  5
2760B
  8
0
 10
138.14978557864029
 20
343.26787369342992
 30
0.0
  0
VERTEX
  5
2760C
  8
0
 10
138.1315061478021
 20
343.29977225077761
 30
0.0
  0
VERTEX
  5
2760D
  8
0
 10
138.1135627911728
 20
343.33186105732329
 30
0.0
  0
VERTEX
  5
2760E
  8
0
 10
138.0959574886088
 20
343.36413657241241
 30
0.0
  0
VERTEX
  5
2760F
  8
0
 10
138.07869218266549
 20
343.3965952347898
 30
0.0
  0
VERTEX
  5
27610
  8
0
 10
138.06176877838351
 20
343.42923346299182
 30
0.0
  0
VERTEX
  5
27611
  8
0
 10
138.0534358743808
 20
343.44561878964078
 30
0.0
  0
VERTEX
  5
27612
  8
0
 10
138.0451891430782
 20
343.46204765574072
 30
0.0
  0
VERTEX
  5
27613
  8
0
 10
138.02895510613359
 20
343.49503419234452
 30
0.0
  0
VERTEX
  5
27614
  8
0
 10
138.01306845880089
 20
343.52818943309421
 30
0.0
  0
VERTEX
  5
27615
  8
0
 10
138.00525595552921
 20
343.544829175014
 30
0.0
  0
SEQEND
  5
27616
  8
0
  0
LINE
  5
23F41
  8
0
 10
138.00525595552921
 20
343.544829175014
 30
0.0
 11
136.08728997959
 21
347.65792048371708
 31
0.0
  0
POLYLINE
  5
23F42
  8
0
 66
     1
 10
0.0
 20
0.0
 30
0.0
  0
VERTEX
  5
27617
  8
0
 10
136.08728997959
 20
347.65792048371708
 30
0.0
  0
VERTEX
  5
27618
  8
0
 10
136.0805036650498
 20
347.67227493889868
 30
0.0
  0
VERTEX
  5
27619
  8
0
 10
136.06651450280509
 20
347.70069039997912
 30
0.0
  0
VERTEX
  5
2761A
  8
0
 10
136.05199851250299
 20
347.72867262519549
 30
0.0
  0
VERTEX
  5
2761B
  8
0
 10
136.044554429578
 20
347.74248616493878
 30
0.0
  0
VERTEX
  5
2761C
  8
0
 10
136.03699277010489
 20
347.75617366151801
 30
0.0
  0
VERTEX
  5
2761D
  8
0
 10
136.02153709785199
 20
347.78314890111091
 30
0.0
  0
VERTEX
  5
2761E
  8
0
 10
136.0056735330304
 20
347.80955757474561
 30
0.0
  0
VERTEX
  5
2761F
  8
0
 10
135.98944579803469
 20
347.8353630968486
 30
0.0
  0
VERTEX
  5
27620
  8
0
 10
135.97289877763291
 20
347.8605332893776
 30
0.0
  0
VERTEX
  5
27621
  8
0
 10
135.9560777425979
 20
347.88504088559148
 30
0.0
  0
VERTEX
  5
27622
  8
0
 10
135.947577994776
 20
347.89703987091838
 30
0.0
  0
VERTEX
  5
27623
  8
0
 10
135.939026215068
 20
347.90886574194201
 30
0.0
  0
VERTEX
  5
27624
  8
0
 10
135.92178980709829
 20
347.93198864024907
 30
0.0
  0
VERTEX
  5
27625
  8
0
 10
135.9044156385981
 20
347.95439205519642
 30
0.0
  0
VERTEX
  5
27626
  8
0
 10
135.88695155238199
 20
347.97606098970942
 30
0.0
  0
VERTEX
  5
27627
  8
0
 10
135.8694457435335
 20
347.99698312724058
 30
0.0
  0
VERTEX
  5
27628
  8
0
 10
135.8519464256853
 20
348.01714888821789
 30
0.0
  0
VERTEX
  5
27629
  8
0
 10
135.84321419895579
 20
348.02694587875789
 30
0.0
  0
VERTEX
  5
2762A
  8
0
 10
135.8345015342984
 20
348.03655141058789
 30
0.0
  0
VERTEX
  5
2762B
  8
0
 10
135.8171584656734
 20
348.05518647163763
 30
0.0
  0
VERTEX
  5
2762C
  8
0
 10
135.79996384941521
 20
348.07305236570028
 30
0.0
  0
VERTEX
  5
2762D
  8
0
 10
135.79143652395121
 20
348.08169699291011
 30
0.0
  0
VERTEX
  5
2762E
  8
0
 10
135.78296335129201
 20
348.09014975009183
 30
0.0
  0
VERTEX
  5
2762F
  8
0
 10
135.7661818327754
 20
348.1065003377189
 30
0.0
  0
VERTEX
  5
27630
  8
0
 10
135.749458337129
 20
348.12229726812848
 30
0.0
  0
VERTEX
  5
27631
  8
0
 10
135.7411028569442
 20
348.1300105730179
 30
0.0
  0
VERTEX
  5
27632
  8
0
 10
135.73275256516209
 20
348.13760308538122
 30
0.0
  0
VERTEX
  5
27633
  8
0
 10
135.71607042276531
 20
348.15243338854589
 30
0.0
  0
VERTEX
  5
27634
  8
0
 10
135.6994174364352
 20
348.16680302634768
 30
0.0
  0
VERTEX
  5
27635
  8
0
 10
135.6827988113391
 20
348.18072612885948
 30
0.0
  0
VERTEX
  5
27636
  8
0
 10
135.66621948223579
 20
348.19421614133671
 30
0.0
  0
VERTEX
  5
27637
  8
0
 10
135.64968415769749
 20
348.2072858595493
 30
0.0
  0
VERTEX
  5
27638
  8
0
 10
135.6414344161895
 20
348.21366693830032
 30
0.0
  0
VERTEX
  5
27639
  8
0
 10
135.63319735809671
 20
348.21994746602792
 30
0.0
  0
VERTEX
  5
2763A
  8
0
 10
135.61676344783979
 20
348.23221256670649
 30
0.0
  0
VERTEX
  5
2763B
  8
0
 10
135.60038666232751
 20
348.24409222750819
 30
0.0
  0
VERTEX
  5
2763C
  8
0
 10
135.54357661035721
 20
348.28278405571291
 30
0.0
  0
VERTEX
  5
2763D
  8
0
 10
135.44840943186401
 20
348.33957768778242
 30
0.0
  0
VERTEX
  5
2763E
  8
0
 10
135.35667991049439
 20
348.38581013122757
 30
0.0
  0
VERTEX
  5
2763F
  8
0
 10
135.26904401955221
 20
348.42295182668983
 30
0.0
  0
VERTEX
  5
27640
  8
0
 10
135.22695432356409
 20
348.43851534672422
 30
0.0
  0
VERTEX
  5
27641
  8
0
 10
135.18610825627729
 20
348.4522715936364
 30
0.0
  0
VERTEX
  5
27642
  8
0
 10
135.1083942075042
 20
348.47491334712009
 30
0.0
  0
VERTEX
  5
27643
  8
0
 10
135.0363562935072
 20
348.49192036336029
 30
0.0
  0
VERTEX
  5
27644
  8
0
 10
134.97038621627141
 20
348.50425173633897
 30
0.0
  0
VERTEX
  5
27645
  8
0
 10
134.91082304637291
 20
348.51278888719349
 30
0.0
  0
VERTEX
  5
27646
  8
0
 10
134.857943036862
 20
348.51833915377068
 30
0.0
  0
VERTEX
  5
27647
  8
0
 10
134.83407564501309
 20
348.52022552674998
 30
0.0
  0
VERTEX
  5
27648
  8
0
 10
134.8119503631055
 20
348.5216323929198
 30
0.0
  0
VERTEX
  5
27649
  8
0
 10
134.77298165307391
 20
348.52331332862008
 30
0.0
  0
VERTEX
  5
2764A
  8
0
 10
134.74110480036629
 20
348.52393433479301
 30
0.0
  0
VERTEX
  5
2764B
  8
0
 10
134.72782829903511
 20
348.52399309110609
 30
0.0
  0
SEQEND
  5
2764C
  8
0
  0
LINE
  5
23F43
  8
0
 10
190.6834336902464
 20
350.52399309110621
 30
0.0
 11
105.6834336902463
 21
350.52399309110621
 31
0.0
  0
LINE
  5
23F44
  8
0
 10
145.68343369024629
 20
318.52399309110621
 30
0.0
 11
150.68343369024629
 21
318.52399309110621
 31
0.0
  0
LINE
  5
23F45
  8
0
 10
150.68343369024629
 20
168.52399309110609
 30
0.0
 11
145.68343369024629
 21
168.52399309110609
 31
0.0
  0
ARC
  5
23F46
  8
0
 10
145.68343369024629
 20
168.77399309110609
 30
0.0
 40
0.25
 50
180.0
 51
270.0
  0
ARC
  5
23F47
  8
0
 10
145.68343369024629
 20
318.27399309110621
 30
0.0
 40
0.2499999999999951
 50
90.0
 51
180.0
  0
LINE
  5
23F48
  8
0
 10
143.43343369024629
 20
318.27399309110621
 30
0.0
 11
145.43343369024629
 21
318.27399309110621
 31
0.0
  0
LINE
  5
23F49
  8
0
 10
145.43343369024629
 20
168.77399309110609
 30
0.0
 11
143.43343369024629
 21
168.77399309110609
 31
0.0
  0
ARC
  5
23F4A
  8
0
 10
143.18343369024629
 20
168.77399309110609
 30
0.0
 40
0.2499999999999956
 50
270.0
 51
0.0
  0
ARC
  5
23F4B
  8
0
 10
143.18343369024629
 20
318.27399309110621
 30
0.0
 40
0.25
 50
0.0
 51
90.0
  0
LINE
  5
23F4C
  8
0
 10
139.10767297885039
 20
318.52399309110621
 30
0.0
 11
143.18343369024629
 21
318.52399309110621
 31
0.0
  0
LINE
  5
23F4D
  8
0
 10
143.18343369024629
 20
168.52399309110609
 30
0.0
 11
139.10767297885039
 21
168.52399309110609
 31
0.0
  0
ARC
  5
23F4E
  8
0
 10
139.10767297885039
 20
169.35732642443961
 30
0.0
 40
0.8333333333333001
 50
198.99999999998809
 51
270.0
  0
ARC
  5
23F4F
  8
0
 10
139.10767297885039
 20
317.69065975777312
 30
0.0
 40
0.8333333333332944
 50
90.0
 51
161.00000000001191
  0
LINE
  5
23F50
  8
0
 10
136.1512181172597
 20
311.66411929501459
 30
0.0
 11
138.31974083251771
 21
317.96196655315413
 31
0.0
  0
LINE
  5
23F51
  8
0
 10
138.31974083251771
 20
169.08601962905871
 30
0.0
 11
136.1512181172597
 21
175.38386688719811
 31
0.0
  0
ARC
  5
23F52
  8
0
 10
138.51501455625839
 20
176.19778727334091
 30
0.0
 40
2.5000000000003242
 50
179.99999914622629
 51
198.99999999998809
  0
ARC
  5
23F53
  8
0
 10
138.51501455625839
 20
310.85019890887139
 30
0.0
 40
2.5000000000003122
 50
161.00000000001191
 51
179.99999914622629
  0
ARC
  5
23F54
  8
0
 10
135.34834788959139
 20
177.7155713357547
 30
0.0
 40
0.6666666666666661
 50
180.0
 51
0.0
  0
ARC
  5
23F55
  8
0
 10
135.34834788959139
 20
309.33241484645811
 30
0.0
 40
0.6666666666666661
 50
0.0
 51
180.0
  0
ARC
  5
23F56
  8
0
 10
134.015014556258
 20
181.5878525059893
 30
0.0
 40
0.6666666666666661
 50
180.0
 51
0.0
  0
ARC
  5
23F57
  8
0
 10
134.015014556258
 20
305.46013367622339
 30
0.0
 40
0.6666666666666661
 50
0.0
 51
180.0
  0
LINE
  5
23F58
  8
0
 10
128.31963725124811
 20
288.91955695454538
 30
0.0
 11
133.34834788959139
 21
303.52399309110609
 31
0.0
  0
LINE
  5
23F59
  8
0
 10
133.34834788959139
 20
183.52399309110609
 30
0.0
 11
128.31963725124811
 21
198.1284292276668
 31
0.0
  0
ARC
  5
23F5A
  8
0
 10
130.68343369024649
 20
198.94234961380971
 30
0.0
 40
2.500000000000131
 50
180.0
 51
198.99999999998809
  0
ARC
  5
23F5B
  8
0
 10
130.6834336902466
 20
288.10563656840259
 30
0.0
 40
2.5000000000002158
 50
161.00000000001191
 51
180.0
  0
ARC
  5
23F5C
  8
0
 10
165.68343369024649
 20
198.94234961380971
 30
0.0
 40
2.4999999999998819
 50
341.00000000001199
 51
0.0
  0
ARC
  5
23F5D
  8
0
 10
165.68343369024649
 20
288.10563656840259
 30
0.0
 40
2.4999999999998881
 50
0.0
 51
19.000000000015621
  0
LINE
  5
23F5E
  8
0
 10
163.0185194909013
 20
303.52399309110609
 30
0.0
 11
168.04723012924461
 21
288.91955695454538
 31
0.0
  0
LINE
  5
23F5F
  8
0
 10
168.04723012924461
 20
198.1284292276668
 30
0.0
 11
163.0185194909013
 21
183.52399309110609
 31
0.0
  0
ARC
  5
23F60
  8
0
 10
162.3518528242347
 20
181.58785250598879
 30
0.0
 40
0.6666666666666661
 50
180.0
 51
0.0
  0
ARC
  5
23F61
  8
0
 10
162.3518528242347
 20
305.46013367622339
 30
0.0
 40
0.6666666666666661
 50
0.0
 51
180.0
  0
ARC
  5
23F62
  8
0
 10
161.0185194909013
 20
177.7155713357547
 30
0.0
 40
0.6666666666666679
 50
180.0
 51
0.0
  0
ARC
  5
23F63
  8
0
 10
161.0185194909013
 20
309.33241484645811
 30
0.0
 40
0.6666666666666679
 50
0.0
 51
180.0
  0
ARC
  5
23F64
  8
0
 10
157.8518528242343
 20
176.19778727334091
 30
0.0
 40
2.5000000000004441
 50
341.00000000001199
 51
0.0
  0
ARC
  5
23F65
  8
0
 10
157.8518528242345
 20
310.85019890887139
 30
0.0
 40
2.5000000000002771
 50
0.0
 51
18.99999999998807
  0
LINE
  5
23F66
  8
0
 10
158.04712654797501
 20
317.96196655315413
 30
0.0
 11
160.21564926323299
 21
311.66411929501459
 31
0.0
  0
LINE
  5
23F67
  8
0
 10
160.21564926323299
 20
175.38386688719811
 30
0.0
 11
158.04712654797501
 21
169.08601962905871
 31
0.0
  0
ARC
  5
23F68
  8
0
 10
157.25919440164211
 20
169.35732642443961
 30
0.0
 40
0.8333333333333454
 50
270.0
 51
341.00000000001199
  0
ARC
  5
23F69
  8
0
 10
157.25919440164211
 20
317.69065975777312
 30
0.0
 40
0.8333333333333428
 50
19.000000000015621
 51
90.0
  0
LINE
  5
23F6A
  8
0
 10
153.1834336902464
 20
318.52399309110621
 30
0.0
 11
157.2591944016423
 21
318.52399309110621
 31
0.0
  0
LINE
  5
23F6B
  8
0
 10
157.2591944016423
 20
168.52399309110609
 30
0.0
 11
153.1834336902464
 21
168.52399309110609
 31
0.0
  0
ARC
  5
23F6C
  8
0
 10
153.1834336902464
 20
168.77399309110609
 30
0.0
 40
0.25
 50
180.0
 51
270.0
  0
ARC
  5
23F6D
  8
0
 10
153.1834336902464
 20
318.27399309110621
 30
0.0
 40
0.2499999999999956
 50
90.0
 51
180.0
  0
LINE
  5
23F6E
  8
0
 10
150.9334336902464
 20
318.27399309110621
 30
0.0
 11
152.93343369024629
 21
318.27399309110621
 31
0.0
  0
LINE
  5
23F6F
  8
0
 10
152.93343369024629
 20
168.77399309110609
 30
0.0
 11
150.9334336902464
 21
168.77399309110609
 31
0.0
  0
ARC
  5
23F70
  8
0
 10
150.68343369024629
 20
168.77399309110609
 30
0.0
 40
0.2499999999999978
 50
270.0
 51
0.0
  0
ARC
  5
23F71
  8
0
 10
150.68343369024629
 20
318.27399309110621
 30
0.0
 40
0.25
 50
0.0
 51
90.0
  0
LINE
  5
23F72
  8
0
 10
145.43343369024629
 20
168.77399309110609
 30
0.0
 11
145.43343369024629
 21
318.27399309110621
 31
0.0
  0
LINE
  5
23F73
  8
0
 10
143.43343369024629
 20
168.77399309110609
 30
0.0
 11
143.43343369024629
 21
318.27399309110621
 31
0.0
  0
LINE
  5
23F74
  8
0
 10
136.015014556258
 20
176.19778727334091
 30
0.0
 11
136.015014556258
 21
310.85019890887139
 31
0.0
  0
LINE
  5
23F75
  8
0
 10
134.6816812229246
 20
177.7155713357547
 30
0.0
 11
134.6816812229246
 21
309.33241484645811
 31
0.0
  0
LINE
  5
23F76
  8
0
 10
133.34834788959139
 20
181.5878525059893
 30
0.0
 11
133.34834788959139
 21
305.46013367622339
 31
0.0
  0
LINE
  5
23F77
  8
0
 10
128.1834336902464
 20
198.94234961380971
 30
0.0
 11
128.1834336902464
 21
288.10563656840259
 31
0.0
  0
LINE
  5
23F78
  8
0
 10
163.0185194909013
 20
181.5878525059893
 30
0.0
 11
163.0185194909013
 21
305.46013367622339
 31
0.0
  0
LINE
  5
23F79
  8
0
 10
161.68518615756801
 20
177.7155713357547
 30
0.0
 11
161.68518615756801
 21
309.33241484645811
 31
0.0
  0
LINE
  5
23F7A
  8
0
 10
160.3518528242347
 20
176.19778727334091
 30
0.0
 11
160.3518528242347
 21
310.85019890887139
 31
0.0
  0
LINE
  5
23F7B
  8
0
 10
152.93343369024629
 20
168.77399309110609
 30
0.0
 11
152.93343369024629
 21
318.27399309110621
 31
0.0
  0
LINE
  5
23F7C
  8
0
 10
150.9334336902464
 20
168.77399309110609
 30
0.0
 11
150.9334336902464
 21
318.27399309110621
 31
0.0
  0
LINE
  5
23F7D
  8
0
 10
168.18343369024629
 20
198.94234961380971
 30
0.0
 11
168.18343369024629
 21
288.10563656840259
 31
0.0
  0
LINE
  5
23F7E
  8
1
 10
190.85858202445391
 20
243.52399309110621
 30
0.0
 11
105.5082853560388
 21
243.52399309110621
 31
0.0
  0
LINE
  5
23F7F
  8
1
 10
148.1834336902464
 20
152.8004442385409
 30
0.0
 11
148.1834336902464
 21
366.24754194367102
 31
0.0
  0
LINE
  5
23F80
  8
3
 10
113.1834336902463
 20
240.2909930911064
 30
0.0
 11
115.6834336902464
 21
240.2909930911064
 31
0.0
  0
LINE
  5
2410E
  8
1
 10
316.51073923940822
 20
512.41714282356816
 30
0.0
 11
497.95783694453922
 21
512.41714282356816
 31
0.0
  0
LINE
  5
26EE1
  8
3
 10
410.4672880919814
 20
547.41714282356725
 30
0.0
 11
410.4672880919814
 21
544.91714282356725
 31
0.0
  0
LINE
  5
26EE2
  8
3
 10
404.00128809198139
 20
547.41714282356725
 30
0.0
 11
404.00128809198139
 21
544.91714282356725
 31
0.0
  0
TEXT
  5
26F3E
  8
0
 62
     3
 10
0.0
 20
0.0
 30
0.0
 40
10.0
  1
CAE2-150PBL
  7
STANDARD1
  0
ENDSEC
  0
EOF
