  0
SECTION
  2
HEADER
  9
$ACADVER
  1
AC1009
  9
$INSBASE
 10
0.0
 20
0.0
 30
0.0
  9
$EXTMIN
 10
0.0
 20
-2.960436562073669
 30
0.0
  9
$EXTMAX
 10
927.93979354785176
 20
674.2754736543111
 30
0.0
  9
$LIMMIN
 10
0.0
 20
0.0
  9
$LIMMAX
 10
375.0
 20
270.0
  9
$ORTHOMODE
 70
     1
  9
$REGENMODE
 70
     1
  9
$FILLMODE
 70
     1
  9
$QTEXTMODE
 70
     0
  9
$MIRRTEXT
 70
     1
  9
$DRAGMODE
 70
     2
  9
$LTSCALE
 40
10.0
  9
$OSMODE
 70
  3071
  9
$ATTMODE
 70
     1
  9
$TEXTSIZE
 40
5.0
  9
$TRACEWID
 40
0.05
  9
$TEXTSTYLE
  7
STANDARD
  9
$CLAYER
  8
0
  9
$CELTYPE
  6
BYLAYER
  9
$CECOLOR
 62
   256
  9
$DIMSCALE
 40
2.0
  9
$DIMASZ
 40
3.0
  9
$DIMEXO
 40
2.0
  9
$DIMDLI
 40
0.38
  9
$DIMRND
 40
0.0
  9
$DIMDLE
 40
0.0
  9
$DIMEXE
 40
2.0
  9
$DIMTP
 40
0.0
  9
$DIMTM
 40
0.0
  9
$DIMTXT
 40
3.2000000000000002
  9
$DIMCEN
 40
0.0
  9
$DIMTSZ
 40
0.0
  9
$DIMTOL
 70
     0
  9
$DIMLIM
 70
     0
  9
$DIMTIH
 70
     0
  9
$DIMTOH
 70
     0
  9
$DIMSE1
 70
     0
  9
$DIMSE2
 70
     0
  9
$DIMTAD
 70
     1
  9
$DIMZIN
 70
     8
  9
$DIMBLK
  1

  9
$DIMASO
 70
     0
  9
$DIMSHO
 70
     0
  9
$DIMPOST
  1

  9
$DIMAPOST
  1

  9
$DIMALT
 70
     0
  9
$DIMALTD
 70
     2
  9
$DIMALTF
 40
25.399999999999999
  9
$DIMLFAC
 40
1.0
  9
$DIMTOFL
 70
     0
  9
$DIMTVP
 40
1.6000000000000001
  9
$DIMTIX
 70
     1
  9
$DIMSOXD
 70
     0
  9
$DIMSAH
 70
     0
  9
$DIMBLK1
  1

  9
$DIMBLK2
  1

  9
$DIMSTYLE
  2
STANDARD
  9
$DIMCLRD
 70
     0
  9
$DIMCLRE
 70
     0
  9
$DIMCLRT
 70
     0
  9
$DIMTFAC
 40
1.0
  9
$DIMGAP
 40
1.1999999999999991
  9
$LUNITS
 70
     2
  9
$LUPREC
 70
     4
  9
$SKETCHINC
 40
0.1
  9
$FILLETRAD
 40
0.0
  9
$AUNITS
 70
     0
  9
$AUPREC
 70
     4
  9
$MENU
  1
ACAD
  9
$ELEVATION
 40
0.0
  9
$PELEVATION
 40
0.0
  9
$THICKNESS
 40
0.0
  9
$LIMCHECK
 70
     0
  9
$BLIPMODE
 70
     0
  9
$CHAMFERA
 40
0.0
  9
$CHAMFERB
 40
0.0
  9
$SKPOLY
 70
     0
  9
$TDCREATE
 40
2448055.7149187499
  9
$TDUPDATE
 40
2456598.5588499652
  9
$TDINDWG
 40
2.7338247454000002
  9
$TDUSRTIMER
 40
2.7338247454000002
  9
$USRTIMER
 70
     1
  9
$ANGBASE
 50
0.0
  9
$ANGDIR
 70
     0
  9
$PDMODE
 70
     0
  9
$PDSIZE
 40
0.0
  9
$PLINEWID
 40
0.0
  9
$COORDS
 70
     1
  9
$SPLFRAME
 70
     0
  9
$SPLINETYPE
 70
     6
  9
$SPLINESEGS
 70
     8
  9
$ATTDIA
 70
     0
  9
$ATTREQ
 70
     1
  9
$HANDLING
 70
     1
  9
$HANDSEED
  5
278D5
  9
$SURFTAB1
 70
     6
  9
$SURFTAB2
 70
     6
  9
$SURFTYPE
 70
     6
  9
$SURFU
 70
     6
  9
$SURFV
 70
     6
  9
$UCSNAME
  2

  9
$UCSORG
 10
0.0
 20
0.0
 30
0.0
  9
$UCSXDIR
 10
1.0
 20
0.0
 30
0.0
  9
$UCSYDIR
 10
0.0
 20
1.0
 30
0.0
  9
$PUCSNAME
  2

  9
$PUCSORG
 10
0.0
 20
0.0
 30
0.0
  9
$PUCSXDIR
 10
1.0
 20
0.0
 30
0.0
  9
$PUCSYDIR
 10
0.0
 20
1.0
 30
0.0
  9
$USERI1
 70
     0
  9
$USERI2
 70
     0
  9
$USERI3
 70
     0
  9
$USERI4
 70
     0
  9
$USERI5
 70
     0
  9
$USERR1
 40
0.0
  9
$USERR2
 40
0.0
  9
$USERR3
 40
0.0
  9
$USERR4
 40
0.0
  9
$USERR5
 40
0.0
  9
$WORLDVIEW
 70
     1
  9
$SHADEDGE
 70
     3
  9
$SHADEDIF
 70
    70
  9
$TILEMODE
 70
     1
  9
$MAXACTVP
 70
    16
  9
$PLIMCHECK
 70
     0
  9
$PEXTMIN
 10
1.0000000000000000E+020
 20
1.0000000000000000E+020
 30
1.0000000000000000E+020
  9
$PEXTMAX
 10
-1.0000000000000000E+020
 20
-1.0000000000000000E+020
 30
-1.0000000000000000E+020
  9
$PLIMMIN
 10
0.0
 20
0.0
  9
$PLIMMAX
 10
12.0
 20
9.0
  9
$UNITMODE
 70
     0
  9
$VISRETAIN
 70
     0
  9
$PLINEGEN
 70
     1
  9
$PSLTSCALE
 70
     0
  0
ENDSEC
  0
SECTION
  2
TABLES
  0
TABLE
  2
VPORT
 70
     1
  0
VPORT
  2
*ACTIVE
 70
     0
 10
0.0
 20
0.0
 11
1.0
 21
1.0
 12
482.73715968733597
 22
335.64588744807497
 13
0.0
 23
0.0
 14
5.0
 24
5.0
 15
10.0
 25
10.0
 16
0.0
 26
0.0
 36
1.0
 17
0.0
 27
0.0
 37
0.0
 40
683.37477248332402
 41
1.831871345029239
 42
50.0
 43
0.0
 44
0.0
 50
0.0
 51
0.0
 71
     0
 72
   500
 73
     1
 74
     1
 75
     0
 76
     0
 77
     0
 78
     2
  0
ENDTAB
  0
TABLE
  2
LTYPE
 70
     4
  0
LTYPE
  2
CONTINUOUS
 70
     0
  3
実線
 72
    65
 73
     0
 40
0.0
  0
LTYPE
  2
CENTER
 70
     0
  3
____ _ ____ _ ____ _ ____ _ ____ _ ____ _ ____
 72
    65
 73
     4
 40
2.0
 49
1.25
 49
-0.25
 49
0.25
 49
-0.25
  0
LTYPE
  2
HIDDEN
 70
     0
  3
_ _ _ _ _ _ _ _ _ _ _ _ _ _ _ _ _ _ _ _ _ _ _
 72
    65
 73
     2
 40
0.375
 49
0.25
 49
-0.125
  0
LTYPE
  2
PHANTOM2
 70
     0
  3
___ _ _ ___ _ _ ___ _ _ ___ _ _
 72
    65
 73
     6
 40
1.25
 49
0.625
 49
-0.125
 49
0.125
 49
-0.125
 49
0.125
 49
-0.125
  0
ENDTAB
  0
TABLE
  2
LAYER
 70
     5
  0
LAYER
  2
0
 70
     0
 62
     7
  6
CONTINUOUS
  0
LAYER
  2
1
 70
     0
 62
     1
  6
CENTER
  0
LAYER
  2
2
 70
     0
 62
     2
  6
HIDDEN
  0
LAYER
  2
DEFPOINTS
 70
     0
 62
     7
  6
CONTINUOUS
  0
LAYER
  2
3
 70
     0
 62
     3
  6
CONTINUOUS
  0
ENDTAB
  0
TABLE
  2
STYLE
 70
     3
  0
STYLE
  2
STANDARD
 70
     0
 40
0.0
 41
1.0
 50
0.0
 71
     0
 42
5.0
  3
simplex.shx
  4
bigfont.shx
  0
STYLE
  2
07500
 70
     0
 40
0.0
 41
0.75
 50
0.0
 71
     0
 42
0.2
  3
simplex.shx
  4
bigfont.shx
  0
STYLE
  2
STANDARD1
 70
     0
 40
0.0
 41
1.0
 50
0.0
 71
     0
 42
3.0
  3
txt
  4

  0
ENDTAB
  0
TABLE
  2
VIEW
 70
     2
  0
VIEW
  2
ALL
 70
     0
 40
270.0
 10
220.99159663865549
 20
135.0
 41
0.0
 11
0.0
 21
0.0
 31
1.0
 12
0.0
 22
0.0
 32
0.0
 42
0.0
 43
0.0
 44
0.0
 50
0.0
 71
     0
  0
VIEW
  2
OLE1
 70
     0
 40
168.2487151179721
 10
2892.3009567448912
 20
702.51600084347126
 41
162.5749581879237
 11
0.0
 21
0.0
 31
1.0
 12
0.0
 22
0.0
 32
0.0
 42
50.0
 43
0.0
 44
0.0
 50
0.0
 71
     0
  0
ENDTAB
  0
TABLE
  2
UCS
 70
     0
  0
ENDTAB
  0
TABLE
  2
APPID
 70
    48
  0
APPID
  2
ACAD
 70
     0
  0
APPID
  2
DCO15
 70
     0
  0
APPID
  2
GENIUS_GENOREF_13
 70
     0
  0
APPID
  2
GENIUS_GENOENT_13
 70
     0
  0
APPID
  2
GENIUS_GENBH_13
 70
     0
  0
APPID
  2
GENIUS_GENOBJ_13
 70
     0
  0
APPID
  2
GENIUS_GENODEF_13
 70
     0
  0
APPID
  2
GENIUS_GENOLIS_13
 70
     0
  0
APPID
  2
GENIUS_GENOBJ-NBEHI-BHF_13
 70
     0
  0
APPID
  2
GENIUS_GENOBJ-NBEHI-BHB_13
 70
     0
  0
APPID
  2
GENIUS_GENOBJ-F-PART_13
 70
     0
  0
APPID
  2
GENIUS_GEFSTDP_13
 70
     0
  0
APPID
  2
GENIUS_GENOBJ-N-RSSYM_13
 70
     0
  0
APPID
  2
GENIUS_GENSYMENT_13
 70
     0
  0
APPID
  2
GENIUS_GENOBJ-N-TIT_13
 70
     0
  0
APPID
  2
GENIUS_GENTITLE_13
 70
     0
  0
APPID
  2
GENIUS_GENZVEED_13
 70
     0
  0
APPID
  2
GENIUS_GENOBJ-N-LEADER_13
 70
     0
  0
APPID
  2
GENIUS_GENOBJ-N-FIL_13
 70
     0
  0
APPID
  2
GENIUS_GENOBJ-N-SEC_13
 70
     0
  0
APPID
  2
GENIUS_GENOBJ-N-CRS_13
 70
     0
  0
APPID
  2
GENIUS_GENOBJ-N-ZOO_13
 70
     0
  0
APPID
  2
GENIUS_GENZOO_13
 70
     0
  0
APPID
  2
GENIUS_GENOBJ-F-TOL_13
 70
     0
  0
APPID
  2
GENIUS_GENFIL_13
 70
     0
  0
APPID
  2
GENIUS_GENOBJ-N-CHA_13
 70
     0
  0
APPID
  2
_CALL_MAC$
 70
     0
  0
APPID
  2
ASM_BASE
 70
     0
  0
APPID
  2
ASM_EXPLO_VER_2_00
 70
     0
  0
APPID
  2
ASM_CADM_VER_12_00
 70
     0
  0
APPID
  2
ASM_BASEFORO
 70
     0
  0
APPID
  2
ASM_BASETRAVI
 70
     0
  0
APPID
  2
ASM_BASETRAVI1
 70
     0
  0
APPID
  2
ASM_GRUPPI
 70
     0
  0
APPID
  2
ASM_CADM_ALBERO
 70
     0
  0
APPID
  2
ASM_GOLE
 70
     0
  0
APPID
  2
ACAD_MLEADERVER
 70
     0
  0
APPID
  2
ACAD_DSTYLE_DIMJAG
 70
     0
  0
APPID
  2
ACAD_DSTYLE_DIMTALN
 70
     0
  0
APPID
  2
ACAD_EXEMPT_FROM_CAD_STANDARDS
 70
     0
  0
APPID
  2
ACAD_DSTYLE_DIMRADIAL_EXTENSION
 70
     0
  0
APPID
  2
ACAD_PSEXT
 70
     0
  0
APPID
  2
ACAD_DSTYLE_DIMBREAK
 70
     0
  0
APPID
  2
ACAECLAYERSTANDARD
 70
     0
  0
APPID
  2
ACCMTRANSPARENCY
 70
     0
  0
APPID
  2
GRADIENTCOLOR1ACI
 70
     0
  0
APPID
  2
GRADIENTCOLOR2ACI
 70
     0
  0
APPID
  2
ACAD_NAV_VCDISPLAY
 70
     0
  0
ENDTAB
  0
TABLE
  2
DIMSTYLE
 70
     1
  0
DIMSTYLE
  2
STANDARD
 70
     0
  3

  4

  5

  6

  7

 40
1.0
 41
0.18
 42
0.0625
 43
0.38
 44
0.18
 45
0.0
 46
0.0
 47
0.0
 48
0.0
140
0.18
141
0.09
142
0.0
143
25.399999999999999
144
1.0
145
0.0
146
1.0
147
0.09
 71
     0
 72
     0
 73
     1
 74
     1
 75
     0
 76
     0
 77
     0
 78
     0
170
     0
171
     2
172
     0
173
     0
174
     0
175
     0
176
     0
177
     0
178
     0
  0
ENDTAB
  0
ENDSEC
  0
SECTION
  2
BLOCKS
  0
BLOCK
  8
0
  2
$MODEL_SPACE
 70
     0
 10
0.0
 20
0.0
 30
0.0
  3
$MODEL_SPACE
  1

  0
ENDBLK
  5
36
  8
0
  0
BLOCK
 67
     1
  8
0
  2
$PAPER_SPACE
 70
     0
 10
0.0
 20
0.0
 30
0.0
  3
$PAPER_SPACE
  1

  0
ENDBLK
  5
34
 67
     1
  8
0
  0
ENDSEC
  0
SECTION
  2
ENTITIES
  0
LINE
  5
25320
  8
0
 10
559.79610264979738
 20
576.50657002087326
 30
0.0
 11
559.79610264979738
 21
575.90657002087391
 31
0.0
  0
LINE
  5
25321
  8
0
 10
548.16610264979715
 20
575.90657002087391
 30
0.0
 11
548.16610264979715
 21
576.50657002087326
 31
0.0
  0
LINE
  5
25322
  8
0
 10
557.98110264979675
 20
653.73957002087354
 30
0.0
 11
557.98110264979675
 21
652.50657002087337
 31
0.0
  0
LINE
  5
25323
  8
0
 10
549.98110264979675
 20
652.50657002087337
 30
0.0
 11
549.98110264979675
 21
653.73957002087354
 31
0.0
  0
LINE
  5
25324
  8
0
 10
557.21410264979704
 20
654.50657002087326
 30
0.0
 11
557.98110264979675
 21
653.73957002087354
 31
0.0
  0
LINE
  5
25325
  8
0
 10
549.98110264979675
 20
653.73957002087354
 30
0.0
 11
550.74810264979658
 21
654.50657002087326
 31
0.0
  0
LINE
  5
25326
  8
0
 10
559.79610264979738
 20
652.50657002087337
 30
0.0
 11
559.79610264979738
 21
650.00657002087326
 31
0.0
  0
LINE
  5
25327
  8
0
 10
548.16610264979715
 20
650.00657002087326
 30
0.0
 11
548.16610264979715
 21
652.50657002087337
 31
0.0
  0
LINE
  5
25328
  8
0
 10
549.98110264979675
 20
653.73957002087354
 30
0.0
 11
557.98110264979675
 21
653.73957002087354
 31
0.0
  0
LINE
  5
25329
  8
0
 10
550.74810264979658
 20
654.50657002087326
 30
0.0
 11
557.21410264979704
 21
654.50657002087326
 31
0.0
  0
LINE
  5
2532A
  8
0
 10
547.72276931646365
 20
571.20657002087398
 30
0.0
 11
560.23943598313008
 21
571.20657002087398
 31
0.0
  0
LINE
  5
2532B
  8
0
 10
547.72276931646365
 20
575.90657002087391
 30
0.0
 11
560.23943598313008
 21
575.90657002087391
 31
0.0
  0
POLYLINE
  5
2532E
  8
0
 66
     1
 10
0.0
 20
0.0
 30
0.0
  0
VERTEX
  5
274E5
  8
0
 10
557.11026931646427
 20
575.90657002087391
 30
0.0
  0
VERTEX
  5
274E6
  8
0
 10
556.60783156454761
 20
575.89937988725342
 30
0.0
  0
VERTEX
  5
274E7
  8
0
 10
555.59907102063653
 20
575.8426053034691
 30
0.0
  0
VERTEX
  5
274E8
  8
0
 10
554.543281127912
 20
575.72799496471634
 30
0.0
  0
VERTEX
  5
274E9
  8
0
 10
553.98110264979675
 20
575.64715031145795
 30
0.0
  0
SEQEND
  5
274EA
  8
0
  0
POLYLINE
  5
2532F
  8
0
 66
     1
 10
0.0
 20
0.0
 30
0.0
  0
VERTEX
  5
274EB
  8
0
 10
553.98110264979675
 20
571.46598973028904
 30
0.0
  0
VERTEX
  5
274EC
  8
0
 10
554.543281127912
 20
571.38514507703076
 30
0.0
  0
VERTEX
  5
274ED
  8
0
 10
555.59907102063653
 20
571.270534738278
 30
0.0
  0
VERTEX
  5
274EE
  8
0
 10
556.60783156454761
 20
571.21376015449357
 30
0.0
  0
VERTEX
  5
274EF
  8
0
 10
557.11026931646427
 20
571.20657002087398
 30
0.0
  0
SEQEND
  5
274F0
  8
0
  0
POLYLINE
  5
25330
  8
0
 66
     1
 10
0.0
 20
0.0
 30
0.0
  0
VERTEX
  5
274F1
  8
0
 10
557.11026931646427
 20
571.20657002087398
 30
0.0
  0
VERTEX
  5
274F2
  8
0
 10
557.61270706837922
 20
571.21376015449357
 30
0.0
  0
VERTEX
  5
274F3
  8
0
 10
558.62146761229224
 20
571.270534738278
 30
0.0
  0
VERTEX
  5
274F4
  8
0
 10
559.67725750501586
 20
571.38514507703076
 30
0.0
  0
VERTEX
  5
274F5
  8
0
 10
560.23943598313008
 20
571.46598973028904
 30
0.0
  0
SEQEND
  5
274F6
  8
0
  0
POLYLINE
  5
25331
  8
0
 66
     1
 10
0.0
 20
0.0
 30
0.0
  0
VERTEX
  5
274F7
  8
0
 10
560.23943598313008
 20
575.64715031145795
 30
0.0
  0
VERTEX
  5
274F8
  8
0
 10
559.67725750501586
 20
575.72799496471634
 30
0.0
  0
VERTEX
  5
274F9
  8
0
 10
558.62146761229224
 20
575.8426053034691
 30
0.0
  0
VERTEX
  5
274FA
  8
0
 10
557.61270706837922
 20
575.89937988725342
 30
0.0
  0
VERTEX
  5
274FB
  8
0
 10
557.11026931646427
 20
575.90657002087391
 30
0.0
  0
SEQEND
  5
274FC
  8
0
  0
POLYLINE
  5
25332
  8
0
 66
     1
 10
0.0
 20
0.0
 30
0.0
  0
VERTEX
  5
274FD
  8
0
 10
550.85193598313026
 20
575.90657002087391
 30
0.0
  0
VERTEX
  5
274FE
  8
0
 10
550.34949823121451
 20
575.89937988725342
 30
0.0
  0
VERTEX
  5
274FF
  8
0
 10
549.34073768730229
 20
575.8426053034691
 30
0.0
  0
VERTEX
  5
27500
  8
0
 10
548.28494779457867
 20
575.72799496471634
 30
0.0
  0
VERTEX
  5
27501
  8
0
 10
547.72276931646365
 20
575.64715031145795
 30
0.0
  0
SEQEND
  5
27502
  8
0
  0
POLYLINE
  5
25334
  8
0
 66
     1
 10
0.0
 20
0.0
 30
0.0
  0
VERTEX
  5
27503
  8
0
 10
547.72276931646365
 20
571.46598973028904
 30
0.0
  0
VERTEX
  5
27504
  8
0
 10
548.28494779457867
 20
571.38514507703076
 30
0.0
  0
VERTEX
  5
27505
  8
0
 10
549.34073768730229
 20
571.270534738278
 30
0.0
  0
VERTEX
  5
27506
  8
0
 10
550.34949823121451
 20
571.21376015449357
 30
0.0
  0
VERTEX
  5
27507
  8
0
 10
550.85193598313026
 20
571.20657002087398
 30
0.0
  0
SEQEND
  5
27508
  8
0
  0
POLYLINE
  5
25335
  8
0
 66
     1
 10
0.0
 20
0.0
 30
0.0
  0
VERTEX
  5
27509
  8
0
 10
550.85193598313026
 20
571.20657002087398
 30
0.0
  0
VERTEX
  5
2750A
  8
0
 10
551.35437373504601
 20
571.21376015449357
 30
0.0
  0
VERTEX
  5
2750B
  8
0
 10
552.36313427895902
 20
571.270534738278
 30
0.0
  0
VERTEX
  5
2750C
  8
0
 10
553.41892417168265
 20
571.38514507703076
 30
0.0
  0
VERTEX
  5
2750D
  8
0
 10
553.98110264979675
 20
571.46598973028904
 30
0.0
  0
SEQEND
  5
2750E
  8
0
  0
LINE
  5
25336
  8
0
 10
553.98110264979675
 20
571.46598973028904
 30
0.0
 11
553.98110264979675
 21
575.64715031145795
 31
0.0
  0
POLYLINE
  5
25337
  8
0
 66
     1
 10
0.0
 20
0.0
 30
0.0
  0
VERTEX
  5
2750F
  8
0
 10
553.98110264979675
 20
575.64715031145795
 30
0.0
  0
VERTEX
  5
27510
  8
0
 10
553.41892417168265
 20
575.72799496471634
 30
0.0
  0
VERTEX
  5
27511
  8
0
 10
552.36313427895902
 20
575.8426053034691
 30
0.0
  0
VERTEX
  5
27512
  8
0
 10
551.35437373504601
 20
575.89937988725342
 30
0.0
  0
VERTEX
  5
27513
  8
0
 10
550.85193598313026
 20
575.90657002087391
 30
0.0
  0
SEQEND
  5
27514
  8
0
  0
LINE
  5
2533B
  8
0
 10
548.16610264979715
 20
652.50657002087337
 30
0.0
 11
559.79610264979738
 21
652.50657002087337
 31
0.0
  0
LINE
  5
2533C
  8
0
 10
547.72276931646365
 20
650.00657002087326
 30
0.0
 11
560.23943598313008
 21
650.00657002087326
 31
0.0
  0
POLYLINE
  5
2533F
  8
0
 66
     1
 10
0.0
 20
0.0
 30
0.0
  0
VERTEX
  5
27515
  8
0
 10
557.11026931646427
 20
650.00657002087326
 30
0.0
  0
VERTEX
  5
27516
  8
0
 10
556.60783156454761
 20
649.99937988725367
 30
0.0
  0
VERTEX
  5
27517
  8
0
 10
555.59907102063653
 20
649.94260530346935
 30
0.0
  0
VERTEX
  5
27518
  8
0
 10
554.543281127912
 20
649.82799496471671
 30
0.0
  0
VERTEX
  5
27519
  8
0
 10
553.98110264979675
 20
649.74715031145843
 30
0.0
  0
SEQEND
  5
2751A
  8
0
  0
POLYLINE
  5
25340
  8
0
 66
     1
 10
0.0
 20
0.0
 30
0.0
  0
VERTEX
  5
2751B
  8
0
 10
553.98110264979675
 20
644.76598973028922
 30
0.0
  0
VERTEX
  5
2751C
  8
0
 10
554.54328112788369
 20
644.68514507703458
 30
0.0
  0
VERTEX
  5
2751D
  8
0
 10
555.59907102055558
 20
644.57053473828455
 30
0.0
  0
VERTEX
  5
2751E
  8
0
 10
556.60783156441755
 20
644.5137601544975
 30
0.0
  0
VERTEX
  5
2751F
  8
0
 10
557.11026931630613
 20
644.50657002087337
 30
0.0
  0
SEQEND
  5
27520
  8
0
  0
POLYLINE
  5
25341
  8
0
 66
     1
 10
0.0
 20
0.0
 30
0.0
  0
VERTEX
  5
27521
  8
0
 10
557.11026931646427
 20
644.50657002087337
 30
0.0
  0
VERTEX
  5
27522
  8
0
 10
557.61270706837922
 20
644.51376015449387
 30
0.0
  0
VERTEX
  5
27523
  8
0
 10
558.62146761229224
 20
644.57053473827818
 30
0.0
  0
VERTEX
  5
27524
  8
0
 10
559.67725750501586
 20
644.68514507703094
 30
0.0
  0
VERTEX
  5
27525
  8
0
 10
560.23943598313008
 20
644.76598973028922
 30
0.0
  0
SEQEND
  5
27526
  8
0
  0
POLYLINE
  5
25342
  8
0
 66
     1
 10
0.0
 20
0.0
 30
0.0
  0
VERTEX
  5
27527
  8
0
 10
560.23943598313008
 20
649.74715031145843
 30
0.0
  0
VERTEX
  5
27528
  8
0
 10
559.67725750501586
 20
649.82799496471671
 30
0.0
  0
VERTEX
  5
27529
  8
0
 10
558.62146761229224
 20
649.94260530346935
 30
0.0
  0
VERTEX
  5
2752A
  8
0
 10
557.61270706837922
 20
649.99937988725367
 30
0.0
  0
VERTEX
  5
2752B
  8
0
 10
557.11026931646427
 20
650.00657002087326
 30
0.0
  0
SEQEND
  5
2752C
  8
0
  0
POLYLINE
  5
25343
  8
0
 66
     1
 10
0.0
 20
0.0
 30
0.0
  0
VERTEX
  5
2752D
  8
0
 10
550.85193598313026
 20
650.00657002087326
 30
0.0
  0
VERTEX
  5
2752E
  8
0
 10
550.34949823121451
 20
649.99937988725367
 30
0.0
  0
VERTEX
  5
2752F
  8
0
 10
549.34073768730229
 20
649.94260530346935
 30
0.0
  0
VERTEX
  5
27530
  8
0
 10
548.28494779457867
 20
649.82799496471671
 30
0.0
  0
VERTEX
  5
27531
  8
0
 10
547.72276931646365
 20
649.74715031145843
 30
0.0
  0
SEQEND
  5
27532
  8
0
  0
POLYLINE
  5
25345
  8
0
 66
     1
 10
0.0
 20
0.0
 30
0.0
  0
VERTEX
  5
27533
  8
0
 10
547.72276931646365
 20
644.76598973028922
 30
0.0
  0
VERTEX
  5
27534
  8
0
 10
548.28494779455229
 20
644.68514507703458
 30
0.0
  0
VERTEX
  5
27535
  8
0
 10
549.34073768722783
 20
644.57053473828455
 30
0.0
  0
VERTEX
  5
27536
  8
0
 10
550.34949823109264
 20
644.5137601544975
 30
0.0
  0
VERTEX
  5
27537
  8
0
 10
550.85193598298292
 20
644.50657002087337
 30
0.0
  0
SEQEND
  5
27538
  8
0
  0
POLYLINE
  5
25346
  8
0
 66
     1
 10
0.0
 20
0.0
 30
0.0
  0
VERTEX
  5
27539
  8
0
 10
550.85193598313026
 20
644.50657002087337
 30
0.0
  0
VERTEX
  5
2753A
  8
0
 10
551.35437373504601
 20
644.51376015449387
 30
0.0
  0
VERTEX
  5
2753B
  8
0
 10
552.36313427895902
 20
644.57053473827818
 30
0.0
  0
VERTEX
  5
2753C
  8
0
 10
553.41892417168265
 20
644.68514507703094
 30
0.0
  0
VERTEX
  5
2753D
  8
0
 10
553.98110264979675
 20
644.76598973028922
 30
0.0
  0
SEQEND
  5
2753E
  8
0
  0
LINE
  5
25347
  8
0
 10
553.98110264979675
 20
644.76598973028922
 30
0.0
 11
553.98110264979675
 21
649.74715031145843
 31
0.0
  0
POLYLINE
  5
25348
  8
0
 66
     1
 10
0.0
 20
0.0
 30
0.0
  0
VERTEX
  5
2753F
  8
0
 10
553.98110264979675
 20
649.74715031145843
 30
0.0
  0
VERTEX
  5
27540
  8
0
 10
553.41892417168265
 20
649.82799496471671
 30
0.0
  0
VERTEX
  5
27541
  8
0
 10
552.36313427895902
 20
649.94260530346935
 30
0.0
  0
VERTEX
  5
27542
  8
0
 10
551.35437373504601
 20
649.99937988725367
 30
0.0
  0
VERTEX
  5
27543
  8
0
 10
550.85193598313026
 20
650.00657002087326
 30
0.0
  0
SEQEND
  5
27544
  8
0
  0
LINE
  5
2534C
  8
1
 10
553.98110264979675
 20
558.43766638743546
 30
0.0
 11
553.98110264979675
 21
667.2754736543111
 31
0.0
  0
LINE
  5
2534D
  8
0
 10
555.98110264979675
 20
576.50657002087326
 30
0.0
 11
555.98110264979675
 21
644.50657002087337
 31
0.0
  0
CIRCLE
  5
25352
  8
0
 10
609.98110264979687
 20
610.50657002087326
 30
0.0
 40
12.75
  0
CIRCLE
  5
25353
  8
0
 10
609.98110264979687
 20
610.50657002087326
 30
0.0
 40
40.349999999999987
  0
CIRCLE
  5
25354
  8
0
 10
609.98110264979687
 20
610.50657002087326
 30
0.0
 40
43.34999999999998
  0
CIRCLE
  5
25355
  8
0
 10
609.98110264979687
 20
610.50657002087326
 30
0.0
 40
47.0
  0
CIRCLE
  5
25356
  8
0
 10
609.98110264979687
 20
610.50657002087326
 30
0.0
 40
51.0
  0
CIRCLE
  5
25357
  8
0
 10
609.98110264979687
 20
610.50657002087326
 30
0.0
 40
10.0
  0
LINE
  5
25358
  8
1
 10
429.1616328395753
 20
610.50657002087326
 30
0.0
 11
673.75000628323505
 21
610.50657002087326
 31
0.0
  0
LINE
  5
25359
  8
1
 10
609.98110264979687
 20
674.2754736543111
 30
0.0
 11
609.98110264979687
 21
546.73766638743564
 31
0.0
  0
LINE
  5
25367
  8
0
 10
619.42088552955056
 20
607.2065700208741
 30
0.0
 11
600.55126168333982
 21
607.2065700208741
 31
0.0
  0
LINE
  5
25369
  8
0
 10
618.23435695533715
 20
604.80657002087355
 30
0.0
 11
601.78513520353181
 21
604.80657002087355
 31
0.0
  0
LINE
  5
2536B
  8
0
 10
618.23435695533715
 20
616.20657002087398
 30
0.0
 11
601.78513520353181
 21
616.20657002087398
 31
0.0
  0
LINE
  5
2536D
  8
0
 10
619.52046962286613
 20
613.50657002087326
 30
0.0
 11
600.45669691137425
 21
613.50657002087326
 31
0.0
  0
LINE
  5
2536F
  8
0
 10
266.45106881461152
 20
274.90589100163578
 30
0.0
 11
267.05106881461188
 21
274.90589100163578
 31
0.0
  0
LINE
  5
25370
  8
0
 10
267.05106881461188
 20
263.27589100163573
 30
0.0
 11
266.45106881461152
 21
263.27589100163573
 31
0.0
  0
LINE
  5
25371
  8
0
 10
189.2180688146122
 20
273.09089100163578
 30
0.0
 11
190.45106881461149
 21
273.09089100163578
 31
0.0
  0
LINE
  5
25372
  8
0
 10
190.45106881461149
 20
265.09089100163578
 30
0.0
 11
189.2180688146122
 21
265.09089100163578
 31
0.0
  0
LINE
  5
25373
  8
0
 10
188.45106881461149
 20
272.3238910016355
 30
0.0
 11
189.2180688146122
 21
273.09089100163578
 31
0.0
  0
LINE
  5
25374
  8
0
 10
189.2180688146122
 20
265.09089100163578
 30
0.0
 11
188.45106881461149
 21
265.85789100163561
 31
0.0
  0
LINE
  5
25375
  8
0
 10
271.49164910519681
 20
276.31739187099242
 30
0.0
 11
271.75106881461261
 21
275.34922433496899
 31
0.0
  0
LINE
  5
25376
  8
0
 10
271.75106881461261
 20
262.83255766830263
 30
0.0
 11
271.49164910519681
 21
261.86439013227869
 31
0.0
  0
LINE
  5
25377
  8
0
 10
267.05106881461188
 20
275.34922433496899
 30
0.0
 11
267.31048852402768
 21
276.31739187099242
 31
0.0
  0
LINE
  5
25378
  8
0
 10
267.31048852402768
 20
261.86439013227869
 30
0.0
 11
267.05106881461188
 21
262.83255766830263
 31
0.0
  0
LINE
  5
25379
  8
0
 10
190.45106881461149
 20
274.90589100163578
 30
0.0
 11
192.95106881461149
 21
274.90589100163578
 31
0.0
  0
LINE
  5
2537A
  8
0
 10
192.95106881461149
 20
263.27589100163573
 30
0.0
 11
190.45106881461149
 21
263.27589100163573
 31
0.0
  0
LINE
  5
2537B
  8
0
 10
198.1916491051966
 20
276.31739187099242
 30
0.0
 11
198.45106881461149
 21
275.34922433496899
 31
0.0
  0
LINE
  5
2537C
  8
0
 10
198.45106881461149
 20
262.83255766830263
 30
0.0
 11
198.1916491051966
 21
261.86439013227869
 31
0.0
  0
LINE
  5
2537D
  8
0
 10
192.95106881461149
 20
275.34922433496899
 30
0.0
 11
193.21048852402831
 21
276.31739187099242
 31
0.0
  0
LINE
  5
2537E
  8
0
 10
193.21048852402831
 20
261.86439013227869
 30
0.0
 11
192.95106881461149
 21
262.83255766830263
 31
0.0
  0
LINE
  5
2537F
  8
0
 10
202.95106881461149
 20
279.09089100163578
 30
0.0
 11
207.45106881461149
 21
279.09089100163578
 31
0.0
  0
LINE
  5
25380
  8
0
 10
257.45106881461152
 20
279.09089100163578
 30
0.0
 11
261.95106881461152
 21
279.09089100163578
 31
0.0
  0
LINE
  5
25381
  8
0
 10
261.95106881461152
 20
259.09089100163578
 30
0.0
 11
257.45106881461152
 21
259.09089100163578
 31
0.0
  0
LINE
  5
25382
  8
0
 10
207.45106881461149
 20
259.09089100163578
 30
0.0
 11
202.95106881461149
 21
259.09089100163578
 31
0.0
  0
LINE
  5
25383
  8
0
 10
189.2180688146122
 20
265.09089100163578
 30
0.0
 11
189.2180688146122
 21
273.09089100163578
 31
0.0
  0
LINE
  5
25384
  8
0
 10
188.45106881461149
 20
265.85789100163561
 30
0.0
 11
188.45106881461149
 21
272.3238910016355
 31
0.0
  0
LINE
  5
25385
  8
0
 10
271.75106881461261
 20
262.83255766830263
 30
0.0
 11
271.75106881461261
 21
275.34922433496899
 31
0.0
  0
LINE
  5
25386
  8
0
 10
267.05106881461188
 20
262.83255766830263
 30
0.0
 11
267.05106881461188
 21
275.34922433496899
 31
0.0
  0
LINE
  5
25387
  8
0
 10
271.49164910519681
 20
261.86439013227869
 30
0.0
 11
267.31048852402768
 21
261.86439013227869
 31
0.0
  0
POLYLINE
  5
25388
  8
0
 66
     1
 10
0.0
 20
0.0
 30
0.0
  0
VERTEX
  5
27545
  8
0
 10
271.49164910519681
 20
261.86439013227869
 30
0.0
  0
VERTEX
  5
27546
  8
0
 10
271.57249375845498
 20
262.18896402795122
 30
0.0
  0
VERTEX
  5
27547
  8
0
 10
271.68710409720779
 20
262.79852460672299
 30
0.0
  0
VERTEX
  5
27548
  8
0
 10
271.74387868099211
 20
263.38093277829847
 30
0.0
  0
VERTEX
  5
27549
  8
0
 10
271.75106881461261
 20
263.67101534961807
 30
0.0
  0
SEQEND
  5
2754A
  8
0
  0
POLYLINE
  5
25389
  8
0
 66
     1
 10
0.0
 20
0.0
 30
0.0
  0
VERTEX
  5
2754B
  8
0
 10
271.75106881461261
 20
263.67101534961807
 30
0.0
  0
VERTEX
  5
2754C
  8
0
 10
271.74387868099211
 20
263.96109792093762
 30
0.0
  0
VERTEX
  5
2754D
  8
0
 10
271.68710409720779
 20
264.5435060925131
 30
0.0
  0
VERTEX
  5
2754E
  8
0
 10
271.57249375845498
 20
265.15306667128488
 30
0.0
  0
VERTEX
  5
2754F
  8
0
 10
271.49164910519681
 20
265.47764056695752
 30
0.0
  0
SEQEND
  5
27550
  8
0
  0
POLYLINE
  5
2538A
  8
0
 66
     1
 10
0.0
 20
0.0
 30
0.0
  0
VERTEX
  5
27551
  8
0
 10
267.31048852402768
 20
265.47764056695752
 30
0.0
  0
VERTEX
  5
27552
  8
0
 10
267.22964387076939
 20
265.15306667128488
 30
0.0
  0
VERTEX
  5
27553
  8
0
 10
267.1150335320167
 20
264.5435060925131
 30
0.0
  0
VERTEX
  5
27554
  8
0
 10
267.05825894823141
 20
263.96109792093762
 30
0.0
  0
VERTEX
  5
27555
  8
0
 10
267.05106881461188
 20
263.67101534961807
 30
0.0
  0
SEQEND
  5
27556
  8
0
  0
POLYLINE
  5
2538B
  8
0
 66
     1
 10
0.0
 20
0.0
 30
0.0
  0
VERTEX
  5
27557
  8
0
 10
267.05106881461188
 20
263.67101534961807
 30
0.0
  0
VERTEX
  5
27558
  8
0
 10
267.05825894823141
 20
263.38093277829847
 30
0.0
  0
VERTEX
  5
27559
  8
0
 10
267.1150335320167
 20
262.79852460672299
 30
0.0
  0
VERTEX
  5
2755A
  8
0
 10
267.22964387076939
 20
262.18896402795122
 30
0.0
  0
VERTEX
  5
2755B
  8
0
 10
267.31048852402768
 20
261.86439013227869
 30
0.0
  0
SEQEND
  5
2755C
  8
0
  0
LINE
  5
2538C
  8
0
 10
271.49164910519681
 20
265.47764056695752
 30
0.0
 11
267.31048852402768
 21
265.47764056695752
 31
0.0
  0
POLYLINE
  5
2538D
  8
0
 66
     1
 10
0.0
 20
0.0
 30
0.0
  0
VERTEX
  5
2755D
  8
0
 10
271.49164910519681
 20
265.47764056695752
 30
0.0
  0
VERTEX
  5
2755E
  8
0
 10
271.57249375845498
 20
266.12678835830161
 30
0.0
  0
VERTEX
  5
2755F
  8
0
 10
271.68710409720779
 20
267.34590951584528
 30
0.0
  0
VERTEX
  5
27560
  8
0
 10
271.74387868099211
 20
268.51072585899669
 30
0.0
  0
VERTEX
  5
27561
  8
0
 10
271.75106881461261
 20
269.09089100163578
 30
0.0
  0
SEQEND
  5
27562
  8
0
  0
POLYLINE
  5
2538E
  8
0
 66
     1
 10
0.0
 20
0.0
 30
0.0
  0
VERTEX
  5
27563
  8
0
 10
271.75106881461261
 20
269.09089100163578
 30
0.0
  0
VERTEX
  5
27564
  8
0
 10
271.74387868099211
 20
269.67105614427442
 30
0.0
  0
VERTEX
  5
27565
  8
0
 10
271.68710409720779
 20
270.83587248742577
 30
0.0
  0
VERTEX
  5
27566
  8
0
 10
271.57249375845498
 20
272.0549936449695
 30
0.0
  0
VERTEX
  5
27567
  8
0
 10
271.49164910519681
 20
272.7041414363141
 30
0.0
  0
SEQEND
  5
27568
  8
0
  0
POLYLINE
  5
2538F
  8
0
 66
     1
 10
0.0
 20
0.0
 30
0.0
  0
VERTEX
  5
27569
  8
0
 10
267.31048852402768
 20
272.7041414363141
 30
0.0
  0
VERTEX
  5
2756A
  8
0
 10
267.22964387076939
 20
272.0549936449695
 30
0.0
  0
VERTEX
  5
2756B
  8
0
 10
267.1150335320167
 20
270.83587248742577
 30
0.0
  0
VERTEX
  5
2756C
  8
0
 10
267.05825894823141
 20
269.67105614427442
 30
0.0
  0
VERTEX
  5
2756D
  8
0
 10
267.05106881461188
 20
269.09089100163578
 30
0.0
  0
SEQEND
  5
2756E
  8
0
  0
POLYLINE
  5
25390
  8
0
 66
     1
 10
0.0
 20
0.0
 30
0.0
  0
VERTEX
  5
2756F
  8
0
 10
267.05106881461188
 20
269.09089100163578
 30
0.0
  0
VERTEX
  5
27570
  8
0
 10
267.05825894823141
 20
268.51072585899669
 30
0.0
  0
VERTEX
  5
27571
  8
0
 10
267.1150335320167
 20
267.34590951584528
 30
0.0
  0
VERTEX
  5
27572
  8
0
 10
267.22964387076939
 20
266.12678835830161
 30
0.0
  0
VERTEX
  5
27573
  8
0
 10
267.31048852402768
 20
265.47764056695752
 30
0.0
  0
SEQEND
  5
27574
  8
0
  0
POLYLINE
  5
25391
  8
0
 66
     1
 10
0.0
 20
0.0
 30
0.0
  0
VERTEX
  5
27575
  8
0
 10
267.05106881461188
 20
274.51076665365349
 30
0.0
  0
VERTEX
  5
27576
  8
0
 10
267.05825894823141
 20
274.22068408233389
 30
0.0
  0
VERTEX
  5
27577
  8
0
 10
267.1150335320167
 20
273.63827591075801
 30
0.0
  0
VERTEX
  5
27578
  8
0
 10
267.22964387076939
 20
273.02871533198618
 30
0.0
  0
VERTEX
  5
27579
  8
0
 10
267.31048852402768
 20
272.7041414363141
 30
0.0
  0
SEQEND
  5
2757A
  8
0
  0
LINE
  5
25392
  8
0
 10
271.49164910519681
 20
272.7041414363141
 30
0.0
 11
267.31048852402768
 21
272.7041414363141
 31
0.0
  0
POLYLINE
  5
25393
  8
0
 66
     1
 10
0.0
 20
0.0
 30
0.0
  0
VERTEX
  5
2757B
  8
0
 10
271.49164910519681
 20
272.7041414363141
 30
0.0
  0
VERTEX
  5
2757C
  8
0
 10
271.57249375845498
 20
273.02871533198618
 30
0.0
  0
VERTEX
  5
2757D
  8
0
 10
271.68710409720779
 20
273.63827591075801
 30
0.0
  0
VERTEX
  5
2757E
  8
0
 10
271.74387868099211
 20
274.22068408233389
 30
0.0
  0
VERTEX
  5
2757F
  8
0
 10
271.75106881461261
 20
274.51076665365349
 30
0.0
  0
SEQEND
  5
27580
  8
0
  0
POLYLINE
  5
25394
  8
0
 66
     1
 10
0.0
 20
0.0
 30
0.0
  0
VERTEX
  5
27581
  8
0
 10
271.75106881461261
 20
274.51076665365349
 30
0.0
  0
VERTEX
  5
27582
  8
0
 10
271.74387868099211
 20
274.80084922497258
 30
0.0
  0
VERTEX
  5
27583
  8
0
 10
271.68710409720779
 20
275.38325739654852
 30
0.0
  0
VERTEX
  5
27584
  8
0
 10
271.57249375845498
 20
275.99281797532029
 30
0.0
  0
VERTEX
  5
27585
  8
0
 10
271.49164910519681
 20
276.31739187099242
 30
0.0
  0
SEQEND
  5
27586
  8
0
  0
LINE
  5
25395
  8
0
 10
271.49164910519681
 20
276.31739187099242
 30
0.0
 11
267.31048852402768
 21
276.31739187099242
 31
0.0
  0
POLYLINE
  5
25396
  8
0
 66
     1
 10
0.0
 20
0.0
 30
0.0
  0
VERTEX
  5
27587
  8
0
 10
267.31048852402768
 20
276.31739187099242
 30
0.0
  0
VERTEX
  5
27588
  8
0
 10
267.22964387076939
 20
275.99281797532029
 30
0.0
  0
VERTEX
  5
27589
  8
0
 10
267.1150335320167
 20
275.38325739654852
 30
0.0
  0
VERTEX
  5
2758A
  8
0
 10
267.05825894823141
 20
274.80084922497258
 30
0.0
  0
VERTEX
  5
2758B
  8
0
 10
267.05106881461188
 20
274.51076665365349
 30
0.0
  0
SEQEND
  5
2758C
  8
0
  0
LINE
  5
25397
  8
0
 10
190.45106881461149
 20
263.27589100163573
 30
0.0
 11
190.45106881461149
 21
274.90589100163578
 31
0.0
  0
LINE
  5
25398
  8
0
 10
192.95106881461149
 20
262.83255766830263
 30
0.0
 11
192.95106881461149
 21
275.34922433496899
 31
0.0
  0
LINE
  5
25399
  8
0
 10
198.1916491051966
 20
261.86439013227869
 30
0.0
 11
193.21048852402831
 21
261.86439013227869
 31
0.0
  0
POLYLINE
  5
2539A
  8
0
 66
     1
 10
0.0
 20
0.0
 30
0.0
  0
VERTEX
  5
2758D
  8
0
 10
198.1916491051966
 20
261.86439013227869
 30
0.0
  0
VERTEX
  5
2758E
  8
0
 10
198.2724937584548
 20
262.18896402795122
 30
0.0
  0
VERTEX
  5
2758F
  8
0
 10
198.38710409720761
 20
262.79852460672299
 30
0.0
  0
VERTEX
  5
27590
  8
0
 10
198.4438786809919
 20
263.38093277829847
 30
0.0
  0
VERTEX
  5
27591
  8
0
 10
198.45106881461149
 20
263.67101534961807
 30
0.0
  0
SEQEND
  5
27592
  8
0
  0
POLYLINE
  5
2539B
  8
0
 66
     1
 10
0.0
 20
0.0
 30
0.0
  0
VERTEX
  5
27593
  8
0
 10
198.45106881461149
 20
263.67101534961807
 30
0.0
  0
VERTEX
  5
27594
  8
0
 10
198.4438786809919
 20
263.96109792093762
 30
0.0
  0
VERTEX
  5
27595
  8
0
 10
198.38710409720761
 20
264.5435060925131
 30
0.0
  0
VERTEX
  5
27596
  8
0
 10
198.2724937584548
 20
265.15306667128488
 30
0.0
  0
VERTEX
  5
27597
  8
0
 10
198.1916491051966
 20
265.47764056695752
 30
0.0
  0
SEQEND
  5
27598
  8
0
  0
POLYLINE
  5
2539C
  8
0
 66
     1
 10
0.0
 20
0.0
 30
0.0
  0
VERTEX
  5
27599
  8
0
 10
193.21048852402831
 20
265.47764056695752
 30
0.0
  0
VERTEX
  5
2759A
  8
0
 10
193.12964387076909
 20
265.15306667128488
 30
0.0
  0
VERTEX
  5
2759B
  8
0
 10
193.0150335320163
 20
264.5435060925131
 30
0.0
  0
VERTEX
  5
2759C
  8
0
 10
192.95825894823199
 20
263.96109792093762
 30
0.0
  0
VERTEX
  5
2759D
  8
0
 10
192.95106881461149
 20
263.67101534961807
 30
0.0
  0
SEQEND
  5
2759E
  8
0
  0
POLYLINE
  5
2539D
  8
0
 66
     1
 10
0.0
 20
0.0
 30
0.0
  0
VERTEX
  5
2759F
  8
0
 10
192.95106881461149
 20
263.67101534961807
 30
0.0
  0
VERTEX
  5
275A0
  8
0
 10
192.95825894823199
 20
263.38093277829847
 30
0.0
  0
VERTEX
  5
275A1
  8
0
 10
193.0150335320163
 20
262.79852460672299
 30
0.0
  0
VERTEX
  5
275A2
  8
0
 10
193.12964387076909
 20
262.18896402795122
 30
0.0
  0
VERTEX
  5
275A3
  8
0
 10
193.21048852402831
 20
261.86439013227869
 30
0.0
  0
SEQEND
  5
275A4
  8
0
  0
LINE
  5
2539E
  8
0
 10
198.1916491051966
 20
265.47764056695752
 30
0.0
 11
193.21048852402831
 21
265.47764056695752
 31
0.0
  0
POLYLINE
  5
2539F
  8
0
 66
     1
 10
0.0
 20
0.0
 30
0.0
  0
VERTEX
  5
275A5
  8
0
 10
198.1916491051966
 20
265.47764056695752
 30
0.0
  0
VERTEX
  5
275A6
  8
0
 10
198.2724937584548
 20
266.12678835830161
 30
0.0
  0
VERTEX
  5
275A7
  8
0
 10
198.38710409720761
 20
267.34590951584528
 30
0.0
  0
VERTEX
  5
275A8
  8
0
 10
198.4438786809919
 20
268.51072585899669
 30
0.0
  0
VERTEX
  5
275A9
  8
0
 10
198.45106881461149
 20
269.09089100163578
 30
0.0
  0
SEQEND
  5
275AA
  8
0
  0
POLYLINE
  5
253A0
  8
0
 66
     1
 10
0.0
 20
0.0
 30
0.0
  0
VERTEX
  5
275AB
  8
0
 10
198.45106881461149
 20
269.09089100163578
 30
0.0
  0
VERTEX
  5
275AC
  8
0
 10
198.4438786809919
 20
269.67105614427493
 30
0.0
  0
VERTEX
  5
275AD
  8
0
 10
198.38710409720761
 20
270.83587248742577
 30
0.0
  0
VERTEX
  5
275AE
  8
0
 10
198.2724937584548
 20
272.0549936449695
 30
0.0
  0
VERTEX
  5
275AF
  8
0
 10
198.1916491051966
 20
272.7041414363141
 30
0.0
  0
SEQEND
  5
275B0
  8
0
  0
POLYLINE
  5
253A1
  8
0
 66
     1
 10
0.0
 20
0.0
 30
0.0
  0
VERTEX
  5
275B1
  8
0
 10
193.21048852402831
 20
272.7041414363141
 30
0.0
  0
VERTEX
  5
275B2
  8
0
 10
193.12964387076909
 20
272.0549936449695
 30
0.0
  0
VERTEX
  5
275B3
  8
0
 10
193.0150335320163
 20
270.83587248742577
 30
0.0
  0
VERTEX
  5
275B4
  8
0
 10
192.95825894823199
 20
269.67105614427493
 30
0.0
  0
VERTEX
  5
275B5
  8
0
 10
192.95106881461149
 20
269.09089100163578
 30
0.0
  0
SEQEND
  5
275B6
  8
0
  0
POLYLINE
  5
253A2
  8
0
 66
     1
 10
0.0
 20
0.0
 30
0.0
  0
VERTEX
  5
275B7
  8
0
 10
192.95106881461149
 20
269.09089100163578
 30
0.0
  0
VERTEX
  5
275B8
  8
0
 10
192.95825894823199
 20
268.51072585899669
 30
0.0
  0
VERTEX
  5
275B9
  8
0
 10
193.0150335320163
 20
267.34590951584528
 30
0.0
  0
VERTEX
  5
275BA
  8
0
 10
193.12964387076909
 20
266.12678835830161
 30
0.0
  0
VERTEX
  5
275BB
  8
0
 10
193.21048852402831
 20
265.47764056695752
 30
0.0
  0
SEQEND
  5
275BC
  8
0
  0
POLYLINE
  5
253A3
  8
0
 66
     1
 10
0.0
 20
0.0
 30
0.0
  0
VERTEX
  5
275BD
  8
0
 10
192.95106881461149
 20
274.51076665365349
 30
0.0
  0
VERTEX
  5
275BE
  8
0
 10
192.95825894823199
 20
274.22068408233389
 30
0.0
  0
VERTEX
  5
275BF
  8
0
 10
193.0150335320163
 20
273.63827591075801
 30
0.0
  0
VERTEX
  5
275C0
  8
0
 10
193.12964387076909
 20
273.02871533198618
 30
0.0
  0
VERTEX
  5
275C1
  8
0
 10
193.21048852402831
 20
272.7041414363141
 30
0.0
  0
SEQEND
  5
275C2
  8
0
  0
LINE
  5
253A4
  8
0
 10
198.1916491051966
 20
272.7041414363141
 30
0.0
 11
193.21048852402831
 21
272.7041414363141
 31
0.0
  0
POLYLINE
  5
253A5
  8
0
 66
     1
 10
0.0
 20
0.0
 30
0.0
  0
VERTEX
  5
275C3
  8
0
 10
198.1916491051966
 20
272.7041414363141
 30
0.0
  0
VERTEX
  5
275C4
  8
0
 10
198.2724937584548
 20
273.02871533198618
 30
0.0
  0
VERTEX
  5
275C5
  8
0
 10
198.38710409720761
 20
273.63827591075801
 30
0.0
  0
VERTEX
  5
275C6
  8
0
 10
198.4438786809919
 20
274.22068408233389
 30
0.0
  0
VERTEX
  5
275C7
  8
0
 10
198.45106881461149
 20
274.51076665365349
 30
0.0
  0
SEQEND
  5
275C8
  8
0
  0
POLYLINE
  5
253A6
  8
0
 66
     1
 10
0.0
 20
0.0
 30
0.0
  0
VERTEX
  5
275C9
  8
0
 10
198.45106881461149
 20
274.51076665365349
 30
0.0
  0
VERTEX
  5
275CA
  8
0
 10
198.4438786809919
 20
274.80084922497258
 30
0.0
  0
VERTEX
  5
275CB
  8
0
 10
198.38710409720761
 20
275.38325739654852
 30
0.0
  0
VERTEX
  5
275CC
  8
0
 10
198.2724937584548
 20
275.99281797532029
 30
0.0
  0
VERTEX
  5
275CD
  8
0
 10
198.1916491051966
 20
276.31739187099242
 30
0.0
  0
SEQEND
  5
275CE
  8
0
  0
LINE
  5
253A7
  8
0
 10
198.1916491051966
 20
276.31739187099242
 30
0.0
 11
193.21048852402831
 21
276.31739187099242
 31
0.0
  0
POLYLINE
  5
253A8
  8
0
 66
     1
 10
0.0
 20
0.0
 30
0.0
  0
VERTEX
  5
275CF
  8
0
 10
193.21048852402831
 20
276.31739187099242
 30
0.0
  0
VERTEX
  5
275D0
  8
0
 10
193.12964387076909
 20
275.99281797532029
 30
0.0
  0
VERTEX
  5
275D1
  8
0
 10
193.0150335320163
 20
275.38325739654852
 30
0.0
  0
VERTEX
  5
275D2
  8
0
 10
192.95825894823199
 20
274.80084922497258
 30
0.0
  0
VERTEX
  5
275D3
  8
0
 10
192.95106881461149
 20
274.51076665365349
 30
0.0
  0
SEQEND
  5
275D4
  8
0
  0
LINE
  5
253A9
  8
0
 10
261.95106881461152
 20
259.09089100163578
 30
0.0
 11
261.95106881461152
 21
270.49457585631831
 31
0.0
  0
LINE
  5
253AA
  8
0
 10
202.95106881461149
 20
259.09089100163578
 30
0.0
 11
202.95106881461149
 21
270.49457585631831
 31
0.0
  0
LINE
  5
253AB
  8
0
 10
184.95106881461149
 20
325.17419390306333
 30
0.0
 11
184.95106881461149
 21
393.29089100163583
 31
0.0
  0
LINE
  5
253AC
  8
0
 10
279.95106881461152
 20
393.29089100163583
 30
0.0
 11
279.95106881461152
 21
325.17419390306333
 31
0.0
  0
LINE
  5
253AD
  8
0
 10
219.70106881461149
 20
401.79089100163583
 30
0.0
 11
219.70106881461149
 21
405.0908910016359
 31
0.0
  0
LINE
  5
253AE
  8
0
 10
245.20106881461149
 20
405.0908910016359
 30
0.0
 11
245.20106881461149
 21
401.79089100163583
 31
0.0
  0
ARC
  5
253AF
  8
0
 10
272.80106881461188
 20
398.79089100163583
 30
0.0
 40
3.000000000000028
 50
0.0
 51
90.0
  0
ARC
  5
253B0
  8
0
 10
192.10106881461201
 20
398.79089100163583
 30
0.0
 40
3.0000000000000351
 50
90.0
 51
180.0
  0
LINE
  5
253B1
  8
0
 10
189.10106881461201
 20
398.29089100163583
 30
0.0
 11
189.10106881461201
 21
398.79089100163583
 31
0.0
  0
LINE
  5
253B2
  8
0
 10
275.80106881461188
 20
398.79089100163583
 30
0.0
 11
275.80106881461188
 21
398.29089100163583
 31
0.0
  0
ARC
  5
253B3
  8
0
 10
279.45106881461152
 20
394.29089100163583
 30
0.0
 40
4.000000000000056
 50
0.0
 51
90.0
  0
ARC
  5
253B4
  8
0
 10
185.4510688146124
 20
394.29089100163583
 30
0.0
 40
4.0000000000000488
 50
90.0
 51
180.0
  0
LINE
  5
253B5
  8
0
 10
181.45106881461149
 20
393.29089100163583
 30
0.0
 11
181.45106881461149
 21
394.29089100163583
 31
0.0
  0
LINE
  5
253B6
  8
0
 10
283.45106881461152
 20
394.29089100163583
 30
0.0
 11
283.45106881461152
 21
393.29089100163583
 31
0.0
  0
LINE
  5
253B7
  8
0
 10
266.45106881461152
 20
391.29089100163583
 30
0.0
 11
198.45106881461149
 21
391.29089100163583
 31
0.0
  0
LINE
  5
253B8
  8
0
 10
198.45106881461149
 20
391.29089100163583
 30
0.0
 11
198.45106881461149
 21
259.09089100163578
 31
0.0
  0
LINE
  5
253B9
  8
0
 10
198.45106881461149
 20
259.09089100163578
 30
0.0
 11
202.95106881461149
 21
259.09089100163578
 31
0.0
  0
LINE
  5
253BA
  8
0
 10
261.95106881461152
 20
259.09089100163578
 30
0.0
 11
266.45106881461152
 21
259.09089100163578
 31
0.0
  0
LINE
  5
253BD
  8
0
 10
266.45106881461152
 20
259.09089100163578
 30
0.0
 11
266.45106881461152
 21
391.29089100163583
 31
0.0
  0
LINE
  5
253C1
  8
0
 10
261.95106881461152
 20
387.5908907676876
 30
0.0
 11
261.95106881461152
 21
259.09089100163578
 31
0.0
  0
LINE
  5
253C2
  8
0
 10
202.95106881461149
 20
259.09089100163578
 30
0.0
 11
202.95106979995131
 21
387.59089076768709
 31
0.0
  0
POLYLINE
  5
253CF
  8
0
 66
     1
 10
0.0
 20
0.0
 30
0.0
  0
VERTEX
  5
275D5
  8
0
 10
279.95106881461152
 20
325.17419390306333
 30
0.0
  0
VERTEX
  5
275D6
  8
0
 10
279.94011794819511
 20
323.71160934943441
 30
0.0
  0
VERTEX
  5
275D7
  8
0
 10
279.8525413104822
 20
320.78913745848041
 30
0.0
  0
VERTEX
  5
275D8
  8
0
 10
279.67754953897338
 20
317.87475224238352
 30
0.0
  0
VERTEX
  5
275D9
  8
0
 10
279.55736754205333
 20
316.42227253671689
 30
0.0
  0
VERTEX
  5
275DA
  8
0
 10
279.41546534366762
 20
314.97382824670399
 30
0.0
  0
VERTEX
  5
275DB
  8
0
 10
279.0667720455217
 20
312.09171519257711
 30
0.0
  0
VERTEX
  5
275DC
  8
0
 10
278.63211268513402
 20
309.23372811105509
 30
0.0
  0
VERTEX
  5
275DD
  8
0
 10
278.1122888368904
 20
306.4051375414258
 30
0.0
  0
VERTEX
  5
275DE
  8
0
 10
277.5082591307405
 20
303.6111598115811
 30
0.0
  0
VERTEX
  5
275DF
  8
0
 10
276.82113748434989
 20
300.856947418358
 30
0.0
  0
VERTEX
  5
275E0
  8
0
 10
276.44680724460108
 20
299.49634358337039
 30
0.0
  0
VERTEX
  5
275E1
  8
0
 10
276.05219104887459
 20
298.14757952559222
 30
0.0
  0
VERTEX
  5
275E2
  8
0
 10
275.20283787215197
 20
295.4880525974088
 30
0.0
  0
VERTEX
  5
275E3
  8
0
 10
274.27464428361458
 20
292.88327118402623
 30
0.0
  0
VERTEX
  5
275E4
  8
0
 10
273.26932200575862
 20
290.33803887705858
 30
0.0
  0
VERTEX
  5
275E5
  8
0
 10
272.18872499747482
 20
287.8570494510011
 30
0.0
  0
VERTEX
  5
275E6
  8
0
 10
271.03484603508559
 20
285.44487820723572
 30
0.0
  0
VERTEX
  5
275E7
  8
0
 10
270.4310856223496
 20
284.26599470925038
 30
0.0
  0
VERTEX
  5
275E8
  8
0
 10
269.80981303737963
 20
283.10597353651718
 30
0.0
  0
VERTEX
  5
275E9
  8
0
 10
268.51588514142031
 20
280.84464871550091
 30
0.0
  0
VERTEX
  5
275EA
  8
0
 10
267.1554485363726
 20
278.6650739524386
 30
0.0
  0
VERTEX
  5
275EB
  8
0
 10
266.45106881461152
 20
277.60720501423731
 30
0.0
  0
SEQEND
  5
275EC
  8
0
  0
POLYLINE
  5
253D0
  8
0
 66
     1
 10
0.0
 20
0.0
 30
0.0
  0
VERTEX
  5
275ED
  8
0
 10
198.45106881461149
 20
277.60720501423731
 30
0.0
  0
VERTEX
  5
275EE
  8
0
 10
197.7466890928504
 20
278.6650739524386
 30
0.0
  0
VERTEX
  5
275EF
  8
0
 10
196.38625248780451
 20
280.84464871550091
 30
0.0
  0
VERTEX
  5
275F0
  8
0
 10
195.09232459184429
 20
283.10597353651718
 30
0.0
  0
VERTEX
  5
275F1
  8
0
 10
194.47105200687429
 20
284.26599470925038
 30
0.0
  0
VERTEX
  5
275F2
  8
0
 10
193.8672915941392
 20
285.44487820723572
 30
0.0
  0
VERTEX
  5
275F3
  8
0
 10
192.71341263174921
 20
287.8570494510011
 30
0.0
  0
VERTEX
  5
275F4
  8
0
 10
191.63281562346529
 20
290.33803887705858
 30
0.0
  0
VERTEX
  5
275F5
  8
0
 10
190.62749334560931
 20
292.88327118402623
 30
0.0
  0
VERTEX
  5
275F6
  8
0
 10
189.69929975707279
 20
295.4880525974088
 30
0.0
  0
VERTEX
  5
275F7
  8
0
 10
188.8499465803493
 20
298.14757952559222
 30
0.0
  0
VERTEX
  5
275F8
  8
0
 10
188.45533038462281
 20
299.49634358337039
 30
0.0
  0
VERTEX
  5
275F9
  8
0
 10
188.081000144874
 20
300.856947418358
 30
0.0
  0
VERTEX
  5
275FA
  8
0
 10
187.3938784984843
 20
303.6111598115815
 30
0.0
  0
VERTEX
  5
275FB
  8
0
 10
186.7898487923344
 20
306.4051375414258
 30
0.0
  0
VERTEX
  5
275FC
  8
0
 10
186.27002494409001
 20
309.23372811105509
 30
0.0
  0
VERTEX
  5
275FD
  8
0
 10
185.83536558370221
 20
312.09171519257711
 30
0.0
  0
VERTEX
  5
275FE
  8
0
 10
185.4866722855563
 20
314.97382824670399
 30
0.0
  0
VERTEX
  5
275FF
  8
0
 10
185.34477008717161
 20
316.42227253671689
 30
0.0
  0
VERTEX
  5
27600
  8
0
 10
185.22458809025059
 20
317.87475224238352
 30
0.0
  0
VERTEX
  5
27601
  8
0
 10
185.04959631874269
 20
320.78913745848041
 30
0.0
  0
VERTEX
  5
27602
  8
0
 10
184.96201968102881
 20
323.71160934943441
 30
0.0
  0
VERTEX
  5
27603
  8
0
 10
184.95106881461149
 20
325.17419390306333
 30
0.0
  0
SEQEND
  5
27604
  8
0
  0
LINE
  5
253D1
  8
0
 10
245.20106881461149
 20
405.0908910016359
 30
0.0
 11
219.70106881461149
 21
405.0908910016359
 31
0.0
  0
LINE
  5
253D2
  8
0
 10
272.80106881461188
 20
401.79089100163583
 30
0.0
 11
192.10106881461201
 21
401.79089100163583
 31
0.0
  0
LINE
  5
253D3
  8
0
 10
279.45106881461152
 20
398.29089100163583
 30
0.0
 11
185.45106881461149
 21
398.29089100163583
 31
0.0
  0
LINE
  5
253D4
  8
0
 10
283.45106881461152
 20
393.29089100163583
 30
0.0
 11
181.45106881461149
 21
393.29089100163583
 31
0.0
  0
LINE
  5
253D5
  8
0
 10
235.45106881461149
 20
169.09089100163581
 30
0.0
 11
229.45106881461149
 21
169.09089100163581
 31
0.0
  0
LINE
  5
253D6
  8
0
 10
229.45106881461149
 20
369.09089100163578
 30
0.0
 11
235.45106881461149
 21
369.09089100163578
 31
0.0
  0
ARC
  5
253D7
  8
0
 10
235.45106881461149
 20
368.7908910016356
 30
0.0
 40
0.3000000000000114
 50
0.0
 51
90.0
  0
ARC
  5
253D8
  8
0
 10
235.45106881461149
 20
169.39089100163551
 30
0.0
 40
0.3000000000000074
 50
270.0
 51
0.0
  0
LINE
  5
253D9
  8
0
 10
238.15106881461219
 20
169.39089100163551
 30
0.0
 11
235.75106881461261
 21
169.39089100163551
 31
0.0
  0
LINE
  5
253DA
  8
0
 10
235.75106881461261
 20
368.7908910016356
 30
0.0
 11
238.15106881461219
 21
368.7908910016356
 31
0.0
  0
ARC
  5
253DB
  8
0
 10
238.45106881461149
 20
368.7908910016356
 30
0.0
 40
0.3000000000000034
 50
90.0
 51
180.0
  0
ARC
  5
253DC
  8
0
 10
238.45106881461149
 20
169.39089100163551
 30
0.0
 40
0.3000000000000114
 50
180.0
 51
270.0
  0
LINE
  5
253DD
  8
0
 10
242.96467121512839
 20
169.09089100163581
 30
0.0
 11
238.45106881461149
 21
169.09089100163581
 31
0.0
  0
LINE
  5
253DE
  8
0
 10
238.45106881461149
 20
369.09089100163578
 30
0.0
 11
242.96467121512839
 21
369.09089100163578
 31
0.0
  0
ARC
  5
253DF
  8
0
 10
242.96467121512839
 20
368.09089100163578
 30
0.0
 40
1.000000000000014
 50
18.999999999991871
 51
90.0
  0
ARC
  5
253E0
  8
0
 10
242.96467121512839
 20
170.09089100163581
 30
0.0
 40
1.0000000000000151
 50
270.0
 51
341.00000000000807
  0
LINE
  5
253E1
  8
0
 10
247.067738942284
 20
178.93551143992249
 30
0.0
 11
243.910189790728
 21
169.7653228471784
 31
0.0
  0
LINE
  5
253E2
  8
0
 10
243.910189790728
 20
368.41645915609269
 30
0.0
 11
247.067738942284
 21
359.24627056334913
 31
0.0
  0
ARC
  5
253E3
  8
0
 10
244.23118321548509
 20
358.26956609997768
 30
0.0
 40
2.999999999999873
 50
0.0000008537736463
 51
18.999999999991871
  0
ARC
  5
253E4
  8
0
 10
244.23118321548509
 20
179.9122159032938
 30
0.0
 40
3.0000000000000369
 50
341.00000000000807
 51
0.0
  0
ARC
  5
253E5
  8
0
 10
248.064516548819
 20
356.35141819582509
 30
0.0
 40
0.8333333333333374
 50
0.0
 51
179.99999914622629
  0
ARC
  5
253E6
  8
0
 10
248.064516548819
 20
181.83036380744599
 30
0.0
 40
0.8333333333333322
 50
179.99999914622629
 51
0.0
  0
ARC
  5
253E7
  8
0
 10
249.73118321548509
 20
351.51106673303212
 30
0.0
 40
0.8333333333333322
 50
0.0
 51
180.0
  0
ARC
  5
253E8
  8
0
 10
249.73118321548509
 20
186.67071527023899
 30
0.0
 40
0.8333333333333322
 50
180.0
 51
0.0
  0
LINE
  5
253E9
  8
0
 10
257.28762454141042
 20
208.61621436550851
 30
0.0
 11
250.564516548819
 21
189.09089100163581
 31
0.0
  0
LINE
  5
253EA
  8
0
 10
250.564516548819
 20
349.09089100163578
 30
0.0
 11
257.28762454141042
 21
329.56556763776302
 31
0.0
  0
ARC
  5
253EB
  8
0
 10
254.4510688146124
 20
328.58886317439118
 30
0.0
 40
2.9999999999999192
 50
0.0
 51
18.999999999991871
  0
ARC
  5
253EC
  8
0
 10
254.4510688146124
 20
209.5929188288799
 30
0.0
 40
2.9999999999999138
 50
341.00000000000807
 51
0.0
  0
ARC
  5
253ED
  8
0
 10
210.45106881461149
 20
328.58886317439169
 30
0.0
 40
2.999999999999893
 50
161.0000000000081
 51
180.0
  0
ARC
  5
253EE
  8
0
 10
210.45106881461149
 20
209.5929188288799
 30
0.0
 40
2.999999999999885
 50
180.0
 51
198.99999999999179
  0
LINE
  5
253EF
  8
0
 10
214.3376210804058
 20
189.09089100163581
 30
0.0
 11
207.6145130878144
 21
208.61621436550851
 31
0.0
  0
LINE
  5
253F0
  8
0
 10
207.6145130878144
 20
329.56556763776302
 30
0.0
 11
214.3376210804058
 21
349.09089100163578
 31
0.0
  0
ARC
  5
253F1
  8
0
 10
215.17095441373891
 20
351.51106673303212
 30
0.0
 40
0.8333333333333357
 50
0.0
 51
180.0
  0
ARC
  5
253F2
  8
0
 10
215.17095441373891
 20
186.67071527023899
 30
0.0
 40
0.8333333333333357
 50
180.0
 51
0.0
  0
ARC
  5
253F3
  8
0
 10
216.8376210804058
 20
356.35141819582509
 30
0.0
 40
0.8333333333333322
 50
0.0
 51
180.0
  0
ARC
  5
253F4
  8
0
 10
216.8376210804058
 20
181.83036380744599
 30
0.0
 40
0.8333333333333303
 50
179.99999914622629
 51
0.0000008537736463
  0
ARC
  5
253F5
  8
0
 10
220.6709544137388
 20
358.26956609997768
 30
0.0
 40
3.0000000000000391
 50
161.0000000000081
 51
180.0
  0
ARC
  5
253F6
  8
0
 10
220.6709544137388
 20
179.9122159032938
 30
0.0
 40
2.9999999999998752
 50
180.0
 51
198.99999999999179
  0
LINE
  5
253F7
  8
0
 10
220.9919478384968
 20
169.7653228471784
 30
0.0
 11
217.83439868694089
 21
178.93551143992249
 31
0.0
  0
LINE
  5
253F8
  8
0
 10
217.83439868694089
 20
359.24627056334913
 30
0.0
 11
220.9919478384968
 21
368.41645915609269
 31
0.0
  0
ARC
  5
253F9
  8
0
 10
221.93746641409641
 20
368.09089100163578
 30
0.0
 40
1.000000000000014
 50
90.0
 51
161.0000000000081
  0
ARC
  5
253FA
  8
0
 10
221.93746641409641
 20
170.09089100163581
 30
0.0
 40
1.000000000000014
 50
198.99999999999179
 51
270.0
  0
LINE
  5
253FB
  8
0
 10
226.45106881461149
 20
169.09089100163581
 30
0.0
 11
221.9374664140955
 21
169.09089100163581
 31
0.0
  0
LINE
  5
253FC
  8
0
 10
221.9374664140955
 20
369.09089100163578
 30
0.0
 11
226.45106881461149
 21
369.09089100163578
 31
0.0
  0
ARC
  5
253FD
  8
0
 10
226.45106881461149
 20
368.7908910016356
 30
0.0
 40
0.3000000000000114
 50
0.0
 51
90.0
  0
ARC
  5
253FE
  8
0
 10
226.45106881461149
 20
169.39089100163551
 30
0.0
 40
0.3000000000000078
 50
270.0
 51
0.0
  0
LINE
  5
253FF
  8
0
 10
229.15106881461219
 20
169.39089100163551
 30
0.0
 11
226.75106881461261
 21
169.39089100163551
 31
0.0
  0
LINE
  5
25400
  8
0
 10
226.75106881461261
 20
368.7908910016356
 30
0.0
 11
229.15106881461219
 21
368.7908910016356
 31
0.0
  0
ARC
  5
25401
  8
0
 10
229.45106881461149
 20
368.7908910016356
 30
0.0
 40
0.3000000000000038
 50
90.0
 51
180.0
  0
ARC
  5
25402
  8
0
 10
229.45106881461149
 20
169.39089100163551
 30
0.0
 40
0.3000000000000114
 50
180.0
 51
270.0
  0
LINE
  5
25403
  8
0
 10
235.75106881461261
 20
368.7908910016356
 30
0.0
 11
235.75106881461261
 21
169.39089100163551
 31
0.0
  0
LINE
  5
25404
  8
0
 10
238.15106881461219
 20
368.7908910016356
 30
0.0
 11
238.15106881461219
 21
169.39089100163551
 31
0.0
  0
LINE
  5
25405
  8
0
 10
247.23118321548509
 20
358.26956609997728
 30
0.0
 11
247.23118321548509
 21
179.9122159032938
 31
0.0
  0
LINE
  5
25406
  8
0
 10
248.897849882152
 20
356.35141819582509
 30
0.0
 11
248.897849882152
 21
181.83036380744599
 31
0.0
  0
LINE
  5
25407
  8
0
 10
250.564516548819
 20
351.51106673303212
 30
0.0
 11
250.564516548819
 21
186.67071527023899
 31
0.0
  0
LINE
  5
25408
  8
0
 10
257.45106881461152
 20
328.58886317439118
 30
0.0
 11
257.45106881461152
 21
209.5929188288799
 31
0.0
  0
LINE
  5
25409
  8
0
 10
214.3376210804058
 20
351.51106673303212
 30
0.0
 11
214.3376210804058
 21
186.67071527023899
 31
0.0
  0
LINE
  5
2540A
  8
0
 10
216.00428774707191
 20
356.35141819582509
 30
0.0
 11
216.00428774707191
 21
181.83036380744599
 31
0.0
  0
LINE
  5
2540B
  8
0
 10
217.67095441373891
 20
358.26956609997728
 30
0.0
 11
217.67095441373891
 21
179.9122159032938
 31
0.0
  0
LINE
  5
2540C
  8
0
 10
226.75106881461261
 20
368.7908910016356
 30
0.0
 11
226.75106881461261
 21
169.39089100163551
 31
0.0
  0
LINE
  5
2540D
  8
0
 10
229.15106881461219
 20
368.7908910016356
 30
0.0
 11
229.15106881461219
 21
169.39089100163551
 31
0.0
  0
LINE
  5
2540E
  8
0
 10
207.45106881461149
 20
328.58886317439118
 30
0.0
 11
207.45106881461149
 21
209.5929188288799
 31
0.0
  0
LINE
  5
2540F
  8
0
 10
841.51113648497994
 20
263.27589100163573
 30
0.0
 11
840.91113648497947
 21
263.27589100163573
 31
0.0
  0
LINE
  5
25410
  8
0
 10
840.91113648497947
 20
274.90589100163578
 30
0.0
 11
841.51113648497994
 21
274.90589100163578
 31
0.0
  0
LINE
  5
25411
  8
0
 10
918.74413648498012
 20
265.09089100163578
 30
0.0
 11
917.51113648497994
 21
265.09089100163578
 31
0.0
  0
LINE
  5
25412
  8
0
 10
917.51113648497994
 20
273.09089100163578
 30
0.0
 11
918.74413648498012
 21
273.09089100163578
 31
0.0
  0
LINE
  5
25413
  8
0
 10
919.51113648497994
 20
265.85789100163561
 30
0.0
 11
918.74413648498012
 21
265.09089100163578
 31
0.0
  0
LINE
  5
25414
  8
0
 10
918.74413648498012
 20
273.09089100163578
 30
0.0
 11
919.51113648497994
 21
272.3238910016355
 31
0.0
  0
LINE
  5
25415
  8
0
 10
836.21113648498056
 20
275.34922433496899
 30
0.0
 11
836.47055619439561
 21
276.31739187099242
 31
0.0
  0
LINE
  5
25416
  8
0
 10
836.47055619439561
 20
261.86439013227869
 30
0.0
 11
836.21113648498056
 21
262.83255766830263
 31
0.0
  0
LINE
  5
25417
  8
0
 10
840.65171677556464
 20
276.31739187099242
 30
0.0
 11
840.91113648497947
 21
275.34922433496899
 31
0.0
  0
LINE
  5
25418
  8
0
 10
840.91113648497947
 20
262.83255766830263
 30
0.0
 11
840.65171677556464
 21
261.86439013227869
 31
0.0
  0
LINE
  5
25419
  8
0
 10
917.51113648497994
 20
263.27589100163573
 30
0.0
 11
915.01113648497994
 21
263.27589100163573
 31
0.0
  0
LINE
  5
2541A
  8
0
 10
915.01113648497994
 20
274.90589100163578
 30
0.0
 11
917.51113648497994
 21
274.90589100163578
 31
0.0
  0
LINE
  5
2541B
  8
0
 10
909.51113648497994
 20
275.34922433496899
 30
0.0
 11
909.77055619439477
 21
276.31739187099242
 31
0.0
  0
LINE
  5
2541C
  8
0
 10
909.77055619439477
 20
261.86439013227869
 30
0.0
 11
909.51113648497994
 21
262.83255766830263
 31
0.0
  0
LINE
  5
2541D
  8
0
 10
914.75171677556489
 20
276.31739187099242
 30
0.0
 11
915.01113648497994
 21
275.34922433496899
 31
0.0
  0
LINE
  5
2541E
  8
0
 10
915.01113648497994
 20
262.83255766830263
 30
0.0
 11
914.75171677556489
 21
261.86439013227869
 31
0.0
  0
LINE
  5
2541F
  8
0
 10
905.01113648497994
 20
259.09089100163578
 30
0.0
 11
900.51113648497994
 21
259.09089100163578
 31
0.0
  0
LINE
  5
25420
  8
0
 10
850.51113648497994
 20
259.09089100163578
 30
0.0
 11
846.01113648497994
 21
259.09089100163578
 31
0.0
  0
LINE
  5
25421
  8
0
 10
846.01113648497994
 20
279.09089100163578
 30
0.0
 11
850.51113648497994
 21
279.09089100163578
 31
0.0
  0
LINE
  5
25422
  8
0
 10
900.51113648497994
 20
279.09089100163578
 30
0.0
 11
905.01113648497994
 21
279.09089100163578
 31
0.0
  0
LINE
  5
25423
  8
0
 10
918.74413648498012
 20
273.09089100163578
 30
0.0
 11
918.74413648498012
 21
265.09089100163578
 31
0.0
  0
LINE
  5
25424
  8
0
 10
919.51113648497994
 20
272.3238910016355
 30
0.0
 11
919.51113648497994
 21
265.85789100163561
 31
0.0
  0
LINE
  5
25425
  8
0
 10
836.21113648498056
 20
275.34922433496899
 30
0.0
 11
836.21113648498056
 21
262.83255766830263
 31
0.0
  0
LINE
  5
25426
  8
0
 10
840.91113648497947
 20
275.34922433496899
 30
0.0
 11
840.91113648497947
 21
262.83255766830263
 31
0.0
  0
POLYLINE
  5
25427
  8
0
 66
     1
 10
0.0
 20
0.0
 30
0.0
  0
VERTEX
  5
27605
  8
0
 10
836.47055619439561
 20
265.47764056695752
 30
0.0
  0
VERTEX
  5
27606
  8
0
 10
836.38971154113631
 20
265.15306667128488
 30
0.0
  0
VERTEX
  5
27607
  8
0
 10
836.27510120238367
 20
264.5435060925131
 30
0.0
  0
VERTEX
  5
27608
  8
0
 10
836.21832661860014
 20
263.96109792093762
 30
0.0
  0
VERTEX
  5
27609
  8
0
 10
836.21113648498056
 20
263.67101534961807
 30
0.0
  0
SEQEND
  5
2760A
  8
0
  0
POLYLINE
  5
25428
  8
0
 66
     1
 10
0.0
 20
0.0
 30
0.0
  0
VERTEX
  5
2760B
  8
0
 10
836.21113648498056
 20
263.67101534961807
 30
0.0
  0
VERTEX
  5
2760C
  8
0
 10
836.21832661860014
 20
263.38093277829847
 30
0.0
  0
VERTEX
  5
2760D
  8
0
 10
836.27510120238367
 20
262.79852460672299
 30
0.0
  0
VERTEX
  5
2760E
  8
0
 10
836.38971154113631
 20
262.18896402795122
 30
0.0
  0
VERTEX
  5
2760F
  8
0
 10
836.47055619439561
 20
261.86439013227869
 30
0.0
  0
SEQEND
  5
27610
  8
0
  0
POLYLINE
  5
25429
  8
0
 66
     1
 10
0.0
 20
0.0
 30
0.0
  0
VERTEX
  5
27611
  8
0
 10
840.65171677556464
 20
261.86439013227869
 30
0.0
  0
VERTEX
  5
27612
  8
0
 10
840.73256142882201
 20
262.18896402795122
 30
0.0
  0
VERTEX
  5
27613
  8
0
 10
840.84717176757476
 20
262.79852460672299
 30
0.0
  0
VERTEX
  5
27614
  8
0
 10
840.90394635135999
 20
263.38093277829847
 30
0.0
  0
VERTEX
  5
27615
  8
0
 10
840.91113648497947
 20
263.67101534961807
 30
0.0
  0
SEQEND
  5
27616
  8
0
  0
POLYLINE
  5
2542A
  8
0
 66
     1
 10
0.0
 20
0.0
 30
0.0
  0
VERTEX
  5
27617
  8
0
 10
840.91113648497947
 20
263.67101534961807
 30
0.0
  0
VERTEX
  5
27618
  8
0
 10
840.90394635135999
 20
263.96109792093762
 30
0.0
  0
VERTEX
  5
27619
  8
0
 10
840.84717176757476
 20
264.5435060925131
 30
0.0
  0
VERTEX
  5
2761A
  8
0
 10
840.73256142882201
 20
265.15306667128488
 30
0.0
  0
VERTEX
  5
2761B
  8
0
 10
840.65171677556464
 20
265.47764056695752
 30
0.0
  0
SEQEND
  5
2761C
  8
0
  0
LINE
  5
2542B
  8
0
 10
836.47055619439561
 20
261.86439013227869
 30
0.0
 11
840.65171677556464
 21
261.86439013227869
 31
0.0
  0
POLYLINE
  5
2542C
  8
0
 66
     1
 10
0.0
 20
0.0
 30
0.0
  0
VERTEX
  5
2761D
  8
0
 10
840.91113648497947
 20
274.51076665365349
 30
0.0
  0
VERTEX
  5
2761E
  8
0
 10
840.90394635135999
 20
274.80084922497258
 30
0.0
  0
VERTEX
  5
2761F
  8
0
 10
840.84717176757476
 20
275.38325739654852
 30
0.0
  0
VERTEX
  5
27620
  8
0
 10
840.73256142882201
 20
275.99281797532029
 30
0.0
  0
VERTEX
  5
27621
  8
0
 10
840.65171677556464
 20
276.31739187099242
 30
0.0
  0
SEQEND
  5
27622
  8
0
  0
POLYLINE
  5
2542D
  8
0
 66
     1
 10
0.0
 20
0.0
 30
0.0
  0
VERTEX
  5
27623
  8
0
 10
836.47055619439561
 20
276.31739187099242
 30
0.0
  0
VERTEX
  5
27624
  8
0
 10
836.38971154113631
 20
275.99281797532029
 30
0.0
  0
VERTEX
  5
27625
  8
0
 10
836.27510120238367
 20
275.38325739654852
 30
0.0
  0
VERTEX
  5
27626
  8
0
 10
836.21832661860014
 20
274.80084922497258
 30
0.0
  0
VERTEX
  5
27627
  8
0
 10
836.21113648498056
 20
274.51076665365349
 30
0.0
  0
SEQEND
  5
27628
  8
0
  0
POLYLINE
  5
2542E
  8
0
 66
     1
 10
0.0
 20
0.0
 30
0.0
  0
VERTEX
  5
27629
  8
0
 10
836.21113648498056
 20
274.51076665365349
 30
0.0
  0
VERTEX
  5
2762A
  8
0
 10
836.21832661860014
 20
274.22068408233389
 30
0.0
  0
VERTEX
  5
2762B
  8
0
 10
836.27510120238367
 20
273.63827591075801
 30
0.0
  0
VERTEX
  5
2762C
  8
0
 10
836.38971154113631
 20
273.02871533198618
 30
0.0
  0
VERTEX
  5
2762D
  8
0
 10
836.47055619439561
 20
272.7041414363141
 30
0.0
  0
SEQEND
  5
2762E
  8
0
  0
POLYLINE
  5
2542F
  8
0
 66
     1
 10
0.0
 20
0.0
 30
0.0
  0
VERTEX
  5
2762F
  8
0
 10
840.65171677556464
 20
272.7041414363141
 30
0.0
  0
VERTEX
  5
27630
  8
0
 10
840.73256142882201
 20
273.02871533198618
 30
0.0
  0
VERTEX
  5
27631
  8
0
 10
840.84717176757476
 20
273.63827591075801
 30
0.0
  0
VERTEX
  5
27632
  8
0
 10
840.90394635135999
 20
274.22068408233389
 30
0.0
  0
VERTEX
  5
27633
  8
0
 10
840.91113648497947
 20
274.51076665365349
 30
0.0
  0
SEQEND
  5
27634
  8
0
  0
LINE
  5
25430
  8
0
 10
836.47055619439561
 20
276.31739187099242
 30
0.0
 11
840.65171677556464
 21
276.31739187099242
 31
0.0
  0
POLYLINE
  5
25431
  8
0
 66
     1
 10
0.0
 20
0.0
 30
0.0
  0
VERTEX
  5
27635
  8
0
 10
840.91113648497947
 20
269.09089100163578
 30
0.0
  0
VERTEX
  5
27636
  8
0
 10
840.90394635135999
 20
269.67105614427442
 30
0.0
  0
VERTEX
  5
27637
  8
0
 10
840.84717176757476
 20
270.83587248742577
 30
0.0
  0
VERTEX
  5
27638
  8
0
 10
840.73256142882201
 20
272.0549936449695
 30
0.0
  0
VERTEX
  5
27639
  8
0
 10
840.65171677556464
 20
272.7041414363141
 30
0.0
  0
SEQEND
  5
2763A
  8
0
  0
LINE
  5
25432
  8
0
 10
836.47055619439561
 20
272.7041414363141
 30
0.0
 11
840.65171677556464
 21
272.7041414363141
 31
0.0
  0
POLYLINE
  5
25433
  8
0
 66
     1
 10
0.0
 20
0.0
 30
0.0
  0
VERTEX
  5
2763B
  8
0
 10
836.47055619439561
 20
272.7041414363141
 30
0.0
  0
VERTEX
  5
2763C
  8
0
 10
836.38971154113631
 20
272.0549936449695
 30
0.0
  0
VERTEX
  5
2763D
  8
0
 10
836.27510120238367
 20
270.83587248742577
 30
0.0
  0
VERTEX
  5
2763E
  8
0
 10
836.21832661860014
 20
269.67105614427442
 30
0.0
  0
VERTEX
  5
2763F
  8
0
 10
836.21113648498056
 20
269.09089100163578
 30
0.0
  0
SEQEND
  5
27640
  8
0
  0
POLYLINE
  5
25434
  8
0
 66
     1
 10
0.0
 20
0.0
 30
0.0
  0
VERTEX
  5
27641
  8
0
 10
836.21113648498056
 20
269.09089100163578
 30
0.0
  0
VERTEX
  5
27642
  8
0
 10
836.21832661860014
 20
268.51072585899669
 30
0.0
  0
VERTEX
  5
27643
  8
0
 10
836.27510120238367
 20
267.34590951584528
 30
0.0
  0
VERTEX
  5
27644
  8
0
 10
836.38971154113631
 20
266.12678835830161
 30
0.0
  0
VERTEX
  5
27645
  8
0
 10
836.47055619439561
 20
265.47764056695752
 30
0.0
  0
SEQEND
  5
27646
  8
0
  0
LINE
  5
25435
  8
0
 10
836.47055619439561
 20
265.47764056695752
 30
0.0
 11
840.65171677556464
 21
265.47764056695752
 31
0.0
  0
POLYLINE
  5
25436
  8
0
 66
     1
 10
0.0
 20
0.0
 30
0.0
  0
VERTEX
  5
27647
  8
0
 10
840.65171677556464
 20
265.47764056695752
 30
0.0
  0
VERTEX
  5
27648
  8
0
 10
840.73256142882201
 20
266.12678835830161
 30
0.0
  0
VERTEX
  5
27649
  8
0
 10
840.84717176757476
 20
267.34590951584528
 30
0.0
  0
VERTEX
  5
2764A
  8
0
 10
840.90394635135999
 20
268.51072585899669
 30
0.0
  0
VERTEX
  5
2764B
  8
0
 10
840.91113648497947
 20
269.09089100163578
 30
0.0
  0
SEQEND
  5
2764C
  8
0
  0
LINE
  5
25437
  8
0
 10
917.51113648497994
 20
274.90589100163578
 30
0.0
 11
917.51113648497994
 21
263.27589100163573
 31
0.0
  0
LINE
  5
25438
  8
0
 10
915.01113648497994
 20
275.34922433496899
 30
0.0
 11
915.01113648497994
 21
262.83255766830263
 31
0.0
  0
POLYLINE
  5
25439
  8
0
 66
     1
 10
0.0
 20
0.0
 30
0.0
  0
VERTEX
  5
2764D
  8
0
 10
909.77055619439477
 20
265.47764056695752
 30
0.0
  0
VERTEX
  5
2764E
  8
0
 10
909.6897115411374
 20
265.15306667128488
 30
0.0
  0
VERTEX
  5
2764F
  8
0
 10
909.57510120238476
 20
264.5435060925131
 30
0.0
  0
VERTEX
  5
27650
  8
0
 10
909.51832661859964
 20
263.96109792093762
 30
0.0
  0
VERTEX
  5
27651
  8
0
 10
909.51113648497994
 20
263.67101534961807
 30
0.0
  0
SEQEND
  5
27652
  8
0
  0
POLYLINE
  5
2543A
  8
0
 66
     1
 10
0.0
 20
0.0
 30
0.0
  0
VERTEX
  5
27653
  8
0
 10
909.51113648497994
 20
263.67101534961807
 30
0.0
  0
VERTEX
  5
27654
  8
0
 10
909.51832661859964
 20
263.38093277829847
 30
0.0
  0
VERTEX
  5
27655
  8
0
 10
909.57510120238476
 20
262.79852460672299
 30
0.0
  0
VERTEX
  5
27656
  8
0
 10
909.6897115411374
 20
262.18896402795122
 30
0.0
  0
VERTEX
  5
27657
  8
0
 10
909.77055619439477
 20
261.86439013227869
 30
0.0
  0
SEQEND
  5
27658
  8
0
  0
POLYLINE
  5
2543B
  8
0
 66
     1
 10
0.0
 20
0.0
 30
0.0
  0
VERTEX
  5
27659
  8
0
 10
914.75171677556489
 20
261.86439013227869
 30
0.0
  0
VERTEX
  5
2765A
  8
0
 10
914.83256142882226
 20
262.18896402795122
 30
0.0
  0
VERTEX
  5
2765B
  8
0
 10
914.94717176757513
 20
262.79852460672299
 30
0.0
  0
VERTEX
  5
2765C
  8
0
 10
915.00394635136036
 20
263.38093277829847
 30
0.0
  0
VERTEX
  5
2765D
  8
0
 10
915.01113648497994
 20
263.67101534961807
 30
0.0
  0
SEQEND
  5
2765E
  8
0
  0
POLYLINE
  5
2543C
  8
0
 66
     1
 10
0.0
 20
0.0
 30
0.0
  0
VERTEX
  5
2765F
  8
0
 10
915.01113648497994
 20
263.67101534961807
 30
0.0
  0
VERTEX
  5
27660
  8
0
 10
915.00394635136036
 20
263.96109792093762
 30
0.0
  0
VERTEX
  5
27661
  8
0
 10
914.94717176757513
 20
264.5435060925131
 30
0.0
  0
VERTEX
  5
27662
  8
0
 10
914.83256142882226
 20
265.15306667128488
 30
0.0
  0
VERTEX
  5
27663
  8
0
 10
914.75171677556489
 20
265.47764056695752
 30
0.0
  0
SEQEND
  5
27664
  8
0
  0
LINE
  5
2543D
  8
0
 10
909.77055619439477
 20
261.86439013227869
 30
0.0
 11
914.75171677556489
 21
261.86439013227869
 31
0.0
  0
POLYLINE
  5
2543E
  8
0
 66
     1
 10
0.0
 20
0.0
 30
0.0
  0
VERTEX
  5
27665
  8
0
 10
915.01113648497994
 20
274.51076665365349
 30
0.0
  0
VERTEX
  5
27666
  8
0
 10
915.00394635136036
 20
274.80084922497258
 30
0.0
  0
VERTEX
  5
27667
  8
0
 10
914.94717176757513
 20
275.38325739654852
 30
0.0
  0
VERTEX
  5
27668
  8
0
 10
914.83256142882226
 20
275.99281797532029
 30
0.0
  0
VERTEX
  5
27669
  8
0
 10
914.75171677556489
 20
276.31739187099242
 30
0.0
  0
SEQEND
  5
2766A
  8
0
  0
POLYLINE
  5
2543F
  8
0
 66
     1
 10
0.0
 20
0.0
 30
0.0
  0
VERTEX
  5
2766B
  8
0
 10
909.77055619439477
 20
276.31739187099242
 30
0.0
  0
VERTEX
  5
2766C
  8
0
 10
909.6897115411374
 20
275.99281797532029
 30
0.0
  0
VERTEX
  5
2766D
  8
0
 10
909.57510120238476
 20
275.38325739654852
 30
0.0
  0
VERTEX
  5
2766E
  8
0
 10
909.51832661859964
 20
274.80084922497258
 30
0.0
  0
VERTEX
  5
2766F
  8
0
 10
909.51113648497994
 20
274.51076665365349
 30
0.0
  0
SEQEND
  5
27670
  8
0
  0
POLYLINE
  5
25440
  8
0
 66
     1
 10
0.0
 20
0.0
 30
0.0
  0
VERTEX
  5
27671
  8
0
 10
909.51113648497994
 20
274.51076665365349
 30
0.0
  0
VERTEX
  5
27672
  8
0
 10
909.51832661859964
 20
274.22068408233389
 30
0.0
  0
VERTEX
  5
27673
  8
0
 10
909.57510120238476
 20
273.63827591075801
 30
0.0
  0
VERTEX
  5
27674
  8
0
 10
909.6897115411374
 20
273.02871533198618
 30
0.0
  0
VERTEX
  5
27675
  8
0
 10
909.77055619439477
 20
272.7041414363141
 30
0.0
  0
SEQEND
  5
27676
  8
0
  0
POLYLINE
  5
25441
  8
0
 66
     1
 10
0.0
 20
0.0
 30
0.0
  0
VERTEX
  5
27677
  8
0
 10
914.75171677556489
 20
272.7041414363141
 30
0.0
  0
VERTEX
  5
27678
  8
0
 10
914.83256142882226
 20
273.02871533198618
 30
0.0
  0
VERTEX
  5
27679
  8
0
 10
914.94717176757513
 20
273.63827591075801
 30
0.0
  0
VERTEX
  5
2767A
  8
0
 10
915.00394635136036
 20
274.22068408233389
 30
0.0
  0
VERTEX
  5
2767B
  8
0
 10
915.01113648497994
 20
274.51076665365349
 30
0.0
  0
SEQEND
  5
2767C
  8
0
  0
LINE
  5
25442
  8
0
 10
909.77055619439477
 20
276.31739187099242
 30
0.0
 11
914.75171677556489
 21
276.31739187099242
 31
0.0
  0
POLYLINE
  5
25443
  8
0
 66
     1
 10
0.0
 20
0.0
 30
0.0
  0
VERTEX
  5
2767D
  8
0
 10
915.01113648497994
 20
269.09089100163578
 30
0.0
  0
VERTEX
  5
2767E
  8
0
 10
915.00394635136036
 20
269.67105614427442
 30
0.0
  0
VERTEX
  5
2767F
  8
0
 10
914.94717176757513
 20
270.83587248742577
 30
0.0
  0
VERTEX
  5
27680
  8
0
 10
914.83256142882226
 20
272.0549936449695
 30
0.0
  0
VERTEX
  5
27681
  8
0
 10
914.75171677556489
 20
272.7041414363141
 30
0.0
  0
SEQEND
  5
27682
  8
0
  0
LINE
  5
25444
  8
0
 10
909.77055619439477
 20
272.7041414363141
 30
0.0
 11
914.75171677556489
 21
272.7041414363141
 31
0.0
  0
POLYLINE
  5
25445
  8
0
 66
     1
 10
0.0
 20
0.0
 30
0.0
  0
VERTEX
  5
27683
  8
0
 10
909.77055619439477
 20
272.7041414363141
 30
0.0
  0
VERTEX
  5
27684
  8
0
 10
909.6897115411374
 20
272.0549936449695
 30
0.0
  0
VERTEX
  5
27685
  8
0
 10
909.57510120238476
 20
270.83587248742577
 30
0.0
  0
VERTEX
  5
27686
  8
0
 10
909.51832661859964
 20
269.67105614427442
 30
0.0
  0
VERTEX
  5
27687
  8
0
 10
909.51113648497994
 20
269.09089100163578
 30
0.0
  0
SEQEND
  5
27688
  8
0
  0
POLYLINE
  5
25446
  8
0
 66
     1
 10
0.0
 20
0.0
 30
0.0
  0
VERTEX
  5
27689
  8
0
 10
909.51113648497994
 20
269.09089100163578
 30
0.0
  0
VERTEX
  5
2768A
  8
0
 10
909.51832661859964
 20
268.51072585899669
 30
0.0
  0
VERTEX
  5
2768B
  8
0
 10
909.57510120238476
 20
267.34590951584528
 30
0.0
  0
VERTEX
  5
2768C
  8
0
 10
909.6897115411374
 20
266.12678835830161
 30
0.0
  0
VERTEX
  5
2768D
  8
0
 10
909.77055619439477
 20
265.47764056695752
 30
0.0
  0
SEQEND
  5
2768E
  8
0
  0
LINE
  5
25447
  8
0
 10
909.77055619439477
 20
265.47764056695752
 30
0.0
 11
914.75171677556489
 21
265.47764056695752
 31
0.0
  0
POLYLINE
  5
25448
  8
0
 66
     1
 10
0.0
 20
0.0
 30
0.0
  0
VERTEX
  5
2768F
  8
0
 10
914.75171677556489
 20
265.47764056695752
 30
0.0
  0
VERTEX
  5
27690
  8
0
 10
914.83256142882226
 20
266.12678835830161
 30
0.0
  0
VERTEX
  5
27691
  8
0
 10
914.94717176757513
 20
267.34590951584528
 30
0.0
  0
VERTEX
  5
27692
  8
0
 10
915.00394635136036
 20
268.51072585899669
 30
0.0
  0
VERTEX
  5
27693
  8
0
 10
915.01113648497994
 20
269.09089100163578
 30
0.0
  0
SEQEND
  5
27694
  8
0
  0
LINE
  5
25449
  8
2
 10
830.51113648498006
 20
325.17419390306333
 30
0.0
 11
830.51113648498006
 21
391.09089100163601
 31
0.0
  0
LINE
  5
2544A
  8
2
 10
920.51113648497983
 20
391.09089100163601
 30
0.0
 11
920.51113648497983
 21
325.17419390306333
 31
0.0
  0
LINE
  5
2544B
  8
0
 10
828.01113648497994
 20
325.17419390306333
 30
0.0
 11
828.01113648497994
 21
393.29089100163583
 31
0.0
  0
LINE
  5
2544C
  8
0
 10
923.01113648497994
 20
393.29089100163583
 30
0.0
 11
923.01113648497994
 21
325.17419390306333
 31
0.0
  0
LINE
  5
2544D
  8
0
 10
862.76113648498006
 20
401.79089100163583
 30
0.0
 11
862.76113648498006
 21
405.0908910016359
 31
0.0
  0
LINE
  5
2544E
  8
0
 10
888.26113648497994
 20
405.0908910016359
 30
0.0
 11
888.26113648497994
 21
401.79089100163583
 31
0.0
  0
ARC
  5
2544F
  8
0
 10
915.86113648498019
 20
398.79089100163583
 30
0.0
 40
3.000000000000028
 50
0.0
 51
90.0
  0
ARC
  5
25450
  8
0
 10
835.16113648497958
 20
398.79089100163583
 30
0.0
 40
3.0000000000000351
 50
90.0
 51
180.0
  0
LINE
  5
25451
  8
0
 10
832.16113648497947
 20
398.29089100163583
 30
0.0
 11
832.16113648497947
 21
398.79089100163583
 31
0.0
  0
LINE
  5
25452
  8
0
 10
918.86113648498031
 20
398.79089100163583
 30
0.0
 11
918.86113648498031
 21
398.29089100163583
 31
0.0
  0
ARC
  5
25453
  8
0
 10
922.51113648498006
 20
394.29089100163583
 30
0.0
 40
4.000000000000056
 50
0.0
 51
90.0
  0
ARC
  5
25454
  8
0
 10
828.51113648497983
 20
394.29089100163583
 30
0.0
 40
4.0000000000000488
 50
90.0
 51
180.0
  0
LINE
  5
25455
  8
0
 10
824.51113648497994
 20
393.29089100163583
 30
0.0
 11
824.51113648497994
 21
394.29089100163583
 31
0.0
  0
LINE
  5
25456
  8
0
 10
926.51113648497994
 20
394.29089100163583
 30
0.0
 11
926.51113648497994
 21
393.29089100163583
 31
0.0
  0
LINE
  5
25457
  8
2
 10
865.51113648497994
 20
391.09089100163601
 30
0.0
 11
865.51113648497994
 21
405.0908910016359
 31
0.0
  0
LINE
  5
25458
  8
2
 10
885.51113648497994
 20
405.0908910016359
 30
0.0
 11
885.51113648497994
 21
391.09089100163601
 31
0.0
  0
LINE
  5
25459
  8
0
 10
909.51113648497994
 20
259.09089100163578
 30
0.0
 11
909.51113648497994
 21
277.60720501423731
 31
0.0
  0
LINE
  5
2545A
  8
0
 10
909.51113648497994
 20
259.09089100163578
 30
0.0
 11
905.01113648497994
 21
259.09089100163578
 31
0.0
  0
LINE
  5
2545B
  8
0
 10
846.01113648497994
 20
259.09089100163578
 30
0.0
 11
841.51113648497994
 21
259.09089100163578
 31
0.0
  0
POLYLINE
  5
2545C
  8
0
 66
     1
 10
0.0
 20
0.0
 30
0.0
  0
VERTEX
  5
27695
  8
0
 10
905.01113648497994
 20
276.44334721863629
 30
0.0
  0
VERTEX
  5
27696
  8
0
 10
905.81061606033825
 20
277.46277702152912
 30
0.0
  0
VERTEX
  5
27697
  8
0
 10
907.3577576600818
 20
279.58194401114292
 30
0.0
  0
VERTEX
  5
27698
  8
0
 10
908.83291119402929
 20
281.80417053309822
 30
0.0
  0
VERTEX
  5
27699
  8
0
 10
909.54244383114383
 20
282.95237014371901
 30
0.0
  0
VERTEX
  5
2769A
  8
0
 10
910.23274213419427
 20
284.12443332956792
 30
0.0
  0
VERTEX
  5
2769B
  8
0
 10
911.55408621641982
 20
286.53748753548712
 30
0.0
  0
VERTEX
  5
2769C
  8
0
 10
912.79395659308454
 20
289.03787853436762
 30
0.0
  0
VERTEX
  5
2769D
  8
0
 10
913.94955058475341
 20
291.61995428825071
 30
0.0
  0
VERTEX
  5
2769E
  8
0
 10
915.01825601552991
 20
294.2778781139221
 30
0.0
  0
VERTEX
  5
2769F
  8
0
 10
915.99765711776854
 20
297.00564187650912
 30
0.0
  0
VERTEX
  5
276A0
  8
0
 10
916.45316867684778
 20
298.39379264546801
 30
0.0
  0
VERTEX
  5
276A1
  8
0
 10
916.88553999284511
 20
299.79707957064079
 30
0.0
  0
VERTEX
  5
276A2
  8
0
 10
917.67989761556964
 20
302.6458812584662
 30
0.0
  0
VERTEX
  5
276A3
  8
0
 10
918.37893437099956
 20
305.54560733302628
 30
0.0
  0
VERTEX
  5
276A4
  8
0
 10
918.98107011336106
 20
308.48970307473809
 30
0.0
  0
VERTEX
  5
276A5
  8
0
 10
919.48494373790163
 20
311.47151346808982
 30
0.0
  0
VERTEX
  5
276A6
  8
0
 10
919.88941625761424
 20
314.48429824504387
 30
0.0
  0
VERTEX
  5
276A7
  8
0
 10
920.05408254904057
 20
316.00018012848818
 30
0.0
  0
VERTEX
  5
276A8
  8
0
 10
920.19357337788279
 20
317.52124712115727
 30
0.0
  0
VERTEX
  5
276A9
  8
0
 10
920.39672756320215
 20
320.57549518996819
 30
0.0
  0
VERTEX
  5
276AA
  8
0
 10
920.49841959132561
 20
323.64013844085213
 30
0.0
  0
VERTEX
  5
276AB
  8
0
 10
920.51113648497983
 20
325.17419390306333
 30
0.0
  0
SEQEND
  5
276AC
  8
0
  0
POLYLINE
  5
2545D
  8
0
 66
     1
 10
0.0
 20
0.0
 30
0.0
  0
VERTEX
  5
276AD
  8
0
 10
920.51113648497983
 20
325.17419390306333
 30
0.0
  0
VERTEX
  5
276AE
  8
0
 10
920.50637692169937
 20
326.11273500187258
 30
0.0
  0
VERTEX
  5
276AF
  8
0
 10
920.46830645616308
 20
327.989023100022
 30
0.0
  0
VERTEX
  5
276B0
  8
0
 10
920.3921977365062
 20
329.86292957165068
 30
0.0
  0
VERTEX
  5
276B1
  8
0
 10
920.33989789910811
 20
330.79849410961992
 30
0.0
  0
VERTEX
  5
276B2
  8
0
 10
920.27811515830206
 20
331.73286890480108
 30
0.0
  0
VERTEX
  5
276B3
  8
0
 10
920.12615524680041
 20
333.59725894411059
 30
0.0
  0
VERTEX
  5
276B4
  8
0
 10
919.93644657526227
 20
335.45452222947353
 30
0.0
  0
VERTEX
  5
276B5
  8
0
 10
919.70914965615884
 20
337.30308733073002
 30
0.0
  0
VERTEX
  5
276B6
  8
0
 10
919.44445680537683
 20
339.14139017725103
 30
0.0
  0
VERTEX
  5
276B7
  8
0
 10
919.14259197949457
 20
340.9678753813007
 30
0.0
  0
VERTEX
  5
276B8
  8
0
 10
918.97779866798726
 20
341.87620300699092
 30
0.0
  0
VERTEX
  5
276B9
  8
0
 10
918.80381058629246
 20
342.78099755404787
 30
0.0
  0
VERTEX
  5
276BA
  8
0
 10
918.42839926865065
 20
344.57922261312092
 30
0.0
  0
VERTEX
  5
276BB
  8
0
 10
918.01667566202195
 20
346.36102908059252
 30
0.0
  0
VERTEX
  5
276BC
  8
0
 10
917.56898812568397
 20
348.12490937030339
 30
0.0
  0
VERTEX
  5
276BD
  8
0
 10
917.08571544798724
 20
349.86937106343089
 30
0.0
  0
VERTEX
  5
276BE
  8
0
 10
916.56726652586633
 20
351.59293817122278
 30
0.0
  0
VERTEX
  5
276BF
  8
0
 10
916.29498690162836
 20
352.44642980936283
 30
0.0
  0
VERTEX
  5
276C0
  8
0
 10
916.01408001886546
 20
353.2941523838324
 30
0.0
  0
VERTEX
  5
276C1
  8
0
 10
915.42662397799916
 20
354.97157430419452
 30
0.0
  0
VERTEX
  5
276C2
  8
0
 10
914.80539544972817
 20
356.62378466589848
 30
0.0
  0
VERTEX
  5
276C3
  8
0
 10
914.48227965527985
 20
357.43999779186078
 30
0.0
  0
VERTEX
  5
276C4
  8
0
 10
914.15092005540816
 20
358.24938553402779
 30
0.0
  0
VERTEX
  5
276C5
  8
0
 10
913.46375154656016
 20
359.84700148795559
 30
0.0
  0
VERTEX
  5
276C6
  8
0
 10
912.74447133634749
 20
361.41528078508668
 30
0.0
  0
VERTEX
  5
276C7
  8
0
 10
912.37297847798425
 20
362.1880035241395
 30
0.0
  0
VERTEX
  5
276C8
  8
0
 10
911.99368800764023
 20
362.95289650456448
 30
0.0
  0
VERTEX
  5
276C9
  8
0
 10
911.21203679808605
 20
364.45854766998201
 30
0.0
  0
VERTEX
  5
276CA
  8
0
 10
910.4001790626462
 20
365.93096035013582
 30
0.0
  0
VERTEX
  5
276CB
  8
0
 10
909.55880171401623
 20
367.36888873689958
 30
0.0
  0
VERTEX
  5
276CC
  8
0
 10
908.68861664143515
 20
368.77111619930088
 30
0.0
  0
VERTEX
  5
276CD
  8
0
 10
907.79036010834704
 20
370.13645631291479
 30
0.0
  0
VERTEX
  5
276CE
  8
0
 10
907.3309416383745
 20
370.80493136347133
 30
0.0
  0
VERTEX
  5
276CF
  8
0
 10
906.8647921294596
 20
371.4637538636955
 30
0.0
  0
VERTEX
  5
276D0
  8
0
 10
905.91269582768473
 20
372.75188582540369
 30
0.0
  0
VERTEX
  5
276D1
  8
0
 10
904.93487677154735
 20
373.9997623097986
 30
0.0
  0
VERTEX
  5
276D2
  8
0
 10
903.93216229359132
 20
375.20632748879081
 30
0.0
  0
VERTEX
  5
276D3
  8
0
 10
902.90540079037237
 20
376.37056048778209
 30
0.0
  0
VERTEX
  5
276D4
  8
0
 10
901.8554610046267
 20
377.49147624942248
 30
0.0
  0
VERTEX
  5
276D5
  8
0
 10
901.32207612077764
 20
378.0353923353357
 30
0.0
  0
VERTEX
  5
276D6
  8
0
 10
900.78323129023738
 20
378.56812636707059
 30
0.0
  0
VERTEX
  5
276D7
  8
0
 10
899.68961886058605
 20
379.59959988723932
 30
0.0
  0
VERTEX
  5
276D8
  8
0
 10
898.57554902097399
 20
380.58502408035179
 30
0.0
  0
VERTEX
  5
276D9
  8
0
 10
897.44196438570543
 20
381.5235651791611
 30
0.0
  0
VERTEX
  5
276DA
  8
0
 10
896.28982408055697
 20
382.41442908419782
 30
0.0
  0
VERTEX
  5
276DB
  8
0
 10
895.12010293124865
 20
383.25686203565778
 30
0.0
  0
VERTEX
  5
276DC
  8
0
 10
894.52895826331053
 20
383.65969254189258
 30
0.0
  0
VERTEX
  5
276DD
  8
0
 10
893.93379063865348
 20
384.05015125116012
 30
0.0
  0
VERTEX
  5
276DE
  8
0
 10
892.73189094140787
 20
384.79362552882958
 30
0.0
  0
VERTEX
  5
276DF
  8
0
 10
891.51542076664907
 20
385.48665581520157
 30
0.0
  0
VERTEX
  5
276E0
  8
0
 10
890.28540936958962
 20
386.12865573746512
 30
0.0
  0
VERTEX
  5
276E1
  8
0
 10
889.04289746267204
 20
386.71908209959201
 30
0.0
  0
VERTEX
  5
276E2
  8
0
 10
887.78893633501491
 20
387.25743534193322
 30
0.0
  0
VERTEX
  5
276E3
  8
0
 10
887.15799351459293
 20
387.50694046739858
 30
0.0
  0
VERTEX
  5
276E4
  8
0
 10
886.52458696292513
 20
387.74325996389962
 30
0.0
  0
VERTEX
  5
276E5
  8
0
 10
885.25091911219351
 20
388.17614490935921
 30
0.0
  0
VERTEX
  5
276E6
  8
0
 10
883.96901043298567
 20
388.55572391442911
 30
0.0
  0
VERTEX
  5
276E7
  8
0
 10
882.67994554801771
 20
388.88167581737622
 30
0.0
  0
VERTEX
  5
276E8
  8
0
 10
881.38481513488296
 20
389.15372483035031
 30
0.0
  0
VERTEX
  5
276E9
  8
0
 10
880.08471500320582
 20
389.37164077272428
 30
0.0
  0
VERTEX
  5
276EA
  8
0
 10
879.43314490862394
 20
389.46023943043929
 30
0.0
  0
VERTEX
  5
276EB
  8
0
 10
878.78074516749803
 20
389.53523926585598
 30
0.0
  0
VERTEX
  5
276EC
  8
0
 10
877.47400891642064
 20
389.64438188908753
 30
0.0
  0
VERTEX
  5
276ED
  8
0
 10
876.16561187930165
 20
389.69897629686329
 30
0.0
  0
VERTEX
  5
276EE
  8
0
 10
875.51113648497994
 20
389.70580168065771
 30
0.0
  0
VERTEX
  5
276EF
  8
0
 10
874.85666109065824
 20
389.69897629686329
 30
0.0
  0
VERTEX
  5
276F0
  8
0
 10
873.54826405353924
 20
389.64438188908753
 30
0.0
  0
VERTEX
  5
276F1
  8
0
 10
872.24152780246175
 20
389.53523926585598
 30
0.0
  0
VERTEX
  5
276F2
  8
0
 10
871.58912806133594
 20
389.46023943043929
 30
0.0
  0
VERTEX
  5
276F3
  8
0
 10
870.93755796675396
 20
389.37164077272428
 30
0.0
  0
VERTEX
  5
276F4
  8
0
 10
869.63745783507682
 20
389.15372483035031
 30
0.0
  0
VERTEX
  5
276F5
  8
0
 10
868.34232742194206
 20
388.88167581737622
 30
0.0
  0
VERTEX
  5
276F6
  8
0
 10
867.05326253697433
 20
388.55572391442911
 30
0.0
  0
VERTEX
  5
276F7
  8
0
 10
865.77135385776455
 20
388.17614490935921
 30
0.0
  0
VERTEX
  5
276F8
  8
0
 10
864.49768600703464
 20
387.74325996389962
 30
0.0
  0
VERTEX
  5
276F9
  8
0
 10
863.86427945536707
 20
387.50694046739858
 30
0.0
  0
VERTEX
  5
276FA
  8
0
 10
863.23333663494486
 20
387.25743534193322
 30
0.0
  0
VERTEX
  5
276FB
  8
0
 10
861.97937550728784
 20
386.71908209959201
 30
0.0
  0
VERTEX
  5
276FC
  8
0
 10
860.73686360037016
 20
386.12865573746512
 30
0.0
  0
VERTEX
  5
276FD
  8
0
 10
859.5068522033107
 20
385.48665581520157
 30
0.0
  0
VERTEX
  5
276FE
  8
0
 10
858.29038202855008
 20
384.79362552882958
 30
0.0
  0
VERTEX
  5
276FF
  8
0
 10
857.0884823313063
 20
384.05015125116012
 30
0.0
  0
VERTEX
  5
27700
  8
0
 10
856.49331470664765
 20
383.65969254189258
 30
0.0
  0
VERTEX
  5
27701
  8
0
 10
855.90217003871112
 20
383.25686203565778
 30
0.0
  0
VERTEX
  5
27702
  8
0
 10
854.7324488894028
 20
382.41442908419782
 30
0.0
  0
VERTEX
  5
27703
  8
0
 10
853.58030858425445
 20
381.5235651791611
 30
0.0
  0
VERTEX
  5
27704
  8
0
 10
852.44672394898578
 20
380.58502408035179
 30
0.0
  0
VERTEX
  5
27705
  8
0
 10
851.33265410937202
 20
379.59959988723932
 30
0.0
  0
VERTEX
  5
27706
  8
0
 10
850.23904167972239
 20
378.56812636707059
 30
0.0
  0
VERTEX
  5
27707
  8
0
 10
849.70019684918225
 20
378.0353923353357
 30
0.0
  0
VERTEX
  5
27708
  8
0
 10
849.16681196533307
 20
377.49147624942248
 30
0.0
  0
VERTEX
  5
27709
  8
0
 10
848.1168721795874
 20
376.37056048778209
 30
0.0
  0
VERTEX
  5
2770A
  8
0
 10
847.09011067636675
 20
375.20632748879081
 30
0.0
  0
VERTEX
  5
2770B
  8
0
 10
846.08739619841253
 20
373.9997623097986
 30
0.0
  0
VERTEX
  5
2770C
  8
0
 10
845.10957714227516
 20
372.75188582540409
 30
0.0
  0
VERTEX
  5
2770D
  8
0
 10
844.15748084050017
 20
371.4637538636955
 30
0.0
  0
VERTEX
  5
2770E
  8
0
 10
843.69133133158527
 20
370.80493136347133
 30
0.0
  0
VERTEX
  5
2770F
  8
0
 10
843.23191286161091
 20
370.13645631291479
 30
0.0
  0
VERTEX
  5
27710
  8
0
 10
842.33365632852463
 20
368.77111619930088
 30
0.0
  0
VERTEX
  5
27711
  8
0
 10
841.46347125594184
 20
367.36888873689958
 30
0.0
  0
VERTEX
  5
27712
  8
0
 10
840.62209390731357
 20
365.93096035013582
 30
0.0
  0
VERTEX
  5
27713
  8
0
 10
839.81023617187384
 20
364.45854766998201
 30
0.0
  0
VERTEX
  5
27714
  8
0
 10
839.02858496231966
 20
362.95289650456448
 30
0.0
  0
VERTEX
  5
27715
  8
0
 10
838.64929449197552
 20
362.1880035241395
 30
0.0
  0
VERTEX
  5
27716
  8
0
 10
838.27780163361228
 20
361.41528078508668
 30
0.0
  0
VERTEX
  5
27717
  8
0
 10
837.55852142339961
 20
359.84700148795559
 30
0.0
  0
VERTEX
  5
27718
  8
0
 10
836.87135291455161
 20
358.24938553402779
 30
0.0
  0
VERTEX
  5
27719
  8
0
 10
836.53999331468003
 20
357.43999779186078
 30
0.0
  0
VERTEX
  5
2771A
  8
0
 10
836.21687752023172
 20
356.62378466589848
 30
0.0
  0
VERTEX
  5
2771B
  8
0
 10
835.59564899195902
 20
354.97157430419497
 30
0.0
  0
VERTEX
  5
2771C
  8
0
 10
835.00819295109443
 20
353.2941523838324
 30
0.0
  0
VERTEX
  5
2771D
  8
0
 10
834.7272860683297
 20
352.44642980936283
 30
0.0
  0
VERTEX
  5
2771E
  8
0
 10
834.45500644409356
 20
351.59293817122278
 30
0.0
  0
VERTEX
  5
2771F
  8
0
 10
833.93655752197265
 20
349.86937106343089
 30
0.0
  0
VERTEX
  5
27720
  8
0
 10
833.4532848442758
 20
348.12490937030378
 30
0.0
  0
VERTEX
  5
27721
  8
0
 10
833.00559730793782
 20
346.36102908059252
 30
0.0
  0
VERTEX
  5
27722
  8
0
 10
832.59387370130935
 20
344.57922261312092
 30
0.0
  0
VERTEX
  5
27723
  8
0
 10
832.21846238366743
 20
342.78099755404787
 30
0.0
  0
VERTEX
  5
27724
  8
0
 10
832.04447430197251
 20
341.87620300699092
 30
0.0
  0
VERTEX
  5
27725
  8
0
 10
831.8796809904652
 20
340.9678753813007
 30
0.0
  0
VERTEX
  5
27726
  8
0
 10
831.57781616458306
 20
339.14139017725103
 30
0.0
  0
VERTEX
  5
27727
  8
0
 10
831.31312331380104
 20
337.30308733073002
 30
0.0
  0
VERTEX
  5
27728
  8
0
 10
831.08582639469751
 20
335.45452222947353
 30
0.0
  0
VERTEX
  5
27729
  8
0
 10
830.89611772315766
 20
333.59725894411059
 30
0.0
  0
VERTEX
  5
2772A
  8
0
 10
830.74415781165771
 20
331.73286890480108
 30
0.0
  0
VERTEX
  5
2772B
  8
0
 10
830.68237507085166
 20
330.79849410961992
 30
0.0
  0
VERTEX
  5
2772C
  8
0
 10
830.63007523345357
 20
329.86292957165068
 30
0.0
  0
VERTEX
  5
2772D
  8
0
 10
830.55396651379669
 20
327.989023100022
 30
0.0
  0
VERTEX
  5
2772E
  8
0
 10
830.5158960482604
 20
326.11273500187258
 30
0.0
  0
VERTEX
  5
2772F
  8
0
 10
830.51113648498006
 20
325.17419390306333
 30
0.0
  0
SEQEND
  5
27730
  8
0
  0
POLYLINE
  5
2545E
  8
0
 66
     1
 10
0.0
 20
0.0
 30
0.0
  0
VERTEX
  5
27731
  8
0
 10
830.51113648498006
 20
325.17419390306333
 30
0.0
  0
VERTEX
  5
27732
  8
0
 10
830.52385337863416
 20
323.64013844085213
 30
0.0
  0
VERTEX
  5
27733
  8
0
 10
830.62554540675785
 20
320.5754951899678
 30
0.0
  0
VERTEX
  5
27734
  8
0
 10
830.82869959207699
 20
317.52124712115727
 30
0.0
  0
VERTEX
  5
27735
  8
0
 10
830.9681904209192
 20
316.00018012848818
 30
0.0
  0
VERTEX
  5
27736
  8
0
 10
831.13285671234553
 20
314.48429824504387
 30
0.0
  0
VERTEX
  5
27737
  8
0
 10
831.53732923205826
 20
311.47151346808982
 30
0.0
  0
VERTEX
  5
27738
  8
0
 10
832.04120285659872
 20
308.48970307473809
 30
0.0
  0
VERTEX
  5
27739
  8
0
 10
832.64333859896021
 20
305.54560733302628
 30
0.0
  0
VERTEX
  5
2773A
  8
0
 10
833.34237535439024
 20
302.6458812584662
 30
0.0
  0
VERTEX
  5
2773B
  8
0
 10
834.13673297711466
 20
299.79707957064079
 30
0.0
  0
VERTEX
  5
2773C
  8
0
 10
834.56910429311199
 20
298.39379264546801
 30
0.0
  0
VERTEX
  5
2773D
  8
0
 10
835.02461585218941
 20
297.00564187650912
 30
0.0
  0
VERTEX
  5
2773E
  8
0
 10
836.00401695442997
 20
294.2778781139221
 30
0.0
  0
VERTEX
  5
2773F
  8
0
 10
837.07272238520443
 20
291.61995428825071
 30
0.0
  0
VERTEX
  5
27740
  8
0
 10
838.22831637687523
 20
289.03787853436762
 30
0.0
  0
VERTEX
  5
27741
  8
0
 10
839.46818675353995
 20
286.53748753548712
 30
0.0
  0
VERTEX
  5
27742
  8
0
 10
840.7895308357655
 20
284.12443332956792
 30
0.0
  0
VERTEX
  5
27743
  8
0
 10
841.47982913881594
 20
282.95237014371901
 30
0.0
  0
VERTEX
  5
27744
  8
0
 10
842.18936177593048
 20
281.80417053309822
 30
0.0
  0
VERTEX
  5
27745
  8
0
 10
843.66451530987797
 20
279.58194401114292
 30
0.0
  0
VERTEX
  5
27746
  8
0
 10
845.21165690961971
 20
277.46277702152912
 30
0.0
  0
VERTEX
  5
27747
  8
0
 10
846.01113648497994
 20
276.44334721863629
 30
0.0
  0
SEQEND
  5
27748
  8
0
  0
LINE
  5
2545F
  8
2
 10
920.51113648497983
 20
391.09089100163601
 30
0.0
 11
830.51113648498006
 21
391.09089100163601
 31
0.0
  0
LINE
  5
25460
  8
0
 10
905.01113648497994
 20
259.09089100163578
 30
0.0
 11
905.01113648497994
 21
373.9044111142054
 31
0.0
  0
LINE
  5
25461
  8
0
 10
889.33261398728064
 20
386.59089100163601
 30
0.0
 11
861.68965898267925
 21
386.59089100163601
 31
0.0
  0
LINE
  5
25462
  8
0
 10
841.51113648497994
 20
277.60720501423731
 30
0.0
 11
841.51113648497994
 21
259.09089100163578
 31
0.0
  0
LINE
  5
25463
  8
0
 10
846.01113648497994
 20
373.90441111420591
 30
0.0
 11
846.01113648497994
 21
259.09089100163578
 31
0.0
  0
LINE
  5
25464
  8
0
 10
847.49645276583567
 20
375.67607643591299
 30
0.0
 11
903.51788084348561
 21
375.67607643591299
 31
0.0
  0
POLYLINE
  5
2546B
  8
0
 66
     1
 10
0.0
 20
0.0
 30
0.0
  0
VERTEX
  5
27749
  8
0
 10
875.51113648497994
 20
393.29089100163583
 30
0.0
  0
VERTEX
  5
2774A
  8
0
 10
875.16570978185507
 20
393.28908983487599
 30
0.0
  0
VERTEX
  5
2774B
  8
0
 10
874.47492944583803
 20
393.27468107232022
 30
0.0
  0
VERTEX
  5
2774C
  8
0
 10
873.78436830506496
 20
393.24586659518269
 30
0.0
  0
VERTEX
  5
2774D
  8
0
 10
873.43921558512545
 20
393.22605899942209
 30
0.0
  0
VERTEX
  5
2774E
  8
0
 10
873.09417243817734
 20
393.20265249876599
 30
0.0
  0
VERTEX
  5
2774F
  8
0
 10
872.40448784654836
 20
393.145047924415
 30
0.0
  0
VERTEX
  5
27750
  8
0
 10
871.71546042339821
 20
393.07306505757788
 30
0.0
  0
VERTEX
  5
27751
  8
0
 10
871.02723592293296
 20
392.98671912523417
 30
0.0
  0
VERTEX
  5
27752
  8
0
 10
870.33995992951168
 20
392.88602839266878
 30
0.0
  0
VERTEX
  5
27753
  8
0
 10
869.65377782684652
 20
392.7710141596117
 30
0.0
  0
VERTEX
  5
27754
  8
0
 10
869.31114235452696
 20
392.70814321519902
 30
0.0
  0
VERTEX
  5
27755
  8
0
 10
868.96883476725816
 20
392.6417007557302
 30
0.0
  0
VERTEX
  5
27756
  8
0
 10
868.2852756409593
 20
392.49811553548352
 30
0.0
  0
VERTEX
  5
27757
  8
0
 10
867.60324504541313
 20
392.3402888723349
 30
0.0
  0
VERTEX
  5
27758
  8
0
 10
866.92288725474282
 20
392.16825415232961
 30
0.0
  0
VERTEX
  5
27759
  8
0
 10
866.2443461892143
 20
391.98204776702829
 30
0.0
  0
VERTEX
  5
2775A
  8
0
 10
865.5677653847888
 20
391.78170910581321
 30
0.0
  0
VERTEX
  5
2775B
  8
0
 10
865.23025482291985
 20
391.67625329859771
 30
0.0
  0
VERTEX
  5
2775C
  8
0
 10
864.89328796276095
 20
391.56728054755058
 30
0.0
  0
VERTEX
  5
2775D
  8
0
 10
864.22105659948647
 20
391.33880745163327
 30
0.0
  0
VERTEX
  5
2775E
  8
0
 10
863.55121349619719
 20
391.09633814837889
 30
0.0
  0
VERTEX
  5
2775F
  8
0
 10
863.21723184260907
 20
390.96987083208393
 30
0.0
  0
VERTEX
  5
27760
  8
0
 10
862.88390034892109
 20
390.83992392880828
 30
0.0
  0
VERTEX
  5
27761
  8
0
 10
862.21925831850785
 20
390.56961903379852
 30
0.0
  0
VERTEX
  5
27762
  8
0
 10
861.55742800077314
 20
390.28548064260389
 30
0.0
  0
VERTEX
  5
27763
  8
0
 10
861.22761100852767
 20
390.13824255495462
 30
0.0
  0
VERTEX
  5
27764
  8
0
 10
860.89854939675024
 20
389.98756886076541
 30
0.0
  0
VERTEX
  5
27765
  8
0
 10
860.24276188307874
 20
389.67594670739339
 30
0.0
  0
VERTEX
  5
27766
  8
0
 10
859.59020418252464
 20
389.35068010183659
 30
0.0
  0
VERTEX
  5
27767
  8
0
 10
858.94101433462674
 20
389.01183784973909
 30
0.0
  0
VERTEX
  5
27768
  8
0
 10
858.29532966650368
 20
388.65949162848568
 30
0.0
  0
VERTEX
  5
27769
  8
0
 10
857.65328676380159
 20
388.29371597203681
 30
0.0
  0
VERTEX
  5
2776A
  8
0
 10
857.33367344763792
 20
388.10581617470513
 30
0.0
  0
VERTEX
  5
2776B
  8
0
 10
857.01502144180085
 20
387.9145882551656
 30
0.0
  0
VERTEX
  5
2776C
  8
0
 10
856.38066871668877
 20
387.52218867708871
 30
0.0
  0
VERTEX
  5
2776D
  8
0
 10
855.75036277699655
 20
387.11660024449969
 30
0.0
  0
VERTEX
  5
2776E
  8
0
 10
855.12423695521102
 20
386.69790875401299
 30
0.0
  0
VERTEX
  5
2776F
  8
0
 10
854.50242369957766
 20
386.26620277401162
 30
0.0
  0
VERTEX
  5
27770
  8
0
 10
853.88505454607355
 20
385.82157362591539
 30
0.0
  0
VERTEX
  5
27771
  8
0
 10
853.57807735631638
 20
385.59444214981608
 30
0.0
  0
VERTEX
  5
27772
  8
0
 10
853.27226009059086
 20
385.36411536486139
 30
0.0
  0
VERTEX
  5
27773
  8
0
 10
852.66416996130829
 20
384.89392475980549
 30
0.0
  0
VERTEX
  5
27774
  8
0
 10
852.06091279126667
 20
384.41110127305728
 30
0.0
  0
VERTEX
  5
27775
  8
0
 10
851.46261619116365
 20
383.91574703923561
 30
0.0
  0
VERTEX
  5
27776
  8
0
 10
850.86940672235505
 20
383.40796684366609
 30
0.0
  0
VERTEX
  5
27777
  8
0
 10
850.28140987008555
 20
382.88786810021429
 30
0.0
  0
VERTEX
  5
27778
  8
0
 10
849.98940508850501
 20
382.62323355302669
 30
0.0
  0
VERTEX
  5
27779
  8
0
 10
849.69875001694345
 20
382.35556082856419
 30
0.0
  0
VERTEX
  5
2777A
  8
0
 10
849.12155041654842
 20
381.81115763094323
 30
0.0
  0
VERTEX
  5
2777B
  8
0
 10
848.54993316748005
 20
381.2547736683066
 30
0.0
  0
VERTEX
  5
2777C
  8
0
 10
847.98401918744639
 20
380.686526635973
 30
0.0
  0
VERTEX
  5
2777D
  8
0
 10
847.42392818770895
 20
380.10653673872929
 30
0.0
  0
VERTEX
  5
2777E
  8
0
 10
846.86977864776225
 20
379.51492666540361
 30
0.0
  0
VERTEX
  5
2777F
  8
0
 10
846.5949686070652
 20
379.21480307582192
 30
0.0
  0
VERTEX
  5
27780
  8
0
 10
846.32168779026335
 20
378.91182156291029
 30
0.0
  0
VERTEX
  5
27781
  8
0
 10
845.77977155623739
 20
378.29734900977769
 30
0.0
  0
VERTEX
  5
27782
  8
0
 10
845.24414458055787
 20
377.67163898916237
 30
0.0
  0
VERTEX
  5
27783
  8
0
 10
844.71492016768934
 20
377.03482386134988
 30
0.0
  0
VERTEX
  5
27784
  8
0
 10
844.19221026772721
 20
376.38703833575778
 30
0.0
  0
VERTEX
  5
27785
  8
0
 10
843.67612545270447
 20
375.72841944243987
 30
0.0
  0
VERTEX
  5
27786
  8
0
 10
843.42060162323639
 20
375.39509093220039
 30
0.0
  0
VERTEX
  5
27787
  8
0
 10
843.16677489321955
 20
375.05910650309829
 30
0.0
  0
VERTEX
  5
27788
  8
0
 10
842.66426633532126
 20
374.37924110161219
 30
0.0
  0
VERTEX
  5
27789
  8
0
 10
842.16870607773672
 20
373.68896705408878
 30
0.0
  0
VERTEX
  5
2778A
  8
0
 10
841.92356437861963
 20
373.33997233349402
 30
0.0
  0
VERTEX
  5
2778B
  8
0
 10
841.68019894937231
 20
372.98843037843949
 30
0.0
  0
VERTEX
  5
2778C
  8
0
 10
841.19884828714203
 20
372.27777926349222
 30
0.0
  0
VERTEX
  5
2778D
  8
0
 10
840.72475591410875
 20
371.55716403764541
 30
0.0
  0
VERTEX
  5
2778E
  8
0
 10
840.49046298649955
 20
371.193167437981
 30
0.0
  0
VERTEX
  5
2778F
  8
0
 10
840.25802211794871
 20
370.826737137066
 30
0.0
  0
VERTEX
  5
27790
  8
0
 10
839.79874562972861
 20
370.08665307344592
 30
0.0
  0
VERTEX
  5
27791
  8
0
 10
839.34702360302617
 20
369.33706840131498
 30
0.0
  0
VERTEX
  5
27792
  8
0
 10
837.82685282114653
 20
366.6410117681441
 30
0.0
  0
VERTEX
  5
27793
  8
0
 10
835.4500428088686
 20
361.77326857600542
 30
0.0
  0
VERTEX
  5
27794
  8
0
 10
833.37812190901411
 20
356.62698432647971
 30
0.0
  0
VERTEX
  5
27795
  8
0
 10
831.62685869069355
 20
351.2413253501179
 30
0.0
  0
VERTEX
  5
27796
  8
0
 10
830.20958132443945
 20
345.6572797636797
 30
0.0
  0
VERTEX
  5
27797
  8
0
 10
829.62965973624875
 20
342.80409240165341
 30
0.0
  0
VERTEX
  5
27798
  8
0
 10
829.13707614678242
 20
339.9173455258167
 30
0.0
  0
VERTEX
  5
27799
  8
0
 10
828.41750556972318
 20
334.06520700194619
 30
0.0
  0
VERTEX
  5
2779A
  8
0
 10
828.05634595984145
 20
328.14540249985322
 30
0.0
  0
VERTEX
  5
2779B
  8
0
 10
828.01113648497994
 20
325.17419390306333
 30
0.0
  0
SEQEND
  5
2779C
  8
0
  0
POLYLINE
  5
2546C
  8
0
 66
     1
 10
0.0
 20
0.0
 30
0.0
  0
VERTEX
  5
2779D
  8
0
 10
828.01113648497994
 20
325.17419390306333
 30
0.0
  0
VERTEX
  5
2779E
  8
0
 10
828.0220873513972
 20
323.71160934943441
 30
0.0
  0
VERTEX
  5
2779F
  8
0
 10
828.10966398910921
 20
320.78913745848041
 30
0.0
  0
VERTEX
  5
277A0
  8
0
 10
828.28465576061888
 20
317.87475224238352
 30
0.0
  0
VERTEX
  5
277A1
  8
0
 10
828.40483775753819
 20
316.42227253671689
 30
0.0
  0
VERTEX
  5
277A2
  8
0
 10
828.54673995592373
 20
314.97382824670399
 30
0.0
  0
VERTEX
  5
277A3
  8
0
 10
828.89543325407055
 20
312.09171519257711
 30
0.0
  0
VERTEX
  5
277A4
  8
0
 10
829.33009261445829
 20
309.23372811105469
 30
0.0
  0
VERTEX
  5
277A5
  8
0
 10
829.849916462701
 20
306.4051375414258
 30
0.0
  0
VERTEX
  5
277A6
  8
0
 10
830.45394616885085
 20
303.6111598115811
 30
0.0
  0
VERTEX
  5
277A7
  8
0
 10
831.14106781524231
 20
300.856947418358
 30
0.0
  0
VERTEX
  5
277A8
  8
0
 10
831.51539805499112
 20
299.49634358337039
 30
0.0
  0
VERTEX
  5
277A9
  8
0
 10
831.91001425071784
 20
298.14757952559222
 30
0.0
  0
VERTEX
  5
277AA
  8
0
 10
832.75936742743943
 20
295.4880525974088
 30
0.0
  0
VERTEX
  5
277AB
  8
0
 10
833.68756101597683
 20
292.88327118402623
 30
0.0
  0
VERTEX
  5
277AC
  8
0
 10
834.6928832938338
 20
290.33803887705858
 30
0.0
  0
VERTEX
  5
277AD
  8
0
 10
835.77348030211749
 20
287.8570494510011
 30
0.0
  0
VERTEX
  5
277AE
  8
0
 10
836.92735926450575
 20
285.44487820723572
 30
0.0
  0
VERTEX
  5
277AF
  8
0
 10
837.5311196772418
 20
284.26599470925038
 30
0.0
  0
VERTEX
  5
277B0
  8
0
 10
838.15239226221274
 20
283.10597353651718
 30
0.0
  0
VERTEX
  5
277B1
  8
0
 10
839.44632015817285
 20
280.84464871550091
 30
0.0
  0
VERTEX
  5
277B2
  8
0
 10
840.80675676321869
 20
278.6650739524386
 30
0.0
  0
VERTEX
  5
277B3
  8
0
 10
841.51113648497994
 20
277.60720501423731
 30
0.0
  0
SEQEND
  5
277B4
  8
0
  0
POLYLINE
  5
2546D
  8
0
 66
     1
 10
0.0
 20
0.0
 30
0.0
  0
VERTEX
  5
277B5
  8
0
 10
909.51113648497994
 20
277.60720501423731
 30
0.0
  0
VERTEX
  5
277B6
  8
0
 10
910.21551620674109
 20
278.6650739524386
 30
0.0
  0
VERTEX
  5
277B7
  8
0
 10
911.57595281178703
 20
280.84464871550091
 30
0.0
  0
VERTEX
  5
277B8
  8
0
 10
912.86988070774714
 20
283.10597353651718
 30
0.0
  0
VERTEX
  5
277B9
  8
0
 10
913.49115329271797
 20
284.26599470925038
 30
0.0
  0
VERTEX
  5
277BA
  8
0
 10
914.09491370545413
 20
285.44487820723572
 30
0.0
  0
VERTEX
  5
277BB
  8
0
 10
915.24879266784228
 20
287.8570494510011
 30
0.0
  0
VERTEX
  5
277BC
  8
0
 10
916.32938967612597
 20
290.33803887705858
 30
0.0
  0
VERTEX
  5
277BD
  8
0
 10
917.33471195398295
 20
292.88327118402623
 30
0.0
  0
VERTEX
  5
277BE
  8
0
 10
918.26290554251864
 20
295.4880525974088
 30
0.0
  0
VERTEX
  5
277BF
  8
0
 10
919.11225871924216
 20
298.14757952559222
 30
0.0
  0
VERTEX
  5
277C0
  8
0
 10
919.50687491496865
 20
299.49634358337039
 30
0.0
  0
VERTEX
  5
277C1
  8
0
 10
919.88120515471746
 20
300.856947418358
 30
0.0
  0
VERTEX
  5
277C2
  8
0
 10
920.5683268011071
 20
303.6111598115811
 30
0.0
  0
VERTEX
  5
277C3
  8
0
 10
921.17235650725706
 20
306.4051375414258
 30
0.0
  0
VERTEX
  5
277C4
  8
0
 10
921.69218035550148
 20
309.23372811105509
 30
0.0
  0
VERTEX
  5
277C5
  8
0
 10
922.12683971588922
 20
312.09171519257711
 30
0.0
  0
VERTEX
  5
277C6
  8
0
 10
922.47553301403605
 20
314.97382824670399
 30
0.0
  0
VERTEX
  5
277C7
  8
0
 10
922.61743521241976
 20
316.42227253671689
 30
0.0
  0
VERTEX
  5
277C8
  8
0
 10
922.7376172093409
 20
317.87475224238352
 30
0.0
  0
VERTEX
  5
277C9
  8
0
 10
922.91260898085056
 20
320.78913745848041
 30
0.0
  0
VERTEX
  5
277CA
  8
0
 10
923.00018561856257
 20
323.71160934943441
 30
0.0
  0
VERTEX
  5
277CB
  8
0
 10
923.01113648497994
 20
325.17419390306333
 30
0.0
  0
SEQEND
  5
277CC
  8
0
  0
POLYLINE
  5
2546E
  8
0
 66
     1
 10
0.0
 20
0.0
 30
0.0
  0
VERTEX
  5
277CD
  8
0
 10
923.01113648497994
 20
325.17419390306333
 30
0.0
  0
VERTEX
  5
277CE
  8
0
 10
922.96592701011832
 20
328.14540249985322
 30
0.0
  0
VERTEX
  5
277CF
  8
0
 10
922.6047674002366
 20
334.06520700194619
 30
0.0
  0
VERTEX
  5
277D0
  8
0
 10
921.88519682317735
 20
339.9173455258167
 30
0.0
  0
VERTEX
  5
277D1
  8
0
 10
921.39261323371102
 20
342.80409240165341
 30
0.0
  0
VERTEX
  5
277D2
  8
0
 10
920.81269164552032
 20
345.6572797636797
 30
0.0
  0
VERTEX
  5
277D3
  8
0
 10
919.39541427926622
 20
351.2413253501179
 30
0.0
  0
VERTEX
  5
277D4
  8
0
 10
917.64415106094566
 20
356.62698432647971
 30
0.0
  0
VERTEX
  5
277D5
  8
0
 10
915.57223016109128
 20
361.77326857600542
 30
0.0
  0
VERTEX
  5
277D6
  8
0
 10
913.19542014881335
 20
366.6410117681441
 30
0.0
  0
VERTEX
  5
277D7
  8
0
 10
911.6752493669336
 20
369.33706840131498
 30
0.0
  0
VERTEX
  5
277D8
  8
0
 10
911.22352734023116
 20
370.08665307344592
 30
0.0
  0
VERTEX
  5
277D9
  8
0
 10
910.76425085201106
 20
370.826737137066
 30
0.0
  0
VERTEX
  5
277DA
  8
0
 10
910.53180998346033
 20
371.193167437981
 30
0.0
  0
VERTEX
  5
277DB
  8
0
 10
910.29751705585124
 20
371.55716403764541
 30
0.0
  0
VERTEX
  5
277DC
  8
0
 10
909.82342468281774
 20
372.27777926349222
 30
0.0
  0
VERTEX
  5
277DD
  8
0
 10
909.34207402058746
 20
372.98843037843949
 30
0.0
  0
VERTEX
  5
277DE
  8
0
 10
909.09870859134026
 20
373.33997233349402
 30
0.0
  0
VERTEX
  5
277DF
  8
0
 10
908.85356689222306
 20
373.68896705408878
 30
0.0
  0
VERTEX
  5
277E0
  8
0
 10
908.35800663463669
 20
374.37924110161219
 30
0.0
  0
VERTEX
  5
277E1
  8
0
 10
907.85549807674033
 20
375.05910650309829
 30
0.0
  0
VERTEX
  5
277E2
  8
0
 10
907.60167134672338
 20
375.39509093220039
 30
0.0
  0
VERTEX
  5
277E3
  8
0
 10
907.34614751725337
 20
375.72841944243987
 30
0.0
  0
VERTEX
  5
277E4
  8
0
 10
906.83006270223257
 20
376.38703833575778
 30
0.0
  0
VERTEX
  5
277E5
  8
0
 10
906.30735280227054
 20
377.03482386134988
 30
0.0
  0
VERTEX
  5
277E6
  8
0
 10
905.7781283894019
 20
377.67163898916237
 30
0.0
  0
VERTEX
  5
277E7
  8
0
 10
905.24250141372261
 20
378.29734900977769
 30
0.0
  0
VERTEX
  5
277E8
  8
0
 10
904.70058517969653
 20
378.91182156290978
 30
0.0
  0
VERTEX
  5
277E9
  8
0
 10
904.42730436289457
 20
379.21480307582192
 30
0.0
  0
VERTEX
  5
277EA
  8
0
 10
904.15249432219753
 20
379.51492666540361
 30
0.0
  0
VERTEX
  5
277EB
  8
0
 10
903.59834478224911
 20
380.10653673872929
 30
0.0
  0
VERTEX
  5
277EC
  8
0
 10
903.03825378251349
 20
380.686526635973
 30
0.0
  0
VERTEX
  5
277ED
  8
0
 10
902.47233980247984
 20
381.2547736683066
 30
0.0
  0
VERTEX
  5
277EE
  8
0
 10
901.90072255341136
 20
381.81115763094323
 30
0.0
  0
VERTEX
  5
277EF
  8
0
 10
901.32352295301655
 20
382.35556082856419
 30
0.0
  0
VERTEX
  5
277F0
  8
0
 10
901.03286788145306
 20
382.62323355302669
 30
0.0
  0
VERTEX
  5
277F1
  8
0
 10
900.74086309987422
 20
382.88786810021429
 30
0.0
  0
VERTEX
  5
277F2
  8
0
 10
900.15286624760472
 20
383.40796684366609
 30
0.0
  0
VERTEX
  5
277F3
  8
0
 10
899.55965677879612
 20
383.91574703923561
 30
0.0
  0
VERTEX
  5
277F4
  8
0
 10
898.96136017869128
 20
384.41110127305728
 30
0.0
  0
VERTEX
  5
277F5
  8
0
 10
898.35810300864966
 20
384.89392475980549
 30
0.0
  0
VERTEX
  5
277F6
  8
0
 10
897.75001287936709
 20
385.36411536486139
 30
0.0
  0
VERTEX
  5
277F7
  8
0
 10
897.44419561364339
 20
385.59444214981608
 30
0.0
  0
VERTEX
  5
277F8
  8
0
 10
897.13721842388622
 20
385.82157362591539
 30
0.0
  0
VERTEX
  5
277F9
  8
0
 10
896.51984927038211
 20
386.26620277401162
 30
0.0
  0
VERTEX
  5
277FA
  8
0
 10
895.89803601474887
 20
386.69790875401299
 30
0.0
  0
VERTEX
  5
277FB
  8
0
 10
895.27191019296322
 20
387.11660024449969
 30
0.0
  0
VERTEX
  5
277FC
  8
0
 10
894.64160425326907
 20
387.52218867708871
 30
0.0
  0
VERTEX
  5
277FD
  8
0
 10
894.00725152815721
 20
387.9145882551656
 30
0.0
  0
VERTEX
  5
277FE
  8
0
 10
893.68859952232185
 20
388.10581617470513
 30
0.0
  0
VERTEX
  5
277FF
  8
0
 10
893.36898620615818
 20
388.29371597203681
 30
0.0
  0
VERTEX
  5
27800
  8
0
 10
892.7269433034561
 20
388.65949162848568
 30
0.0
  0
VERTEX
  5
27801
  8
0
 10
892.08125863533314
 20
389.01183784973909
 30
0.0
  0
VERTEX
  5
27802
  8
0
 10
891.43206878743513
 20
389.35068010183659
 30
0.0
  0
VERTEX
  5
27803
  8
0
 10
890.7795110868791
 20
389.67594670739339
 30
0.0
  0
VERTEX
  5
27804
  8
0
 10
890.12372357320965
 20
389.98756886076541
 30
0.0
  0
VERTEX
  5
27805
  8
0
 10
889.7946619614321
 20
390.13824255495462
 30
0.0
  0
VERTEX
  5
27806
  8
0
 10
889.46484496918674
 20
390.28548064260389
 30
0.0
  0
VERTEX
  5
27807
  8
0
 10
888.80301465145203
 20
390.56961903379852
 30
0.0
  0
VERTEX
  5
27808
  8
0
 10
888.13837262103868
 20
390.83992392880828
 30
0.0
  0
VERTEX
  5
27809
  8
0
 10
887.80504112734889
 20
390.96987083208393
 30
0.0
  0
VERTEX
  5
2780A
  8
0
 10
887.47105947376258
 20
391.09633814837889
 30
0.0
  0
VERTEX
  5
2780B
  8
0
 10
886.8012163704733
 20
391.33880745163327
 30
0.0
  0
VERTEX
  5
2780C
  8
0
 10
886.12898500719882
 20
391.56728054755058
 30
0.0
  0
VERTEX
  5
2780D
  8
0
 10
885.79201814703993
 20
391.67625329859771
 30
0.0
  0
VERTEX
  5
2780E
  8
0
 10
885.45450758517097
 20
391.78170910581321
 30
0.0
  0
VERTEX
  5
2780F
  8
0
 10
884.77792678074547
 20
391.98204776702829
 30
0.0
  0
VERTEX
  5
27810
  8
0
 10
884.09938571521695
 20
392.16825415232961
 30
0.0
  0
VERTEX
  5
27811
  8
0
 10
883.41902792454675
 20
392.3402888723349
 30
0.0
  0
VERTEX
  5
27812
  8
0
 10
882.73699732900047
 20
392.49811553548352
 30
0.0
  0
VERTEX
  5
27813
  8
0
 10
882.05343820270184
 20
392.6417007557302
 30
0.0
  0
VERTEX
  5
27814
  8
0
 10
881.71113061543292
 20
392.70814321519902
 30
0.0
  0
VERTEX
  5
27815
  8
0
 10
881.36849514311132
 20
392.7710141596117
 30
0.0
  0
VERTEX
  5
27816
  8
0
 10
880.68231304044809
 20
392.88602839266878
 30
0.0
  0
VERTEX
  5
27817
  8
0
 10
879.99503704702681
 20
392.98671912523417
 30
0.0
  0
VERTEX
  5
27818
  8
0
 10
879.30681254656156
 20
393.07306505757788
 30
0.0
  0
VERTEX
  5
27819
  8
0
 10
878.61778512341141
 20
393.145047924415
 30
0.0
  0
VERTEX
  5
2781A
  8
0
 10
877.92810053178255
 20
393.20265249876599
 30
0.0
  0
VERTEX
  5
2781B
  8
0
 10
877.58305738483239
 20
393.22605899942209
 30
0.0
  0
VERTEX
  5
2781C
  8
0
 10
877.23790466489481
 20
393.24586659518269
 30
0.0
  0
VERTEX
  5
2781D
  8
0
 10
876.54734352412186
 20
393.27468107232022
 30
0.0
  0
VERTEX
  5
2781E
  8
0
 10
875.8565631881047
 20
393.28908983487599
 30
0.0
  0
VERTEX
  5
2781F
  8
0
 10
875.51113648497994
 20
393.29089100163583
 30
0.0
  0
SEQEND
  5
27820
  8
0
  0
LINE
  5
2546F
  8
0
 10
888.26113648497994
 20
405.0908910016359
 30
0.0
 11
862.76113648498006
 21
405.0908910016359
 31
0.0
  0
LINE
  5
25470
  8
0
 10
915.86113648498019
 20
401.79089100163583
 30
0.0
 11
835.16113648497958
 21
401.79089100163583
 31
0.0
  0
LINE
  5
25471
  8
0
 10
922.51113648498006
 20
398.29089100163583
 30
0.0
 11
828.51113648497983
 21
398.29089100163583
 31
0.0
  0
LINE
  5
25472
  8
0
 10
926.51113648497994
 20
393.29089100163583
 30
0.0
 11
824.51113648497994
 21
393.29089100163583
 31
0.0
  0
LINE
  5
25473
  8
0
 10
872.51113648498006
 20
369.09089100163578
 30
0.0
 11
878.51113648497983
 21
369.09089100163578
 31
0.0
  0
LINE
  5
25474
  8
0
 10
878.51113648497983
 20
169.09089100163581
 30
0.0
 11
872.51113648498006
 21
169.09089100163581
 31
0.0
  0
ARC
  5
25475
  8
0
 10
872.51113648498006
 20
169.39089100163551
 30
0.0
 40
0.3000000000000114
 50
180.0
 51
270.0
  0
ARC
  5
25476
  8
0
 10
872.51113648498006
 20
368.7908910016356
 30
0.0
 40
0.3000000000000074
 50
90.0
 51
180.0
  0
LINE
  5
25477
  8
0
 10
869.81113648497922
 20
368.7908910016356
 30
0.0
 11
872.21113648498067
 21
368.7908910016356
 31
0.0
  0
LINE
  5
25478
  8
0
 10
872.21113648498067
 20
169.39089100163551
 30
0.0
 11
869.81113648497922
 21
169.39089100163551
 31
0.0
  0
ARC
  5
25479
  8
0
 10
869.51113648497994
 20
169.39089100163551
 30
0.0
 40
0.3000000000000034
 50
270.0
 51
0.0
  0
ARC
  5
2547A
  8
0
 10
869.51113648497994
 20
368.7908910016356
 30
0.0
 40
0.3000000000000114
 50
0.0
 51
90.0
  0
LINE
  5
2547B
  8
0
 10
864.99753408446304
 20
369.09089100163578
 30
0.0
 11
869.51113648497994
 21
369.09089100163578
 31
0.0
  0
LINE
  5
2547C
  8
0
 10
869.51113648497994
 20
169.09089100163581
 30
0.0
 11
864.99753408446304
 21
169.09089100163581
 31
0.0
  0
ARC
  5
2547D
  8
0
 10
864.99753408446304
 20
170.09089100163581
 30
0.0
 40
1.000000000000014
 50
198.99999999999179
 51
270.0
  0
ARC
  5
2547E
  8
0
 10
864.99753408446304
 20
368.09089100163578
 30
0.0
 40
1.0000000000000151
 50
90.0
 51
161.0000000000081
  0
LINE
  5
2547F
  8
0
 10
860.89446635730917
 20
359.24627056334913
 30
0.0
 11
864.05201550886329
 21
368.41645915609269
 31
0.0
  0
LINE
  5
25480
  8
0
 10
864.05201550886329
 20
169.7653228471784
 30
0.0
 11
860.89446635730917
 21
178.93551143992249
 31
0.0
  0
ARC
  5
25481
  8
0
 10
863.73102208410626
 20
179.9122159032938
 30
0.0
 40
2.999999999999873
 50
179.99999914622629
 51
198.99999999999179
  0
ARC
  5
25482
  8
0
 10
863.73102208410626
 20
358.26956609997728
 30
0.0
 40
2.9999999999998699
 50
161.0000000000081
 51
180.0
  0
ARC
  5
25483
  8
0
 10
859.89768875077243
 20
181.83036380744599
 30
0.0
 40
0.8333333333333374
 50
180.0
 51
0.0000008537736463
  0
ARC
  5
25484
  8
0
 10
859.89768875077243
 20
356.35141819582509
 30
0.0
 40
0.8333333333333322
 50
0.0000008537736463
 51
180.0
  0
ARC
  5
25485
  8
0
 10
858.23102208410637
 20
186.67071527023899
 30
0.0
 40
0.8333333333333322
 50
180.0
 51
0.0
  0
ARC
  5
25486
  8
0
 10
858.23102208410637
 20
351.51106673303212
 30
0.0
 40
0.8333333333333322
 50
0.0
 51
180.0
  0
LINE
  5
25487
  8
0
 10
850.67458075818092
 20
329.56556763776302
 30
0.0
 11
857.39768875077243
 21
349.09089100163578
 31
0.0
  0
LINE
  5
25488
  8
0
 10
857.39768875077243
 20
189.09089100163581
 30
0.0
 11
850.67458075818092
 21
208.61621436550851
 31
0.0
  0
ARC
  5
25489
  8
0
 10
853.51113648497983
 20
209.5929188288799
 30
0.0
 40
2.9999999999999192
 50
180.0
 51
198.99999999999179
  0
ARC
  5
2548A
  8
0
 10
853.51113648497983
 20
328.58886317439118
 30
0.0
 40
2.9999999999999138
 50
161.0000000000081
 51
180.0
  0
ARC
  5
2548B
  8
0
 10
897.51113648498006
 20
209.5929188288799
 30
0.0
 40
2.9999999999995981
 50
341.00000000000807
 51
0.0
  0
ARC
  5
2548C
  8
0
 10
897.51113648498006
 20
328.58886317439169
 30
0.0
 40
2.9999999999995981
 50
0.0
 51
18.999999999991871
  0
LINE
  5
2548D
  8
0
 10
893.62458421918575
 20
349.09089100163578
 30
0.0
 11
900.34769221177692
 21
329.56556763776302
 31
0.0
  0
LINE
  5
2548E
  8
0
 10
900.34769221177692
 20
208.61621436550851
 30
0.0
 11
893.62458421918575
 21
189.09089100163581
 31
0.0
  0
ARC
  5
2548F
  8
0
 10
892.7912508858534
 20
186.67071527023899
 30
0.0
 40
0.8333333333333357
 50
180.0
 51
0.0
  0
ARC
  5
25490
  8
0
 10
892.7912508858534
 20
351.51106673303212
 30
0.0
 40
0.8333333333333357
 50
0.0
 51
180.0
  0
ARC
  5
25491
  8
0
 10
891.12458421918564
 20
181.83036380744599
 30
0.0
 40
0.8333333333333322
 50
180.0
 51
0.0
  0
ARC
  5
25492
  8
0
 10
891.12458421918564
 20
356.35141819582509
 30
0.0
 40
0.8333333333333303
 50
0.0000008537736463
 51
179.99999914622629
  0
ARC
  5
25493
  8
0
 10
887.29125088585351
 20
179.9122159032938
 30
0.0
 40
3.0000000000000369
 50
341.00000000000807
 51
0.0
  0
ARC
  5
25494
  8
0
 10
887.29125088585351
 20
358.26956609997728
 30
0.0
 40
2.9999999999998752
 50
0.0
 51
18.999999999991871
  0
LINE
  5
25495
  8
0
 10
886.97025746109466
 20
368.41645915609269
 30
0.0
 11
890.1278066126506
 21
359.24627056334913
 31
0.0
  0
LINE
  5
25496
  8
0
 10
890.1278066126506
 20
178.93551143992249
 30
0.0
 11
886.97025746109466
 21
169.7653228471784
 31
0.0
  0
ARC
  5
25497
  8
0
 10
886.02473888549684
 20
170.09089100163581
 30
0.0
 40
1.000000000000014
 50
270.0
 51
341.00000000000807
  0
ARC
  5
25498
  8
0
 10
886.02473888549684
 20
368.09089100163578
 30
0.0
 40
1.000000000000014
 50
18.999999999991871
 51
90.0
  0
LINE
  5
25499
  8
0
 10
881.51113648498006
 20
369.09089100163578
 30
0.0
 11
886.02473888549684
 21
369.09089100163578
 31
0.0
  0
LINE
  5
2549A
  8
0
 10
886.02473888549684
 20
169.09089100163581
 30
0.0
 11
881.51113648498006
 21
169.09089100163581
 31
0.0
  0
ARC
  5
2549B
  8
0
 10
881.51113648498006
 20
169.39089100163551
 30
0.0
 40
0.3000000000000114
 50
180.0
 51
270.0
  0
ARC
  5
2549C
  8
0
 10
881.51113648498006
 20
368.7908910016356
 30
0.0
 40
0.3000000000000078
 50
90.0
 51
180.0
  0
LINE
  5
2549D
  8
0
 10
878.8111364849791
 20
368.7908910016356
 30
0.0
 11
881.21113648498067
 21
368.7908910016356
 31
0.0
  0
LINE
  5
2549E
  8
0
 10
881.21113648498067
 20
169.39089100163551
 30
0.0
 11
878.8111364849791
 21
169.39089100163551
 31
0.0
  0
ARC
  5
2549F
  8
0
 10
878.51113648497983
 20
169.39089100163551
 30
0.0
 40
0.3000000000000038
 50
270.0
 51
0.0
  0
ARC
  5
254A0
  8
0
 10
878.51113648497983
 20
368.7908910016356
 30
0.0
 40
0.3000000000000114
 50
0.0
 51
90.0
  0
LINE
  5
254A1
  8
0
 10
872.21113648498067
 20
169.39089100163551
 30
0.0
 11
872.21113648498067
 21
368.7908910016356
 31
0.0
  0
LINE
  5
254A2
  8
0
 10
869.81113648497922
 20
169.39089100163551
 30
0.0
 11
869.81113648497922
 21
368.7908910016356
 31
0.0
  0
LINE
  5
254A3
  8
0
 10
860.73102208410637
 20
179.9122159032938
 30
0.0
 11
860.73102208410637
 21
358.26956609997728
 31
0.0
  0
LINE
  5
254A4
  8
0
 10
859.06435541744042
 20
181.83036380744599
 30
0.0
 11
859.06435541744042
 21
356.35141819582509
 31
0.0
  0
LINE
  5
254A5
  8
0
 10
857.39768875077243
 20
186.67071527023899
 30
0.0
 11
857.39768875077243
 21
351.51106673303212
 31
0.0
  0
LINE
  5
254A6
  8
0
 10
850.51113648497994
 20
209.5929188288799
 30
0.0
 11
850.51113648497994
 21
328.58886317439118
 31
0.0
  0
LINE
  5
254A7
  8
0
 10
893.62458421918575
 20
186.67071527023899
 30
0.0
 11
893.62458421918575
 21
351.51106673303212
 31
0.0
  0
LINE
  5
254A8
  8
0
 10
891.95791755251958
 20
181.83036380744599
 30
0.0
 11
891.95791755251958
 21
356.35141819582509
 31
0.0
  0
LINE
  5
254A9
  8
0
 10
890.2912508858534
 20
179.9122159032938
 30
0.0
 11
890.2912508858534
 21
358.26956609997728
 31
0.0
  0
LINE
  5
254AA
  8
0
 10
881.21113648498067
 20
169.39089100163551
 30
0.0
 11
881.21113648498067
 21
368.7908910016356
 31
0.0
  0
LINE
  5
254AB
  8
0
 10
878.8111364849791
 20
169.39089100163551
 30
0.0
 11
878.8111364849791
 21
368.7908910016356
 31
0.0
  0
LINE
  5
254AC
  8
0
 10
900.51113648497994
 20
209.5929188288799
 30
0.0
 11
900.51113648497994
 21
328.58886317439118
 31
0.0
  0
LINE
  5
254AD
  8
2
 10
654.98110264979732
 20
389.70580168065771
 30
0.0
 11
654.98110264979732
 21
391.09089100163601
 31
0.0
  0
LINE
  5
254AE
  8
0
 10
562.48110264979675
 20
393.29089100163583
 30
0.0
 11
562.48110264979675
 21
391.29089100163583
 31
0.0
  0
LINE
  5
254AF
  8
0
 10
622.73110264979721
 20
401.79089100163583
 30
0.0
 11
622.73110264979721
 21
405.0908910016359
 31
0.0
  0
LINE
  5
254B0
  8
0
 10
597.23110264979675
 20
405.0908910016359
 30
0.0
 11
597.23110264979675
 21
401.79089100163583
 31
0.0
  0
ARC
  5
254B1
  8
0
 10
569.63110264979741
 20
398.79089100163583
 30
0.0
 40
3.000000000000028
 50
90.0
 51
180.0
  0
ARC
  5
254B2
  8
0
 10
650.33110264979769
 20
398.79089100163583
 30
0.0
 40
3.0000000000000422
 50
0.0
 51
90.0
  0
LINE
  5
254B3
  8
0
 10
653.33110264979757
 20
398.29089100163583
 30
0.0
 11
653.33110264979757
 21
398.79089100163583
 31
0.0
  0
LINE
  5
254B4
  8
0
 10
566.6311026497973
 20
398.79089100163583
 30
0.0
 11
566.6311026497973
 21
398.29089100163583
 31
0.0
  0
ARC
  5
254B5
  8
0
 10
562.98110264979675
 20
394.29089100163583
 30
0.0
 40
4.0000000000000417
 50
90.0
 51
180.0
  0
ARC
  5
254B6
  8
0
 10
656.98110264979732
 20
394.29089100163583
 30
0.0
 40
4.0000000000000284
 50
0.0
 51
90.0
  0
LINE
  5
254B7
  8
0
 10
660.98110264979732
 20
393.29089100163583
 30
0.0
 11
660.98110264979732
 21
394.29089100163583
 31
0.0
  0
LINE
  5
254B8
  8
0
 10
558.98110264979675
 20
394.29089100163583
 30
0.0
 11
558.98110264979675
 21
393.29089100163583
 31
0.0
  0
LINE
  5
254B9
  8
2
 10
619.98110264979675
 20
391.09089100163601
 30
0.0
 11
619.98110264979675
 21
405.0908910016359
 31
0.0
  0
LINE
  5
254BA
  8
2
 10
599.98110264979675
 20
405.0908910016359
 30
0.0
 11
599.98110264979675
 21
391.09089100163601
 31
0.0
  0
LINE
  5
254BB
  8
0
 10
576.81108606855332
 20
391.29089100163583
 30
0.0
 11
555.98110264979675
 21
391.29089100163583
 31
0.0
  0
LINE
  5
254BC
  8
0
 10
555.98110264979675
 20
391.29089100163583
 30
0.0
 11
552.79122985698575
 21
365.09089100163578
 31
0.0
  0
ARC
  5
254BD
  8
0
 10
558.68110264979759
 20
269.09089100163578
 30
0.0
 40
9.9999999999999591
 50
270.0
 51
325.11067568639987
  0
LINE
  5
254BE
  8
0
 10
549.28110264979705
 20
259.09089100163578
 30
0.0
 11
558.68110264979759
 21
259.09089100163578
 31
0.0
  0
ARC
  5
254BF
  8
0
 10
549.28110264979705
 20
269.09089100163578
 30
0.0
 40
10.0
 50
171.93083053291519
 51
270.0
  0
LINE
  5
254C0
  8
0
 10
566.88368732198205
 20
263.3709605216693
 30
0.0
 11
576.81108606855332
 21
277.60720501423731
 31
0.0
  0
LINE
  5
254C1
  8
2
 10
564.98110264979675
 20
391.09089100163601
 30
0.0
 11
654.98110264979732
 21
391.09089100163601
 31
0.0
  0
LINE
  5
254C2
  8
0
 10
552.79122985698575
 20
365.09089100163578
 30
0.0
 11
539.38010932444138
 21
270.49457585631831
 31
0.0
  0
LINE
  5
254C7
  8
0
 10
576.81108606855332
 20
391.29089100163583
 30
0.0
 11
576.81108606855332
 21
277.60720501423731
 31
0.0
  0
POLYLINE
  5
254C8
  8
0
 66
     1
 10
0.0
 20
0.0
 30
0.0
  0
VERTEX
  5
27821
  8
0
 10
576.81108606855332
 20
277.60720501423731
 30
0.0
  0
VERTEX
  5
27822
  8
0
 10
577.18196920273795
 20
278.1390646797156
 30
0.0
  0
VERTEX
  5
27823
  8
0
 10
577.93527718026905
 20
279.21933523397797
 30
0.0
  0
VERTEX
  5
27824
  8
0
 10
578.70367769774703
 20
280.32124902975443
 30
0.0
  0
VERTEX
  5
27825
  8
0
 10
579.0934248408571
 20
280.88016035801343
 30
0.0
  0
VERTEX
  5
27826
  8
0
 10
579.48680886355532
 20
281.44428710154062
 30
0.0
  0
VERTEX
  5
27827
  8
0
 10
580.28430184842591
 20
282.58792053498593
 30
0.0
  0
VERTEX
  5
27828
  8
0
 10
581.09578105913943
 20
283.75161071599558
 30
0.0
  0
VERTEX
  5
27829
  8
0
 10
581.92086431542111
 20
284.93480958440051
 30
0.0
  0
VERTEX
  5
2782A
  8
0
 10
582.75916302993255
 20
286.1369598920744
 30
0.0
  0
VERTEX
  5
2782B
  8
0
 10
583.61028239128564
 20
287.35749546538108
 30
0.0
  0
VERTEX
  5
2782C
  8
0
 10
584.040524779782
 20
287.97447842235238
 30
0.0
  0
VERTEX
  5
2782D
  8
0
 10
584.47382154998695
 20
288.59584147182233
 30
0.0
  0
VERTEX
  5
2782E
  8
0
 10
585.34937380721885
 20
289.85141469076711
 30
0.0
  0
VERTEX
  5
2782F
  8
0
 10
586.23652680639088
 20
291.12362378812782
 30
0.0
  0
VERTEX
  5
27830
  8
0
 10
587.13486272733587
 20
292.41186959486032
 30
0.0
  0
VERTEX
  5
27831
  8
0
 10
588.04395848309787
 20
293.71554538915211
 30
0.0
  0
VERTEX
  5
27832
  8
0
 10
588.96338591918845
 20
295.03403718216958
 30
0.0
  0
VERTEX
  5
27833
  8
0
 10
589.4268388830036
 20
295.69864529070878
 30
0.0
  0
VERTEX
  5
27834
  8
0
 10
589.89271201523616
 20
296.36672400722699
 30
0.0
  0
VERTEX
  5
27835
  8
0
 10
590.83149908891892
 20
297.71297821223988
 30
0.0
  0
VERTEX
  5
27836
  8
0
 10
591.77930500210584
 20
299.07216575533022
 30
0.0
  0
VERTEX
  5
27837
  8
0
 10
592.25645068816402
 20
299.7564097167853
 30
0.0
  0
VERTEX
  5
27838
  8
0
 10
592.7356833690842
 20
300.4436465034384
 30
0.0
  0
VERTEX
  5
27839
  8
0
 10
593.700183766799
 20
301.82677453380728
 30
0.0
  0
VERTEX
  5
2783A
  8
0
 10
594.67235194697651
 20
303.22089843818708
 30
0.0
  0
VERTEX
  5
2783B
  8
0
 10
595.16116850956178
 20
303.92187885356378
 30
0.0
  0
VERTEX
  5
2783C
  8
0
 10
595.65173005007307
 20
304.62536162963153
 30
0.0
  0
VERTEX
  5
2783D
  8
0
 10
596.63785682090338
 20
306.03950265172563
 30
0.0
  0
VERTEX
  5
2783E
  8
0
 10
597.63026782588122
 20
307.46265549011127
 30
0.0
  0
VERTEX
  5
2783F
  8
0
 10
598.62849567174771
 20
308.89414988615971
 30
0.0
  0
VERTEX
  5
27840
  8
0
 10
599.63207022570566
 20
310.33331165263888
 30
0.0
  0
VERTEX
  5
27841
  8
0
 10
600.64051883682941
 20
311.77946299123568
 30
0.0
  0
VERTEX
  5
27842
  8
0
 10
601.14642257662263
 20
312.50494702922629
 30
0.0
  0
VERTEX
  5
27843
  8
0
 10
601.65336655867065
 20
313.23192281177649
 30
0.0
  0
VERTEX
  5
27844
  8
0
 10
602.67013637294667
 20
314.6900070529976
 30
0.0
  0
VERTEX
  5
27845
  8
0
 10
603.69034941419295
 20
316.15302900471602
 30
0.0
  0
VERTEX
  5
27846
  8
0
 10
604.71352519530183
 20
317.62029963124928
 30
0.0
  0
VERTEX
  5
27847
  8
0
 10
605.73918183380601
 20
319.09112789592632
 30
0.0
  0
VERTEX
  5
27848
  8
0
 10
606.7668362788404
 20
320.56482108654501
 30
0.0
  0
VERTEX
  5
27849
  8
0
 10
607.28126146190095
 20
321.30252517863869
 30
0.0
  0
VERTEX
  5
2784A
  8
0
 10
607.79600453863475
 20
322.04068514161582
 30
0.0
  0
VERTEX
  5
2784B
  8
0
 10
608.82620190846274
 20
323.51802497724321
 30
0.0
  0
VERTEX
  5
2784C
  8
0
 10
609.85694319891945
 20
324.99614481448748
 30
0.0
  0
VERTEX
  5
2784D
  8
0
 10
610.88774296443398
 20
326.4743485070523
 30
0.0
  0
VERTEX
  5
2784E
  8
0
 10
611.91811573189398
 20
327.95193986914978
 30
0.0
  0
VERTEX
  5
2784F
  8
0
 10
612.94757622928717
 20
329.42822300337889
 30
0.0
  0
VERTEX
  5
27850
  8
0
 10
613.46181284044133
 20
330.16565667662212
 30
0.0
  0
VERTEX
  5
27851
  8
0
 10
613.97563961425249
 20
330.90250262847098
 30
0.0
  0
VERTEX
  5
27852
  8
0
 10
615.00182170242579
 20
332.3740844067454
 30
0.0
  0
VERTEX
  5
27853
  8
0
 10
616.02563919546765
 20
333.8422752711196
 30
0.0
  0
VERTEX
  5
27854
  8
0
 10
617.04660990868933
 20
335.3063837515208
 30
0.0
  0
VERTEX
  5
27855
  8
0
 10
618.06425299814282
 20
336.76572030054632
 30
0.0
  0
VERTEX
  5
27856
  8
0
 10
619.07808918707951
 20
338.21959761821682
 30
0.0
  0
VERTEX
  5
27857
  8
0
 10
619.58343040396846
 20
338.94427497826501
 30
0.0
  0
VERTEX
  5
27858
  8
0
 10
620.08764099167865
 20
339.66733097567499
 30
0.0
  0
VERTEX
  5
27859
  8
0
 10
621.09243294592625
 20
341.10823853766652
 30
0.0
  0
VERTEX
  5
2785A
  8
0
 10
622.09199182554221
 20
342.54164168366577
 30
0.0
  0
VERTEX
  5
2785B
  8
0
 10
623.08584687085204
 20
343.9668653274818
 30
0.0
  0
VERTEX
  5
2785C
  8
0
 10
624.07353000850514
 20
345.38323823520409
 30
0.0
  0
VERTEX
  5
2785D
  8
0
 10
625.05457607191227
 20
346.7900933413286
 30
0.0
  0
VERTEX
  5
2785E
  8
0
 10
625.54246568498093
 20
347.48974447797832
 30
0.0
  0
VERTEX
  5
2785F
  8
0
 10
626.02852302033705
 20
348.18676806292729
 30
0.0
  0
VERTEX
  5
27860
  8
0
 10
626.99491215649141
 20
349.57260461170131
 30
0.0
  0
VERTEX
  5
27861
  8
0
 10
627.95328834257089
 20
350.94695030377738
 30
0.0
  0
VERTEX
  5
27862
  8
0
 10
628.42933037485079
 20
351.629611586284
 30
0.0
  0
VERTEX
  5
27863
  8
0
 10
628.90320021460855
 20
352.30915786710221
 30
0.0
  0
VERTEX
  5
27864
  8
0
 10
629.84420039505494
 20
353.65858574628629
 30
0.0
  0
VERTEX
  5
27865
  8
0
 10
630.77584570347972
 20
354.99459840475328
 30
0.0
  0
VERTEX
  5
27866
  8
0
 10
631.23802298585349
 20
355.65737714052852
 30
0.0
  0
VERTEX
  5
27867
  8
0
 10
631.69769736528542
 20
356.3165666240605
 30
0.0
  0
VERTEX
  5
27868
  8
0
 10
632.60932121837141
 20
357.62386780023849
 30
0.0
  0
VERTEX
  5
27869
  8
0
 10
633.51028791759563
 20
358.91588623701568
 30
0.0
  0
VERTEX
  5
2786A
  8
0
 10
634.40017313698991
 20
360.19201343579539
 30
0.0
  0
VERTEX
  5
2786B
  8
0
 10
635.27855776960496
 20
361.45164838223423
 30
0.0
  0
VERTEX
  5
2786C
  8
0
 10
636.145028124889
 20
362.69419782930407
 30
0.0
  0
VERTEX
  5
2786D
  8
0
 10
636.57366769928365
 20
363.30888229358948
 30
0.0
  0
VERTEX
  5
2786E
  8
0
 10
636.99917612353045
 20
363.91907657668958
 30
0.0
  0
VERTEX
  5
2786F
  8
0
 10
637.84059948964375
 20
365.12570774639897
 30
0.0
  0
VERTEX
  5
27870
  8
0
 10
638.6689019402329
 20
366.31352305445648
 30
0.0
  0
VERTEX
  5
27871
  8
0
 10
639.48369337182157
 20
367.481963078543
 30
0.0
  0
VERTEX
  5
27872
  8
0
 10
640.28459004418983
 20
368.63047752146781
 30
0.0
  0
VERTEX
  5
27873
  8
0
 10
641.07121476109205
 20
369.7585254703402
 30
0.0
  0
VERTEX
  5
27874
  8
0
 10
641.45905909556666
 20
370.31470810303267
 30
0.0
  0
VERTEX
  5
27875
  8
0
 10
641.84319704790676
 20
370.86557565131972
 30
0.0
  0
VERTEX
  5
27876
  8
0
 10
642.60017332612915
 20
371.95110667983289
 30
0.0
  0
VERTEX
  5
27877
  8
0
 10
643.34178708458421
 20
373.01460730612439
 30
0.0
  0
VERTEX
  5
27878
  8
0
 10
644.06768904735145
 20
374.05557665604169
 30
0.0
  0
VERTEX
  5
27879
  8
0
 10
644.77753733825
 20
375.0735244669292
 30
0.0
  0
VERTEX
  5
2787A
  8
0
 10
645.47099764185975
 20
376.06797131852659
 30
0.0
  0
VERTEX
  5
2787B
  8
0
 10
645.81147993107879
 20
376.556235086149
 30
0.0
  0
VERTEX
  5
2787C
  8
0
 10
646.14774336096525
 20
377.0384488587585
 30
0.0
  0
VERTEX
  5
2787D
  8
0
 10
646.80745577037669
 20
377.9845000243165
 30
0.0
  0
VERTEX
  5
2787E
  8
0
 10
647.44982416703715
 20
378.90567925591751
 30
0.0
  0
VERTEX
  5
2787F
  8
0
 10
648.07454601635789
 20
379.80155270814998
 30
0.0
  0
VERTEX
  5
27880
  8
0
 10
648.68132709469683
 20
380.67169845379948
 30
0.0
  0
VERTEX
  5
27881
  8
0
 10
649.26988162793157
 20
381.51570668256431
 30
0.0
  0
VERTEX
  5
27882
  8
0
 10
649.55723697934081
 20
381.92778452322932
 30
0.0
  0
VERTEX
  5
27883
  8
0
 10
649.83993242604618
 20
382.33317989405981
 30
0.0
  0
VERTEX
  5
27884
  8
0
 10
650.39121101368801
 20
383.12373308503362
 30
0.0
  0
VERTEX
  5
27885
  8
0
 10
650.92345775659487
 20
383.8869939306814
 30
0.0
  0
VERTEX
  5
27886
  8
0
 10
651.43642198388977
 20
384.62260296000932
 30
0.0
  0
VERTEX
  5
27887
  8
0
 10
651.92986210613162
 20
385.33021372512479
 30
0.0
  0
VERTEX
  5
27888
  8
0
 10
652.40354572909382
 20
386.0094929644074
 30
0.0
  0
VERTEX
  5
27889
  8
0
 10
652.63290877149302
 20
386.33840776198031
 30
0.0
  0
VERTEX
  5
2788A
  8
0
 10
652.85724976322115
 20
386.66012075946219
 30
0.0
  0
VERTEX
  5
2788B
  8
0
 10
653.29076052869266
 20
387.28179068579078
 30
0.0
  0
VERTEX
  5
2788C
  8
0
 10
653.70387385605864
 20
387.87420995710818
 30
0.0
  0
VERTEX
  5
2788D
  8
0
 10
653.90272030174845
 20
388.15936286468968
 30
0.0
  0
VERTEX
  5
2788E
  8
0
 10
654.09639518239965
 20
388.43709956323443
 30
0.0
  0
VERTEX
  5
2788F
  8
0
 10
654.46813964295325
 20
388.97019440150052
 30
0.0
  0
VERTEX
  5
27890
  8
0
 10
654.81893215819036
 20
389.47324340160321
 30
0.0
  0
VERTEX
  5
27891
  8
0
 10
654.98641941999631
 20
389.71342611908398
 30
0.0
  0
VERTEX
  5
27892
  8
0
 10
655.14860751626293
 20
389.94600964384881
 30
0.0
  0
VERTEX
  5
27893
  8
0
 10
655.45701045081466
 20
390.3882704707375
 30
0.0
  0
VERTEX
  5
27894
  8
0
 10
655.7439957141105
 20
390.79981759182562
 30
0.0
  0
VERTEX
  5
27895
  8
0
 10
656.00942814543851
 20
391.1804571818239
 30
0.0
  0
VERTEX
  5
27896
  8
0
 10
656.25318273477205
 20
391.5300099718861
 30
0.0
  0
VERTEX
  5
27897
  8
0
 10
656.47514468163536
 20
391.84831133403259
 30
0.0
  0
VERTEX
  5
27898
  8
0
 10
656.57792034407612
 20
391.99569530598092
 30
0.0
  0
VERTEX
  5
27899
  8
0
 10
656.67520944918579
 20
392.13521135869092
 30
0.0
  0
VERTEX
  5
2789A
  8
0
 10
656.85328281343209
 20
392.39057492529543
 30
0.0
  0
VERTEX
  5
2789B
  8
0
 10
657.00928090762125
 20
392.6142817659229
 30
0.0
  0
VERTEX
  5
2789C
  8
0
 10
657.14313026173113
 20
392.80622652193961
 30
0.0
  0
VERTEX
  5
2789D
  8
0
 10
657.25476783707745
 20
392.96631879361757
 30
0.0
  0
VERTEX
  5
2789E
  8
0
 10
657.34414105599899
 20
393.09448318271097
 30
0.0
  0
VERTEX
  5
2789F
  8
0
 10
657.38046496791139
 20
393.14657297018948
 30
0.0
  0
VERTEX
  5
278A0
  8
0
 10
657.41120782661892
 20
393.19065932796821
 30
0.0
  0
VERTEX
  5
278A1
  8
0
 10
657.45593656267374
 20
393.25480193355719
 30
0.0
  0
VERTEX
  5
278A2
  8
0
 10
657.47830619838714
 20
393.28688079039972
 30
0.0
  0
VERTEX
  5
278A3
  8
0
 10
657.48110264979732
 20
393.29089100163583
 30
0.0
  0
SEQEND
  5
278A4
  8
0
  0
LINE
  5
254C9
  8
0
 10
597.23110264979675
 20
405.0908910016359
 30
0.0
 11
622.73110264979721
 21
405.0908910016359
 31
0.0
  0
LINE
  5
254CA
  8
0
 10
569.63110264979741
 20
401.79089100163583
 30
0.0
 11
650.33110264979769
 21
401.79089100163583
 31
0.0
  0
LINE
  5
254CB
  8
0
 10
562.98110264979675
 20
398.29089100163583
 30
0.0
 11
656.98110264979732
 21
398.29089100163583
 31
0.0
  0
LINE
  5
254CC
  8
0
 10
558.98110264979675
 20
393.29089100163583
 30
0.0
 11
660.98110264979732
 21
393.29089100163583
 31
0.0
  0
LINE
  5
254CD
  8
1
 10
609.98110264979687
 20
433.91036081185388
 30
0.0
 11
609.98110264979687
 21
344.31666295403261
 31
0.0
  0
ARC
  5
254CE
  8
0
 10
553.98110264979675
 20
269.09089100163533
 30
0.0
 40
83.253509064730011
 50
92.068281447467328
 51
45.530824862302559
  0
ARC
  5
254CF
  8
0
 10
553.98110264979675
 20
269.09089100163578
 30
0.0
 40
88.093860527522935
 50
91.505873707583206
 51
46.061746433482718
  0
ARC
  5
254D0
  8
0
 10
553.98110264979675
 20
269.09089100163578
 30
0.0
 40
80.000000000000085
 50
92.485191614785862
 51
45.137320455208709
  0
ARC
  5
254D1
  8
0
 10
553.98110264979675
 20
269.09089100163578
 30
0.0
 40
99.999999999999986
 50
90.402890233107001
 51
47.146601737275077
  0
ARC
  5
254D2
  8
0
 10
553.98110264979675
 20
269.09089100163578
 30
0.0
 40
42.205771365940038
 50
345.39582333893912
 51
14.604176661060841
  0
ARC
  5
254D3
  8
0
 10
553.98110264979778
 20
269.09089100163578
 30
0.0
 40
42.205771365939583
 50
21.395823338925108
 51
35.946401708733049
  0
ARC
  5
254D4
  8
0
 10
553.98110264979675
 20
269.09089100163578
 30
0.0
 40
42.205771365939931
 50
309.3958233389173
 51
338.60417666107492
  0
ARC
  5
254D5
  8
0
 10
553.98110264979675
 20
269.09089100163533
 30
0.0
 40
42.205771365939718
 50
273.39582333892901
 51
302.6041766610806
  0
ARC
  5
254D6
  8
0
 10
553.98110264979675
 20
269.09089100163578
 30
0.0
 40
42.205771365940123
 50
102.2464347865057
 51
122.6041766610805
  0
ARC
  5
254D7
  8
0
 10
553.98110264979675
 20
269.09089100163578
 30
0.0
 40
42.205771365940052
 50
237.3958233389194
 51
266.60417666107099
  0
ARC
  5
254D8
  8
0
 10
553.98110264979675
 20
269.09089100163578
 30
0.0
 40
42.205771365940038
 50
129.3958233389173
 51
158.60417666107489
  0
ARC
  5
254D9
  8
0
 10
553.98110264979675
 20
269.09089100163578
 30
0.0
 40
42.205771365940123
 50
201.39582333892511
 51
230.60417666108259
  0
ARC
  5
254DA
  8
0
 10
553.98110264979675
 20
269.09089100163578
 30
0.0
 40
42.205771365940024
 50
165.3958233389391
 51
194.60417666106079
  0
ARC
  5
254DB
  8
0
 10
553.98110264979675
 20
269.09089100163578
 30
0.0
 40
39.6076951545868
 50
345.6188606905111
 51
14.38113930948893
  0
ARC
  5
254DC
  8
0
 10
553.98110264979778
 20
269.09089100163578
 30
0.0
 40
39.607695154586203
 50
21.618860690520641
 51
34.61156479007203
  0
ARC
  5
254DD
  8
0
 10
553.98110264979675
 20
269.09089100163578
 30
0.0
 40
39.60769515458675
 50
309.61886069052417
 51
338.38113930947941
  0
ARC
  5
254DE
  8
0
 10
553.98110264979675
 20
269.09089100163533
 30
0.0
 40
39.60769515458648
 50
273.61886069050502
 51
302.38113930948867
  0
ARC
  5
254DF
  8
0
 10
553.98110264979675
 20
269.09089100163533
 30
0.0
 40
39.607695154587212
 50
103.6442985179429
 51
122.3811393094886
  0
ARC
  5
254E0
  8
0
 10
553.98110264979675
 20
269.09089100163578
 30
0.0
 40
39.607695154586722
 50
237.61886069051141
 51
266.38113930949498
  0
ARC
  5
254E1
  8
0
 10
553.98110264979675
 20
269.09089100163578
 30
0.0
 40
39.607695154586608
 50
129.6188606905242
 51
158.38113930947929
  0
ARC
  5
254E2
  8
0
 10
553.98110264979675
 20
269.09089100163533
 30
0.0
 40
39.607695154586381
 50
201.61886069052059
 51
230.3811393094758
  0
ARC
  5
254E3
  8
0
 10
553.98110264979675
 20
269.09089100163578
 30
0.0
 40
39.607695154586722
 50
165.6188606905111
 51
194.3811393094889
  0
ARC
  5
254E4
  8
0
 10
553.98110264979675
 20
269.09089100163578
 30
0.0
 40
14.04890217915292
 50
316.25036693441228
 51
331.74963306559408
  0
ARC
  5
254E5
  8
0
 10
553.98110264979675
 20
269.09089100163578
 30
0.0
 40
14.048902179152901
 50
280.25036693441291
 51
295.74963306560591
  0
ARC
  5
254E6
  8
0
 10
553.98110264979675
 20
269.09089100163533
 30
0.0
 40
14.048902179152471
 50
244.25036693439409
 51
259.74963306558709
  0
ARC
  5
254E7
  8
0
 10
553.98110264979675
 20
269.09089100163578
 30
0.0
 40
14.04890217915246
 50
208.25036693439441
 51
223.74963306558769
  0
ARC
  5
254E8
  8
0
 10
553.98110264979675
 20
269.09089100163578
 30
0.0
 40
49.999999999999822
 50
164.86598398260989
 51
195.13401601739011
  0
ARC
  5
254E9
  8
0
 10
553.98110264979675
 20
269.09089100163578
 30
0.0
 40
49.999999999999943
 50
128.8659839826085
 51
159.13401601740699
  0
ARC
  5
254EA
  8
0
 10
553.98110264979675
 20
269.09089100163533
 30
0.0
 40
49.999999999999638
 50
200.86598398259301
 51
231.13401601739139
  0
ARC
  5
254EB
  8
0
 10
553.98110264979675
 20
269.09089100163533
 30
0.0
 40
50.000000000000178
 50
98.972632962210824
 51
123.1340160174077
  0
ARC
  5
254EC
  8
0
 10
553.98110264979675
 20
269.09089100163578
 30
0.0
 40
11.60122737079382
 50
246.44453664306459
 51
257.55546335693322
  0
ARC
  5
254ED
  8
0
 10
553.98110264979675
 20
269.09089100163533
 30
0.0
 40
49.999999999999737
 50
236.86598398259221
 51
267.13401601739099
  0
ARC
  5
254EE
  8
0
 10
553.98110264979675
 20
269.09089100163533
 30
0.0
 40
11.60122737079298
 50
282.44453664306678
 51
293.55546335693538
  0
ARC
  5
254EF
  8
0
 10
553.98110264979675
 20
269.09089100163578
 30
0.0
 40
50.000000000000178
 50
272.86598398260901
 51
303.13401601740782
  0
ARC
  5
254F0
  8
0
 10
553.98110264979675
 20
269.09089100163578
 30
0.0
 40
50.000000000000028
 50
20.865983982593001
 51
39.023219890255213
  0
ARC
  5
254F1
  8
0
 10
553.98110264979675
 20
269.09089100163578
 30
0.0
 40
50.000000000000043
 50
308.86598398258832
 51
339.13401601740702
  0
ARC
  5
254F2
  8
0
 10
553.98110264979675
 20
269.09089100163578
 30
0.0
 40
49.999999999999922
 50
344.86598398260992
 51
15.13401601739011
  0
LINE
  5
254F3
  8
0
 10
539.49913865500594
 20
267.01407122018799
 30
0.0
 11
505.7152125785264
 21
256.03700822186352
 31
0.0
  0
LINE
  5
254F4
  8
0
 10
507.26029755040088
 20
251.28172564038749
 30
0.0
 11
541.76625207041195
 21
262.49338990125602
 31
0.0
  0
LINE
  5
254F5
  8
0
 10
505.7152125785264
 20
282.14477378140799
 30
0.0
 11
539.47658023635938
 21
271.17504045761751
 31
0.0
  0
LINE
  5
254F6
  8
0
 10
544.50696064863905
 20
260.30410728102538
 30
0.0
 11
522.60605711661128
 21
230.16009961755859
 31
0.0
  0
LINE
  5
254F7
  8
0
 10
540.18909856127038
 20
276.20084034111852
 30
0.0
 11
507.26029755040088
 21
286.90005636288402
 31
0.0
  0
LINE
  5
254F8
  8
0
 10
526.65114208848581
 20
227.22117335609639
 30
0.0
 11
549.344827439048
 21
258.45635158147093
 31
0.0
  0
LINE
  5
254F9
  8
0
 10
522.60605711661128
 20
308.02168238571238
 30
0.0
 11
541.0930015994885
 21
282.57658623472639
 31
0.0
  0
LINE
  5
254FA
  8
0
 10
551.48110264979687
 20
257.7622336889242
 30
0.0
 11
551.48110264979687
 21
219.15343011304029
 31
0.0
  0
LINE
  5
254FB
  8
0
 10
542.10208271025238
 20
289.69421332110119
 30
0.0
 11
526.65114208848581
 21
310.96060864717469
 31
0.0
  0
LINE
  5
254FC
  8
0
 10
556.48110264979675
 20
219.15343011304029
 30
0.0
 11
556.48110264979675
 21
257.7622336889242
 31
0.0
  0
LINE
  5
254FD
  8
0
 10
558.61737786054755
 20
258.45635158147093
 30
0.0
 11
581.31106321110883
 21
227.22117335609639
 31
0.0
  0
LINE
  5
254FE
  8
0
 10
585.35614818298325
 20
230.1600996175591
 30
0.0
 11
563.45524465095457
 21
260.30410728102538
 31
0.0
  0
LINE
  5
254FF
  8
0
 10
566.19595322918258
 20
262.49338990125602
 30
0.0
 11
600.70190774919274
 21
251.28172564038749
 31
0.0
  0
LINE
  5
25500
  8
0
 10
602.24699272106716
 20
256.03700822186352
 30
0.0
 11
569.24661368729585
 21
266.75948135308698
 31
0.0
  0
LINE
  5
25501
  8
0
 10
600.70190774919274
 20
286.90005636288402
 30
0.0
 11
578.17852292445377
 21
279.58176500749249
 31
0.0
  0
LINE
  5
25502
  8
0
 10
573.450699790013
 20
272.78829102961589
 30
0.0
 11
602.24699272106716
 21
282.14477378140799
 31
0.0
  0
LINE
  5
25503
  8
3
 10
188.45106881461149
 20
272.3238910016355
 30
0.0
 11
190.45106881461149
 21
272.3238910016355
 31
0.0
  0
LINE
  5
25504
  8
3
 10
188.45106881461149
 20
265.85789100163561
 30
0.0
 11
190.45106881461149
 21
265.85789100163561
 31
0.0
  0
LINE
  5
25505
  8
0
 10
553.98110264979323
 20
261.86439013228261
 30
0.0
 11
560.23943598312644
 21
265.47764056696087
 31
0.0
  0
LINE
  5
25506
  8
0
 10
547.72276931646002
 20
265.47764056696087
 30
0.0
 11
553.98110264979323
 21
261.86439013228261
 31
0.0
  0
LINE
  5
25507
  8
0
 10
547.72276931646002
 20
272.70414143631803
 30
0.0
 11
547.72276931646002
 21
265.47764056696087
 31
0.0
  0
LINE
  5
25508
  8
0
 10
560.23943598312644
 20
272.70414143631803
 30
0.0
 11
553.98110264979323
 21
276.31739187099629
 31
0.0
  0
LINE
  5
25509
  8
0
 10
553.98110264979323
 20
276.31739187099629
 30
0.0
 11
547.72276931646002
 21
272.70414143631803
 31
0.0
  0
LINE
  5
2550A
  8
0
 10
560.23943598312644
 20
265.47764056696087
 30
0.0
 11
560.23943598312644
 21
272.70414143631803
 31
0.0
  0
CIRCLE
  5
2550B
  8
0
 10
553.98110264979323
 20
269.09089100163919
 30
0.0
 40
6.2583333333333311
  0
LINE
  5
2550C
  8
1
 10
429.1616328395753
 20
269.09089100163942
 30
0.0
 11
678.80057246001149
 21
269.09089100163919
 31
0.0
  0
LINE
  5
2550D
  8
1
 10
553.98110264979323
 20
144.27142119142101
 30
0.0
 11
553.98110264979323
 21
374.0908910016397
 31
0.0
  0
LINE
  5
2550E
  8
1
 10
927.93979354785176
 20
269.09089100163629
 30
0.0
 11
823.08247942210801
 21
269.09089100163629
 31
0.0
  0
LINE
  5
2550F
  8
1
 10
875.51113648497994
 20
144.2714211914178
 30
0.0
 11
875.51113648497994
 21
433.91036081185388
 31
0.0
  0
LINE
  5
25510
  8
1
 10
284.87972587748351
 20
269.09089100163629
 30
0.0
 11
180.02241175174049
 21
269.09089100163629
 31
0.0
  0
LINE
  5
25511
  8
1
 10
232.4510688146124
 20
144.2714211914178
 30
0.0
 11
232.4510688146124
 21
433.91036081185388
 31
0.0
  0
ARC
  5
25512
  8
0
 10
553.98110264979323
 20
269.09089100163919
 30
0.0
 40
59.993114990341148
 50
96.068492214916688
 51
41.75785854257056
  0
LINE
  5
25525
  8
3
 10
557.21410264979704
 20
654.50657002087326
 30
0.0
 11
557.21410264979704
 21
652.50657002087337
 31
0.0
  0
LINE
  5
25526
  8
3
 10
550.74810264979658
 20
654.50657002087326
 30
0.0
 11
550.74810264979658
 21
652.50657002087337
 31
0.0
  0
LINE
  5
25527
  8
3
 10
919.51113648497994
 20
272.3238910016355
 30
0.0
 11
917.51113648497994
 21
272.3238910016355
 31
0.0
  0
LINE
  5
25528
  8
3
 10
919.51113648497994
 20
265.85789100163561
 30
0.0
 11
917.51113648497994
 21
265.85789100163561
 31
0.0
  0
LINE
  5
257AF
  8
0
 10
453.98110264979363
 20
607.50657002087416
 30
0.0
 11
453.98110264979363
 21
613.50657002087416
 31
0.0
  0
ARC
  5
257B0
  8
0
 10
454.28110264979341
 20
607.50657002087416
 30
0.0
 40
0.3000000000000074
 50
180.0
 51
270.0
  0
LINE
  5
257B1
  8
0
 10
454.28110264979341
 20
604.80657002087355
 30
0.0
 11
454.28110264979341
 21
607.20657002087319
 31
0.0
  0
ARC
  5
257B2
  8
0
 10
454.28110264979341
 20
604.50657002087416
 30
0.0
 40
0.3000000000000114
 50
90.0
 51
180.0
  0
LINE
  5
257B3
  8
0
 10
453.98110264979317
 20
599.99296762035726
 30
0.0
 11
453.98110264979363
 21
604.50657002087416
 31
0.0
  0
ARC
  5
257B4
  8
0
 10
454.98110264979317
 20
599.99296762035726
 30
0.0
 40
1.0000000000000151
 50
180.0
 51
251.00000000001239
  0
LINE
  5
257B5
  8
0
 10
463.82572308807988
 20
595.8898998932018
 30
0.0
 11
454.65553449533581
 21
599.04744904475774
 31
0.0
  0
ARC
  5
257B6
  8
0
 10
464.80242755145122
 20
598.72645562000071
 30
0.0
 40
3.0000000000000369
 50
251.00000000001239
 51
270.0
  0
ARC
  5
257B7
  8
0
 10
466.72057545560341
 20
594.89312228666677
 30
0.0
 40
0.8333333333333322
 50
89.999999146226358
 51
270.0
  0
ARC
  5
257B8
  8
0
 10
471.56092691839638
 20
593.22645562000059
 30
0.0
 40
0.8333333333333322
 50
90.0
 51
270.0
  0
LINE
  5
257B9
  8
0
 10
493.50642601366599
 20
585.67001429407526
 30
0.0
 11
473.98110264979317
 21
592.39312228666665
 31
0.0
  0
ARC
  5
257BA
  8
0
 10
494.48313047703732
 20
588.50657002087326
 30
0.0
 40
2.9999999999999138
 50
251.00000000001239
 51
270.0
  0
ARC
  5
257BB
  8
0
 10
494.48313047703772
 20
632.50657002087416
 30
0.0
 40
2.999999999999885
 50
90.0
 51
108.99999999998759
  0
LINE
  5
257BC
  8
0
 10
473.98110264979363
 20
628.62001775507986
 30
0.0
 11
493.50642601366638
 21
635.34312574767137
 31
0.0
  0
ARC
  5
257BD
  8
0
 10
471.56092691839689
 20
627.78668442174694
 30
0.0
 40
0.8333333333333357
 50
90.0
 51
270.0
  0
ARC
  5
257BE
  8
0
 10
466.72057545560392
 20
626.12001775507986
 30
0.0
 40
0.8333333333333303
 50
89.999999146226358
 51
270.0000008537736
  0
ARC
  5
257BF
  8
0
 10
464.80242755145167
 20
622.28668442174694
 30
0.0
 40
2.9999999999998752
 50
90.0
 51
108.99999999998759
  0
LINE
  5
257C0
  8
0
 10
454.65553449533621
 20
621.965690996989
 30
0.0
 11
463.82572308808028
 21
625.12324014854494
 31
0.0
  0
ARC
  5
257C1
  8
0
 10
454.98110264979368
 20
621.02017242138925
 30
0.0
 40
1.000000000000014
 50
108.99999999998759
 51
180.0
  0
LINE
  5
257C2
  8
0
 10
453.98110264979363
 20
616.50657002087416
 30
0.0
 11
453.98110264979363
 21
621.02017242139016
 31
0.0
  0
ARC
  5
257C3
  8
0
 10
454.28110264979341
 20
616.50657002087416
 30
0.0
 40
0.3000000000000078
 50
180.0
 51
270.0
  0
LINE
  5
257C4
  8
0
 10
454.28110264979341
 20
613.80657002087355
 30
0.0
 11
454.28110264979341
 21
616.20657002087319
 31
0.0
  0
ARC
  5
257C5
  8
0
 10
454.28110264979341
 20
613.50657002087416
 30
0.0
 40
0.3000000000000114
 50
90.0
 51
180.0
  0
LINE
  5
257C6
  8
0
 10
555.98110264979675
 20
607.20657002087319
 30
0.0
 11
454.28110264979341
 21
607.20657002087319
 31
0.0
  0
LINE
  5
257C7
  8
0
 10
555.98110264979675
 20
604.80657002087401
 30
0.0
 11
454.28110264979341
 21
604.80657002087355
 31
0.0
  0
LINE
  5
257C8
  8
0
 10
555.98110264979675
 20
595.72645562000105
 30
0.0
 11
464.80242755145122
 21
595.72645562000071
 31
0.0
  0
LINE
  5
257C9
  8
0
 10
555.98110264979675
 20
594.05978895333374
 30
0.0
 11
466.72057545560341
 21
594.05978895333374
 31
0.0
  0
LINE
  5
257CA
  8
0
 10
555.98110264979675
 20
592.39312228666665
 30
0.0
 11
471.56092691839638
 21
592.39312228666665
 31
0.0
  0
LINE
  5
257CB
  8
0
 10
555.98110264979675
 20
585.50657002087428
 30
0.0
 11
494.48313047703732
 21
585.50657002087428
 31
0.0
  0
LINE
  5
257CC
  8
0
 10
555.98110264979675
 20
628.62001775507952
 30
0.0
 11
471.56092691839689
 21
628.62001775507986
 31
0.0
  0
LINE
  5
257CD
  8
0
 10
555.98110264979675
 20
626.95335108841391
 30
0.0
 11
466.72057545560392
 21
626.95335108841391
 31
0.0
  0
LINE
  5
257CE
  8
0
 10
555.98110264979675
 20
625.28668442174694
 30
0.0
 11
464.80242755145167
 21
625.28668442174694
 31
0.0
  0
LINE
  5
257CF
  8
0
 10
555.98110264979675
 20
616.20657002087319
 30
0.0
 11
454.28110264979341
 21
616.20657002087319
 31
0.0
  0
LINE
  5
257D0
  8
0
 10
555.98110264979675
 20
613.80657002087389
 30
0.0
 11
454.28110264979341
 21
613.80657002087355
 31
0.0
  0
LINE
  5
257D1
  8
0
 10
555.98110264979675
 20
635.50657002087428
 30
0.0
 11
494.48313047703772
 21
635.50657002087428
 31
0.0
  0
LINE
  5
257D3
  8
0
 10
545.98110264979675
 20
635.50657002087382
 30
0.0
 11
545.98110264979675
 21
640.00657002087382
 31
0.0
  0
LINE
  5
257D4
  8
0
 10
539.28110264979705
 20
640.00657002087337
 30
0.0
 11
555.98110264979732
 21
640.00657002087428
 31
0.0
  0
LINE
  5
257D5
  8
0
 10
571.96794703230125
 20
644.50657002087428
 30
0.0
 11
539.28110264979705
 21
644.50657002087428
 31
0.0
  0
LINE
  5
257D6
  8
0
 10
539.28110264979705
 20
644.50657002087428
 30
0.0
 11
539.28110264979705
 21
640.00657002087428
 31
0.0
  0
LINE
  5
257D7
  8
0
 10
545.98110264979675
 20
585.50657002087382
 30
0.0
 11
545.98110264979675
 21
581.00657002087371
 31
0.0
  0
LINE
  5
257D8
  8
0
 10
539.28110264979705
 20
581.00657002087235
 30
0.0
 11
555.98110264979732
 21
581.00657002087291
 31
0.0
  0
LINE
  5
257D9
  8
0
 10
571.9679470323008
 20
576.50657002087291
 30
0.0
 11
539.28110264979648
 21
576.50657002087291
 31
0.0
  0
LINE
  5
257DC
  8
0
 10
539.28110264979705
 20
576.50657002087235
 30
0.0
 11
539.28110264979705
 21
581.00657002087235
 31
0.0
  0
LINE
  5
25A51
  8
0
 10
261.9510692262561
 20
387.5908907676876
 30
0.0
 11
202.95106979995131
 21
387.59089076768709
 31
0.0
  0
POLYLINE
  5
25A52
  8
0
 66
     1
 10
0.0
 20
0.0
 30
0.0
  0
VERTEX
  5
278A5
  8
0
 10
261.95106881461152
 20
373.90244092656241
 30
0.0
  0
VERTEX
  5
278A6
  8
0
 10
261.87480910117989
 20
373.9997623097986
 30
0.0
  0
VERTEX
  5
278A7
  8
0
 10
260.8720946232238
 20
375.20632748879081
 30
0.0
  0
VERTEX
  5
278A8
  8
0
 10
259.8453331200048
 20
376.37056048778209
 30
0.0
  0
VERTEX
  5
278A9
  8
0
 10
258.79539333425919
 20
377.49147624942248
 30
0.0
  0
VERTEX
  5
278AA
  8
0
 10
258.26200845041012
 20
378.0353923353357
 30
0.0
  0
VERTEX
  5
278AB
  8
0
 10
257.72316361986992
 20
378.56812636707059
 30
0.0
  0
VERTEX
  5
278AC
  8
0
 10
256.62955119021848
 20
379.59959988723932
 30
0.0
  0
VERTEX
  5
278AD
  8
0
 10
255.51548135060651
 20
380.58502408035179
 30
0.0
  0
VERTEX
  5
278AE
  8
0
 10
254.38189671533789
 20
381.5235651791611
 30
0.0
  0
VERTEX
  5
278AF
  8
0
 10
253.22975641018959
 20
382.41442908419782
 30
0.0
  0
VERTEX
  5
278B0
  8
0
 10
252.06003526088131
 20
383.25686203565778
 30
0.0
  0
VERTEX
  5
278B1
  8
0
 10
251.4688905929429
 20
383.65969254189258
 30
0.0
  0
VERTEX
  5
278B2
  8
0
 10
250.8737229682861
 20
384.05015125116012
 30
0.0
  0
VERTEX
  5
278B3
  8
0
 10
249.67182327104049
 20
384.79362552882958
 30
0.0
  0
VERTEX
  5
278B4
  8
0
 10
248.4553530962817
 20
385.48665581520157
 30
0.0
  0
VERTEX
  5
278B5
  8
0
 10
247.2253416992221
 20
386.12865573746512
 30
0.0
  0
VERTEX
  5
278B6
  8
0
 10
245.9828297923045
 20
386.71908209959201
 30
0.0
  0
VERTEX
  5
278B7
  8
0
 10
244.72886866464751
 20
387.25743534193322
 30
0.0
  0
VERTEX
  5
278B8
  8
0
 10
244.0979258442253
 20
387.50694046739858
 30
0.0
  0
VERTEX
  5
278B9
  8
0
 10
243.87291406565959
 20
387.5908907676876
 30
0.0
  0
SEQEND
  5
278BA
  8
0
  0
POLYLINE
  5
25A53
  8
0
 66
     1
 10
0.0
 20
0.0
 30
0.0
  0
VERTEX
  5
278BB
  8
0
 10
221.02922356356481
 20
387.59089076768709
 30
0.0
  0
VERTEX
  5
278BC
  8
0
 10
220.8042117849995
 20
387.50694046739858
 30
0.0
  0
VERTEX
  5
278BD
  8
0
 10
220.1732689645774
 20
387.25743534193322
 30
0.0
  0
VERTEX
  5
278BE
  8
0
 10
218.9193078369203
 20
386.71908209959201
 30
0.0
  0
VERTEX
  5
278BF
  8
0
 10
217.67679593000281
 20
386.12865573746512
 30
0.0
  0
VERTEX
  5
278C0
  8
0
 10
216.44678453294321
 20
385.48665581520157
 30
0.0
  0
VERTEX
  5
278C1
  8
0
 10
215.2303143581826
 20
384.79362552882958
 30
0.0
  0
VERTEX
  5
278C2
  8
0
 10
214.02841466093881
 20
384.05015125116012
 30
0.0
  0
VERTEX
  5
278C3
  8
0
 10
213.43324703628011
 20
383.65969254189258
 30
0.0
  0
VERTEX
  5
278C4
  8
0
 10
212.8421023683436
 20
383.25686203565778
 30
0.0
  0
VERTEX
  5
278C5
  8
0
 10
211.67238121903529
 20
382.41442908419782
 30
0.0
  0
VERTEX
  5
278C6
  8
0
 10
210.52024091388691
 20
381.5235651791611
 30
0.0
  0
VERTEX
  5
278C7
  8
0
 10
209.3866562786184
 20
380.58502408035179
 30
0.0
  0
VERTEX
  5
278C8
  8
0
 10
208.2725864390045
 20
379.59959988723932
 30
0.0
  0
VERTEX
  5
278C9
  8
0
 10
207.17897400935499
 20
378.56812636707059
 30
0.0
  0
VERTEX
  5
278CA
  8
0
 10
206.6401291788147
 20
378.0353923353357
 30
0.0
  0
VERTEX
  5
278CB
  8
0
 10
206.10674429496561
 20
377.49147624942248
 30
0.0
  0
VERTEX
  5
278CC
  8
0
 10
205.05680450922
 20
376.37056048778209
 30
0.0
  0
VERTEX
  5
278CD
  8
0
 10
204.0300430059992
 20
375.20632748879081
 30
0.0
  0
VERTEX
  5
278CE
  8
0
 10
203.02732852804499
 20
373.9997623097986
 30
0.0
  0
VERTEX
  5
278CF
  8
0
 10
202.95106969498781
 20
373.9024420500819
 30
0.0
  0
SEQEND
  5
278D0
  8
0
  0
LINE
  5
27425
  8
0
 10
560.23943598313008
 20
650.00657002087326
 30
0.0
 11
560.23943598313008
 21
644.50657002087428
 31
0.0
  0
LINE
  5
27426
  8
0
 10
547.72276931646365
 20
650.00657002087326
 30
0.0
 11
547.72276931646365
 21
644.50657002087428
 31
0.0
  0
LINE
  5
27427
  8
0
 10
560.23943598313008
 20
575.90657002087391
 30
0.0
 11
560.23943598313008
 21
571.20657002087398
 31
0.0
  0
LINE
  5
27428
  8
0
 10
547.72276931646365
 20
575.90657002087391
 30
0.0
 11
547.72276931646365
 21
571.20657002087398
 31
0.0
  0
TEXT
  5
27484
  8
0
 62
     3
 10
0.0
 20
0.0
 30
0.0
 40
10.0
  1
CAE2-200FBL
  7
STANDARD1
  0
ENDSEC
  0
EOF
