  0
SECTION
  2
HEADER
  9
$ACADVER
  1
AC1009
  9
$INSBASE
 10
0.0
 20
0.0
 30
0.0
  9
$EXTMIN
 10
0.0
 20
-2.960436562073669
 30
0.0
  9
$EXTMAX
 10
578.74505230930697
 20
488.4103099019639
 30
0.0
  9
$LIMMIN
 10
0.0
 20
0.0
  9
$LIMMAX
 10
375.0
 20
270.0
  9
$ORTHOMODE
 70
     1
  9
$REGENMODE
 70
     1
  9
$FILLMODE
 70
     1
  9
$QTEXTMODE
 70
     0
  9
$MIRRTEXT
 70
     1
  9
$DRAGMODE
 70
     2
  9
$LTSCALE
 40
10.0
  9
$OSMODE
 70
  3071
  9
$ATTMODE
 70
     1
  9
$TEXTSIZE
 40
5.0
  9
$TRACEWID
 40
0.05
  9
$TEXTSTYLE
  7
STANDARD
  9
$CLAYER
  8
0
  9
$CELTYPE
  6
BYLAYER
  9
$CECOLOR
 62
   256
  9
$DIMSCALE
 40
2.0
  9
$DIMASZ
 40
3.0
  9
$DIMEXO
 40
2.0
  9
$DIMDLI
 40
0.38
  9
$DIMRND
 40
0.0
  9
$DIMDLE
 40
0.0
  9
$DIMEXE
 40
2.0
  9
$DIMTP
 40
0.0
  9
$DIMTM
 40
0.0
  9
$DIMTXT
 40
3.2000000000000002
  9
$DIMCEN
 40
0.0
  9
$DIMTSZ
 40
0.0
  9
$DIMTOL
 70
     0
  9
$DIMLIM
 70
     0
  9
$DIMTIH
 70
     0
  9
$DIMTOH
 70
     0
  9
$DIMSE1
 70
     0
  9
$DIMSE2
 70
     0
  9
$DIMTAD
 70
     1
  9
$DIMZIN
 70
     8
  9
$DIMBLK
  1

  9
$DIMASO
 70
     0
  9
$DIMSHO
 70
     0
  9
$DIMPOST
  1

  9
$DIMAPOST
  1

  9
$DIMALT
 70
     0
  9
$DIMALTD
 70
     2
  9
$DIMALTF
 40
25.399999999999999
  9
$DIMLFAC
 40
1.0
  9
$DIMTOFL
 70
     0
  9
$DIMTVP
 40
1.6000000000000001
  9
$DIMTIX
 70
     1
  9
$DIMSOXD
 70
     0
  9
$DIMSAH
 70
     0
  9
$DIMBLK1
  1

  9
$DIMBLK2
  1

  9
$DIMSTYLE
  2
STANDARD
  9
$DIMCLRD
 70
     0
  9
$DIMCLRE
 70
     0
  9
$DIMCLRT
 70
     0
  9
$DIMTFAC
 40
1.0
  9
$DIMGAP
 40
1.1999999999999991
  9
$LUNITS
 70
     2
  9
$LUPREC
 70
     4
  9
$SKETCHINC
 40
0.1
  9
$FILLETRAD
 40
0.0
  9
$AUNITS
 70
     0
  9
$AUPREC
 70
     4
  9
$MENU
  1
ACAD
  9
$ELEVATION
 40
0.0
  9
$PELEVATION
 40
0.0
  9
$THICKNESS
 40
0.0
  9
$LIMCHECK
 70
     0
  9
$BLIPMODE
 70
     0
  9
$CHAMFERA
 40
0.0
  9
$CHAMFERB
 40
0.0
  9
$SKPOLY
 70
     0
  9
$TDCREATE
 40
2448055.7149187499
  9
$TDUPDATE
 40
2456598.5600228589
  9
$TDINDWG
 40
3.0629692824000001
  9
$TDUSRTIMER
 40
3.0629692824000001
  9
$USRTIMER
 70
     1
  9
$ANGBASE
 50
0.0
  9
$ANGDIR
 70
     0
  9
$PDMODE
 70
     0
  9
$PDSIZE
 40
0.0
  9
$PLINEWID
 40
0.0
  9
$COORDS
 70
     1
  9
$SPLFRAME
 70
     0
  9
$SPLINETYPE
 70
     6
  9
$SPLINESEGS
 70
     8
  9
$ATTDIA
 70
     0
  9
$ATTREQ
 70
     1
  9
$HANDLING
 70
     1
  9
$HANDSEED
  5
300D7
  9
$SURFTAB1
 70
     6
  9
$SURFTAB2
 70
     6
  9
$SURFTYPE
 70
     6
  9
$SURFU
 70
     6
  9
$SURFV
 70
     6
  9
$UCSNAME
  2

  9
$UCSORG
 10
0.0
 20
0.0
 30
0.0
  9
$UCSXDIR
 10
1.0
 20
0.0
 30
0.0
  9
$UCSYDIR
 10
0.0
 20
1.0
 30
0.0
  9
$PUCSNAME
  2

  9
$PUCSORG
 10
0.0
 20
0.0
 30
0.0
  9
$PUCSXDIR
 10
1.0
 20
0.0
 30
0.0
  9
$PUCSYDIR
 10
0.0
 20
1.0
 30
0.0
  9
$USERI1
 70
     0
  9
$USERI2
 70
     0
  9
$USERI3
 70
     0
  9
$USERI4
 70
     0
  9
$USERI5
 70
     0
  9
$USERR1
 40
0.0
  9
$USERR2
 40
0.0
  9
$USERR3
 40
0.0
  9
$USERR4
 40
0.0
  9
$USERR5
 40
0.0
  9
$WORLDVIEW
 70
     1
  9
$SHADEDGE
 70
     3
  9
$SHADEDIF
 70
    70
  9
$TILEMODE
 70
     1
  9
$MAXACTVP
 70
    16
  9
$PLIMCHECK
 70
     0
  9
$PEXTMIN
 10
1.0000000000000000E+020
 20
1.0000000000000000E+020
 30
1.0000000000000000E+020
  9
$PEXTMAX
 10
-1.0000000000000000E+020
 20
-1.0000000000000000E+020
 30
-1.0000000000000000E+020
  9
$PLIMMIN
 10
0.0
 20
0.0
  9
$PLIMMAX
 10
12.0
 20
9.0
  9
$UNITMODE
 70
     0
  9
$VISRETAIN
 70
     0
  9
$PLINEGEN
 70
     1
  9
$PSLTSCALE
 70
     0
  0
ENDSEC
  0
SECTION
  2
TABLES
  0
TABLE
  2
VPORT
 70
     1
  0
VPORT
  2
*ACTIVE
 70
     0
 10
0.0
 20
0.0
 11
1.0
 21
1.0
 12
302.98927662466309
 22
242.7146461074669
 13
0.0
 23
0.0
 14
5.0
 24
5.0
 15
10.0
 25
10.0
 16
0.0
 26
0.0
 36
1.0
 17
0.0
 27
0.0
 37
0.0
 40
495.8285045478151
 41
1.831871345029239
 42
50.0
 43
0.0
 44
0.0
 50
0.0
 51
0.0
 71
     0
 72
   500
 73
     1
 74
     1
 75
     0
 76
     0
 77
     0
 78
     2
  0
ENDTAB
  0
TABLE
  2
LTYPE
 70
     3
  0
LTYPE
  2
CONTINUOUS
 70
     0
  3
実線
 72
    65
 73
     0
 40
0.0
  0
LTYPE
  2
CENTER
 70
     0
  3
____ _ ____ _ ____ _ ____ _ ____ _ ____ _ ____
 72
    65
 73
     4
 40
2.0
 49
1.25
 49
-0.25
 49
0.25
 49
-0.25
  0
LTYPE
  2
PHANTOM2
 70
     0
  3
___ _ _ ___ _ _ ___ _ _ ___ _ _
 72
    65
 73
     6
 40
1.25
 49
0.625
 49
-0.125
 49
0.125
 49
-0.125
 49
0.125
 49
-0.125
  0
ENDTAB
  0
TABLE
  2
LAYER
 70
     4
  0
LAYER
  2
0
 70
     0
 62
     7
  6
CONTINUOUS
  0
LAYER
  2
1
 70
     0
 62
     1
  6
CENTER
  0
LAYER
  2
DEFPOINTS
 70
     0
 62
     7
  6
CONTINUOUS
  0
LAYER
  2
3
 70
     0
 62
     3
  6
CONTINUOUS
  0
ENDTAB
  0
TABLE
  2
STYLE
 70
     3
  0
STYLE
  2
STANDARD
 70
     0
 40
0.0
 41
1.0
 50
0.0
 71
     0
 42
5.0
  3
simplex.shx
  4
bigfont.shx
  0
STYLE
  2
07500
 70
     0
 40
0.0
 41
0.75
 50
0.0
 71
     0
 42
0.2
  3
simplex.shx
  4
bigfont.shx
  0
STYLE
  2
STANDARD1
 70
     0
 40
0.0
 41
1.0
 50
0.0
 71
     0
 42
3.0
  3
txt
  4

  0
ENDTAB
  0
TABLE
  2
VIEW
 70
     2
  0
VIEW
  2
ALL
 70
     0
 40
270.0
 10
220.99159663865549
 20
135.0
 41
0.0
 11
0.0
 21
0.0
 31
1.0
 12
0.0
 22
0.0
 32
0.0
 42
0.0
 43
0.0
 44
0.0
 50
0.0
 71
     0
  0
VIEW
  2
OLE1
 70
     0
 40
168.2487151179721
 10
2892.3009567448912
 20
702.51600084347126
 41
162.5749581879237
 11
0.0
 21
0.0
 31
1.0
 12
0.0
 22
0.0
 32
0.0
 42
50.0
 43
0.0
 44
0.0
 50
0.0
 71
     0
  0
ENDTAB
  0
TABLE
  2
UCS
 70
     0
  0
ENDTAB
  0
TABLE
  2
APPID
 70
    48
  0
APPID
  2
ACAD
 70
     0
  0
APPID
  2
DCO15
 70
     0
  0
APPID
  2
GENIUS_GENOREF_13
 70
     0
  0
APPID
  2
GENIUS_GENOENT_13
 70
     0
  0
APPID
  2
GENIUS_GENBH_13
 70
     0
  0
APPID
  2
GENIUS_GENOBJ_13
 70
     0
  0
APPID
  2
GENIUS_GENODEF_13
 70
     0
  0
APPID
  2
GENIUS_GENOLIS_13
 70
     0
  0
APPID
  2
GENIUS_GENOBJ-NBEHI-BHF_13
 70
     0
  0
APPID
  2
GENIUS_GENOBJ-NBEHI-BHB_13
 70
     0
  0
APPID
  2
GENIUS_GENOBJ-F-PART_13
 70
     0
  0
APPID
  2
GENIUS_GEFSTDP_13
 70
     0
  0
APPID
  2
GENIUS_GENOBJ-N-RSSYM_13
 70
     0
  0
APPID
  2
GENIUS_GENSYMENT_13
 70
     0
  0
APPID
  2
GENIUS_GENOBJ-N-TIT_13
 70
     0
  0
APPID
  2
GENIUS_GENTITLE_13
 70
     0
  0
APPID
  2
GENIUS_GENZVEED_13
 70
     0
  0
APPID
  2
GENIUS_GENOBJ-N-LEADER_13
 70
     0
  0
APPID
  2
GENIUS_GENOBJ-N-FIL_13
 70
     0
  0
APPID
  2
GENIUS_GENOBJ-N-SEC_13
 70
     0
  0
APPID
  2
GENIUS_GENOBJ-N-CRS_13
 70
     0
  0
APPID
  2
GENIUS_GENOBJ-N-ZOO_13
 70
     0
  0
APPID
  2
GENIUS_GENZOO_13
 70
     0
  0
APPID
  2
GENIUS_GENOBJ-F-TOL_13
 70
     0
  0
APPID
  2
GENIUS_GENFIL_13
 70
     0
  0
APPID
  2
GENIUS_GENOBJ-N-CHA_13
 70
     0
  0
APPID
  2
_CALL_MAC$
 70
     0
  0
APPID
  2
ASM_BASE
 70
     0
  0
APPID
  2
ASM_EXPLO_VER_2_00
 70
     0
  0
APPID
  2
ASM_CADM_VER_12_00
 70
     0
  0
APPID
  2
ASM_BASEFORO
 70
     0
  0
APPID
  2
ASM_BASETRAVI
 70
     0
  0
APPID
  2
ASM_BASETRAVI1
 70
     0
  0
APPID
  2
ASM_GRUPPI
 70
     0
  0
APPID
  2
ASM_CADM_ALBERO
 70
     0
  0
APPID
  2
ASM_GOLE
 70
     0
  0
APPID
  2
ACAD_MLEADERVER
 70
     0
  0
APPID
  2
ACAD_DSTYLE_DIMJAG
 70
     0
  0
APPID
  2
ACAD_DSTYLE_DIMTALN
 70
     0
  0
APPID
  2
ACAD_EXEMPT_FROM_CAD_STANDARDS
 70
     0
  0
APPID
  2
ACAD_DSTYLE_DIMRADIAL_EXTENSION
 70
     0
  0
APPID
  2
ACAD_PSEXT
 70
     0
  0
APPID
  2
ACAD_DSTYLE_DIMBREAK
 70
     0
  0
APPID
  2
ACAECLAYERSTANDARD
 70
     0
  0
APPID
  2
ACCMTRANSPARENCY
 70
     0
  0
APPID
  2
GRADIENTCOLOR1ACI
 70
     0
  0
APPID
  2
GRADIENTCOLOR2ACI
 70
     0
  0
APPID
  2
ACAD_NAV_VCDISPLAY
 70
     0
  0
ENDTAB
  0
TABLE
  2
DIMSTYLE
 70
     1
  0
DIMSTYLE
  2
STANDARD
 70
     0
  3

  4

  5

  6

  7

 40
1.0
 41
0.18
 42
0.0625
 43
0.38
 44
0.18
 45
0.0
 46
0.0
 47
0.0
 48
0.0
140
0.18
141
0.09
142
0.0
143
25.399999999999999
144
1.0
145
0.0
146
1.0
147
0.09
 71
     0
 72
     0
 73
     1
 74
     1
 75
     0
 76
     0
 77
     0
 78
     0
170
     0
171
     2
172
     0
173
     0
174
     0
175
     0
176
     0
177
     0
178
     0
  0
ENDTAB
  0
ENDSEC
  0
SECTION
  2
BLOCKS
  0
BLOCK
  8
0
  2
$MODEL_SPACE
 70
     0
 10
0.0
 20
0.0
 30
0.0
  3
$MODEL_SPACE
  1

  0
ENDBLK
  5
36
  8
0
  0
BLOCK
 67
     1
  8
0
  2
$PAPER_SPACE
 70
     0
 10
0.0
 20
0.0
 30
0.0
  3
$PAPER_SPACE
  1

  0
ENDBLK
  5
34
 67
     1
  8
0
  0
ENDSEC
  0
SECTION
  2
ENTITIES
  0
LINE
  5
1F718
  8
0
 10
304.2023159840474
 20
409.87251748445891
 30
0.0
 11
304.2023159840474
 21
409.772517484459
 31
0.0
  0
LINE
  5
1F719
  8
0
 10
304.2023159840474
 20
459.772517484459
 30
0.0
 11
304.2023159840474
 21
459.67251748445909
 31
0.0
  0
LINE
  5
1F71F
  8
0
 10
305.90231598404722
 20
468.272517484459
 30
0.0
 11
305.90231598404722
 21
401.272517484459
 31
0.0
  0
ARC
  5
1F720
  8
0
 10
314.90231598404722
 20
468.272517484459
 30
0.0
 40
8.9999999999999911
 50
90.0
 51
180.0
  0
LINE
  5
1F721
  8
0
 10
396.90231598404722
 20
477.272517484459
 30
0.0
 11
314.90231598404722
 21
477.272517484459
 31
0.0
  0
ARC
  5
1F722
  8
0
 10
396.90231598404722
 20
468.272517484459
 30
0.0
 40
9.0000000000000142
 50
0.0
 51
90.0
  0
LINE
  5
1F723
  8
0
 10
405.90231598404711
 20
401.272517484459
 30
0.0
 11
405.90231598404711
 21
468.272517484459
 31
0.0
  0
ARC
  5
1F724
  8
0
 10
396.90231598404722
 20
401.272517484459
 30
0.0
 40
9.0
 50
270.0
 51
0.0
  0
LINE
  5
1F725
  8
0
 10
314.90231598404722
 20
392.27251748445912
 30
0.0
 11
396.90231598404722
 21
392.27251748445912
 31
0.0
  0
ARC
  5
1F726
  8
0
 10
314.90231598404722
 20
401.272517484459
 30
0.0
 40
8.9999999999999947
 50
180.0
 51
270.0
  0
LINE
  5
1F727
  8
0
 10
400.1713908252749
 20
406.1955424315347
 30
0.0
 11
397.67139082527501
 21
413.69554243153459
 31
0.0
  0
ARC
  5
1F728
  8
0
 10
393.40231598404722
 20
412.272517484459
 30
0.0
 40
4.499999999999968
 50
18.434948822913771
 51
198.4349488229137
  0
LINE
  5
1F729
  8
0
 10
389.13324114282022
 20
410.8494925373833
 30
0.0
 11
391.63324114282022
 21
403.34949253738341
 31
0.0
  0
ARC
  5
1F72A
  8
0
 10
395.90231598404722
 20
404.77251748445912
 30
0.0
 40
4.499999999999968
 50
198.4349488229137
 51
18.434948822913771
  0
LINE
  5
1F72B
  8
0
 10
391.63324114282022
 20
466.1955424315347
 30
0.0
 11
389.13324114282022
 21
458.69554243153459
 31
0.0
  0
ARC
  5
1F72C
  8
0
 10
393.40231598404722
 20
457.272517484459
 30
0.0
 40
4.4999999999999938
 50
161.56505117708619
 51
341.56505117708622
  0
LINE
  5
1F72D
  8
0
 10
397.67139082527501
 20
455.84949253738341
 30
0.0
 11
400.1713908252749
 21
463.34949253738341
 31
0.0
  0
ARC
  5
1F72E
  8
0
 10
395.90231598404722
 20
464.772517484459
 30
0.0
 40
4.4999999999999929
 50
341.56505117708622
 51
161.56505117708619
  0
LINE
  5
1F72F
  8
0
 10
314.13324114282022
 20
413.69554243153459
 30
0.0
 11
311.63324114282022
 21
406.1955424315347
 31
0.0
  0
ARC
  5
1F730
  8
0
 10
315.90231598404722
 20
404.77251748445912
 30
0.0
 40
4.4999999999999956
 50
161.56505117708619
 51
341.56505117708622
  0
LINE
  5
1F731
  8
0
 10
320.17139082527501
 20
403.34949253738341
 30
0.0
 11
322.67139082527501
 21
410.8494925373833
 31
0.0
  0
ARC
  5
1F732
  8
0
 10
318.40231598404722
 20
412.272517484459
 30
0.0
 40
4.4999999999999956
 50
341.56505117708622
 51
161.56505117708619
  0
LINE
  5
1F733
  8
0
 10
322.67139082527501
 20
458.69554243153459
 30
0.0
 11
320.17139082527501
 21
466.1955424315347
 31
0.0
  0
ARC
  5
1F734
  8
0
 10
315.90231598404722
 20
464.772517484459
 30
0.0
 40
4.5
 50
18.434948822913771
 51
198.4349488229137
  0
LINE
  5
1F735
  8
0
 10
311.63324114282022
 20
463.34949253738341
 30
0.0
 11
314.13324114282022
 21
455.84949253738341
 31
0.0
  0
ARC
  5
1F736
  8
0
 10
318.40231598404722
 20
457.272517484459
 30
0.0
 40
4.4999999999999956
 50
198.4349488229137
 51
18.434948822913771
  0
LINE
  5
1F74B
  8
0
 10
322.31239914096659
 20
459.772517484459
 30
0.0
 11
312.82556616046168
 21
459.772517484459
 31
0.0
  0
LINE
  5
1F74F
  8
0
 10
322.31239914096659
 20
409.772517484459
 30
0.0
 11
312.82556616046168
 21
409.772517484459
 31
0.0
  0
LINE
  5
1F753
  8
0
 10
305.90231598404722
 20
409.772517484459
 30
0.0
 11
304.2023159840474
 21
409.772517484459
 31
0.0
  0
LINE
  5
1F755
  8
0
 10
304.24140119739968
 20
409.772517484459
 30
0.0
 11
304.24140119739968
 21
409.87251748445891
 31
0.0
  0
LINE
  5
1F758
  8
0
 10
304.2023159840474
 20
459.772517484459
 30
0.0
 11
305.90231598404722
 21
459.772517484459
 31
0.0
  0
LINE
  5
1F75E
  8
0
 10
304.24140119739968
 20
459.67251748445909
 30
0.0
 11
304.24140119739968
 21
459.772517484459
 31
0.0
  0
LINE
  5
1F760
  8
0
 10
305.90231598404722
 20
409.87251748445891
 30
0.0
 11
258.41897648244282
 21
409.87251748445891
 31
0.0
  0
LINE
  5
1F762
  8
0
 10
305.90231598404722
 20
459.67251748445909
 30
0.0
 11
258.41897648244282
 21
459.67251748445909
 31
0.0
  0
LINE
  5
1F76B
  8
0
 10
258.41897648244282
 20
409.87251748445891
 30
0.0
 11
258.41897648244282
 21
459.67251748445909
 31
0.0
  0
LINE
  5
1F77C
  8
1
 10
227.2811840649378
 20
434.772517484459
 30
0.0
 11
417.040108401552
 21
434.77251748445951
 31
0.0
  0
LINE
  5
1F77D
  8
1
 10
355.90231598404722
 20
381.1347250669541
 30
0.0
 11
355.90231598404722
 21
488.4103099019639
 31
0.0
  0
LINE
  5
1F78E
  8
0
 10
313.08731598404762
 20
409.772517484459
 30
0.0
 11
313.08731598404762
 21
409.17251748445909
 31
0.0
  0
LINE
  5
1F790
  8
0
 10
314.90231598404722
 20
469.00551748445918
 30
0.0
 11
314.90231598404722
 21
467.772517484459
 31
0.0
  0
LINE
  5
1F793
  8
0
 10
315.09659696196832
 20
469.19979846237987
 30
0.0
 11
314.90231598404722
 21
469.00551748445918
 31
0.0
  0
LINE
  5
1F796
  8
0
 10
311.67581511469052
 20
404.73193719387473
 30
0.0
 11
312.64398265071401
 21
404.47251748445888
 31
0.0
  0
LINE
  5
1F798
  8
0
 10
312.64398265071401
 20
409.17251748445909
 30
0.0
 11
312.62375994087142
 21
409.16709882568779
 31
0.0
  0
LINE
  5
1F79C
  8
0
 10
313.08731598404762
 20
467.772517484459
 30
0.0
 11
313.08731598404762
 21
465.272517484459
 31
0.0
  0
LINE
  5
1F7A1
  8
0
 10
312.64398265071401
 20
465.272517484459
 30
0.0
 11
311.67581511469052
 21
465.0130977750436
 31
0.0
  0
LINE
  5
1F7A7
  8
0
 10
317.42842753974128
 20
469.00551748445918
 30
0.0
 11
314.90231598404722
 21
469.00551748445918
 31
0.0
  0
LINE
  5
1F7AA
  8
0
 10
320.5468714509816
 20
404.47251748445888
 30
0.0
 11
312.64398265071401
 21
404.47251748445888
 31
0.0
  0
LINE
  5
1F7AC
  8
0
 10
322.11559167338328
 20
409.17251748445909
 30
0.0
 11
312.64398265071401
 21
409.17251748445909
 31
0.0
  0
POLYLINE
  5
1F7AD
  8
0
 66
     1
 10
0.0
 20
0.0
 30
0.0
  0
VERTEX
  5
2FD9D
  8
0
 10
315.2890655493693
 20
404.73193719387473
 30
0.0
  0
VERTEX
  5
2FD9E
  8
0
 10
314.96449165369631
 20
404.65109254061639
 30
0.0
  0
VERTEX
  5
2FD9F
  8
0
 10
314.35493107492499
 20
404.53648220186318
 30
0.0
  0
VERTEX
  5
2FDA0
  8
0
 10
313.7725229033494
 20
404.47970761807892
 30
0.0
  0
VERTEX
  5
2FDA1
  8
0
 10
313.48244033202991
 20
404.47251748445888
 30
0.0
  0
SEQEND
  5
2FDA2
  8
0
  0
POLYLINE
  5
1F7AE
  8
0
 66
     1
 10
0.0
 20
0.0
 30
0.0
  0
VERTEX
  5
2FDA3
  8
0
 10
313.48244033202991
 20
404.47251748445888
 30
0.0
  0
VERTEX
  5
2FDA4
  8
0
 10
313.19235776071042
 20
404.47970761807892
 30
0.0
  0
VERTEX
  5
2FDA5
  8
0
 10
312.60994958913489
 20
404.53648220186318
 30
0.0
  0
VERTEX
  5
2FDA6
  8
0
 10
312.0003890103626
 20
404.65109254061639
 30
0.0
  0
VERTEX
  5
2FDA7
  8
0
 10
311.67581511469052
 20
404.73193719387473
 30
0.0
  0
SEQEND
  5
2FDA8
  8
0
  0
POLYLINE
  5
1F7B0
  8
0
 66
     1
 10
0.0
 20
0.0
 30
0.0
  0
VERTEX
  5
2FDA9
  8
0
 10
312.60411134264632
 20
409.1077098501255
 30
0.0
  0
VERTEX
  5
2FDAA
  8
0
 10
312.75214003484598
 20
409.1274534435492
 30
0.0
  0
VERTEX
  5
2FDAB
  8
0
 10
313.04485541117901
 20
409.15620047172979
 30
0.0
  0
VERTEX
  5
2FDAC
  8
0
 10
313.33615828310298
 20
409.1706861454449
 30
0.0
  0
VERTEX
  5
2FDAD
  8
0
 10
313.48244033202991
 20
409.17251748445909
 30
0.0
  0
SEQEND
  5
2FDAE
  8
0
  0
POLYLINE
  5
1F7B1
  8
0
 66
     1
 10
0.0
 20
0.0
 30
0.0
  0
VERTEX
  5
2FDAF
  8
0
 10
313.48244033202991
 20
409.17251748445909
 30
0.0
  0
VERTEX
  5
2FDB0
  8
0
 10
313.7725229033494
 20
409.16532735083911
 30
0.0
  0
VERTEX
  5
2FDB1
  8
0
 10
314.35493107492499
 20
409.10855276705468
 30
0.0
  0
VERTEX
  5
2FDB2
  8
0
 10
314.96449165369631
 20
408.99394242830158
 30
0.0
  0
VERTEX
  5
2FDB3
  8
0
 10
315.2890655493693
 20
408.9130977750437
 30
0.0
  0
SEQEND
  5
2FDB4
  8
0
  0
LINE
  5
1F7B2
  8
0
 10
311.67581511469052
 20
404.73193719387473
 30
0.0
 11
311.67581511469052
 21
406.32326434714639
 31
0.0
  0
POLYLINE
  5
1F7C5
  8
0
 66
     1
 10
0.0
 20
0.0
 30
0.0
  0
VERTEX
  5
2FDB5
  8
0
 10
318.90231598404722
 20
409.17251748445909
 30
0.0
  0
VERTEX
  5
2FDB6
  8
0
 10
319.41181502423751
 20
409.16696953259861
 30
0.0
  0
VERTEX
  5
2FDB7
  8
0
 10
320.43155272688642
 20
409.12318067914288
 30
0.0
  0
VERTEX
  5
2FDB8
  8
0
 10
321.48482412012532
 20
409.03535379820858
 30
0.0
  0
VERTEX
  5
2FDB9
  8
0
 10
322.03664218810081
 20
408.97396579771419
 30
0.0
  0
SEQEND
  5
2FDBA
  8
0
  0
POLYLINE
  5
1F7C9
  8
0
 66
     1
 10
0.0
 20
0.0
 30
0.0
  0
VERTEX
  5
2FDBB
  8
0
 10
320.56412886540238
 20
404.53062969394517
 30
0.0
  0
VERTEX
  5
2FDBC
  8
0
 10
320.28461872959178
 20
404.5129348188766
 30
0.0
  0
VERTEX
  5
2FDBD
  8
0
 10
319.73098081717399
 20
404.4871537549065
 30
0.0
  0
VERTEX
  5
2FDBE
  8
0
 10
319.1793511139021
 20
404.47415966482907
 30
0.0
  0
VERTEX
  5
2FDBF
  8
0
 10
318.90231598404722
 20
404.47251748445888
 30
0.0
  0
SEQEND
  5
2FDC0
  8
0
  0
POLYLINE
  5
1F7CA
  8
0
 66
     1
 10
0.0
 20
0.0
 30
0.0
  0
VERTEX
  5
2FDC1
  8
0
 10
318.90231598404722
 20
404.47251748445888
 30
0.0
  0
VERTEX
  5
2FDC2
  8
0
 10
318.32215084140807
 20
404.47970761807892
 30
0.0
  0
VERTEX
  5
2FDC3
  8
0
 10
317.15733449825711
 20
404.53648220186318
 30
0.0
  0
VERTEX
  5
2FDC4
  8
0
 10
315.9382133407135
 20
404.65109254061639
 30
0.0
  0
VERTEX
  5
2FDC5
  8
0
 10
315.2890655493693
 20
404.73193719387473
 30
0.0
  0
SEQEND
  5
2FDC6
  8
0
  0
LINE
  5
1F7CB
  8
0
 10
315.2890655493693
 20
404.73193719387473
 30
0.0
 11
315.2890655493693
 21
408.9130977750437
 31
0.0
  0
POLYLINE
  5
1F7CC
  8
0
 66
     1
 10
0.0
 20
0.0
 30
0.0
  0
VERTEX
  5
2FDC7
  8
0
 10
315.2890655493693
 20
408.9130977750437
 30
0.0
  0
VERTEX
  5
2FDC8
  8
0
 10
315.9382133407135
 20
408.99394242830158
 30
0.0
  0
VERTEX
  5
2FDC9
  8
0
 10
317.15733449825711
 20
409.10855276705468
 30
0.0
  0
VERTEX
  5
2FDCA
  8
0
 10
318.32215084140807
 20
409.16532735083911
 30
0.0
  0
VERTEX
  5
2FDCB
  8
0
 10
318.90231598404722
 20
409.17251748445909
 30
0.0
  0
SEQEND
  5
2FDCC
  8
0
  0
LINE
  5
1F7CE
  8
0
 10
319.25676755274708
 20
467.772517484459
 30
0.0
 11
313.08731598404762
 21
467.772517484459
 31
0.0
  0
LINE
  5
1F7D0
  8
0
 10
320.48055937885869
 20
465.272517484459
 30
0.0
 11
312.64398265071401
 21
465.272517484459
 31
0.0
  0
POLYLINE
  5
1F7D1
  8
0
 66
     1
 10
0.0
 20
0.0
 30
0.0
  0
VERTEX
  5
2FDCD
  8
0
 10
315.2890655493693
 20
460.0319371938744
 30
0.0
  0
VERTEX
  5
2FDCE
  8
0
 10
314.96449165369631
 20
459.95109254061663
 30
0.0
  0
VERTEX
  5
2FDCF
  8
0
 10
314.35493107492499
 20
459.83648220186342
 30
0.0
  0
VERTEX
  5
2FDD0
  8
0
 10
313.7725229033494
 20
459.7797076180791
 30
0.0
  0
VERTEX
  5
2FDD1
  8
0
 10
313.48244033202991
 20
459.772517484459
 30
0.0
  0
SEQEND
  5
2FDD2
  8
0
  0
POLYLINE
  5
1F7D2
  8
0
 66
     1
 10
0.0
 20
0.0
 30
0.0
  0
VERTEX
  5
2FDD3
  8
0
 10
313.48244033202991
 20
459.772517484459
 30
0.0
  0
VERTEX
  5
2FDD4
  8
0
 10
313.37080357061768
 20
459.77358432642171
 30
0.0
  0
VERTEX
  5
2FDD5
  8
0
 10
313.14852425592107
 20
459.78203815002001
 30
0.0
  0
VERTEX
  5
2FDD6
  8
0
 10
312.92618412996308
 20
459.79880699375371
 30
0.0
  0
VERTEX
  5
2FDD7
  8
0
 10
312.81448227896459
 20
459.81029708208962
 30
0.0
  0
SEQEND
  5
2FDD8
  8
0
  0
POLYLINE
  5
1F7D4
  8
0
 66
     1
 10
0.0
 20
0.0
 30
0.0
  0
VERTEX
  5
2FDD9
  8
0
 10
311.67581511469052
 20
465.0130977750436
 30
0.0
  0
VERTEX
  5
2FDDA
  8
0
 10
312.0003890103626
 20
465.09394242830149
 30
0.0
  0
VERTEX
  5
2FDDB
  8
0
 10
312.60994958913489
 20
465.20855276705458
 30
0.0
  0
VERTEX
  5
2FDDC
  8
0
 10
313.19235776071042
 20
465.26532735083902
 30
0.0
  0
VERTEX
  5
2FDDD
  8
0
 10
313.48244033202991
 20
465.272517484459
 30
0.0
  0
SEQEND
  5
2FDDE
  8
0
  0
POLYLINE
  5
1F7D5
  8
0
 66
     1
 10
0.0
 20
0.0
 30
0.0
  0
VERTEX
  5
2FDDF
  8
0
 10
313.48244033202991
 20
465.272517484459
 30
0.0
  0
VERTEX
  5
2FDE0
  8
0
 10
313.7725229033494
 20
465.26532735083902
 30
0.0
  0
VERTEX
  5
2FDE1
  8
0
 10
314.35493107492499
 20
465.20855276705458
 30
0.0
  0
VERTEX
  5
2FDE2
  8
0
 10
314.96449165369631
 20
465.09394242830149
 30
0.0
  0
VERTEX
  5
2FDE3
  8
0
 10
315.2890655493693
 20
465.0130977750436
 30
0.0
  0
SEQEND
  5
2FDE4
  8
0
  0
LINE
  5
1F7D7
  8
0
 10
311.67581511469052
 20
463.22177062177161
 30
0.0
 11
311.67581511469052
 21
465.0130977750436
 31
0.0
  0
POLYLINE
  5
1F7E9
  8
0
 66
     1
 10
0.0
 20
0.0
 30
0.0
  0
VERTEX
  5
2FDE5
  8
0
 10
318.90231598404722
 20
465.272517484459
 30
0.0
  0
VERTEX
  5
2FDE6
  8
0
 10
319.1680472841735
 20
465.2710065223377
 30
0.0
  0
VERTEX
  5
2FDE7
  8
0
 10
319.69714456869588
 20
465.25904741155051
 30
0.0
  0
VERTEX
  5
2FDE8
  8
0
 10
320.22773780233177
 20
465.2353226972441
 30
0.0
  0
VERTEX
  5
2FDE9
  8
0
 10
320.49530627326112
 20
465.21904621022532
 30
0.0
  0
SEQEND
  5
2FDEA
  8
0
  0
POLYLINE
  5
1F7ED
  8
0
 66
     1
 10
0.0
 20
0.0
 30
0.0
  0
VERTEX
  5
2FDEB
  8
0
 10
322.2301952638245
 20
459.99485950269849
 30
0.0
  0
VERTEX
  5
2FDEC
  8
0
 10
321.6396349532688
 20
459.92590598628522
 30
0.0
  0
VERTEX
  5
2FDED
  8
0
 10
320.51955393662229
 20
459.827602875845
 30
0.0
  0
VERTEX
  5
2FDEE
  8
0
 10
319.44070597642258
 20
459.77871127359782
 30
0.0
  0
VERTEX
  5
2FDEF
  8
0
 10
318.90231598404722
 20
459.772517484459
 30
0.0
  0
SEQEND
  5
2FDF0
  8
0
  0
POLYLINE
  5
1F7EE
  8
0
 66
     1
 10
0.0
 20
0.0
 30
0.0
  0
VERTEX
  5
2FDF1
  8
0
 10
318.90231598404722
 20
459.772517484459
 30
0.0
  0
VERTEX
  5
2FDF2
  8
0
 10
318.32215084140807
 20
459.7797076180791
 30
0.0
  0
VERTEX
  5
2FDF3
  8
0
 10
317.15733449825711
 20
459.83648220186342
 30
0.0
  0
VERTEX
  5
2FDF4
  8
0
 10
315.9382133407135
 20
459.95109254061663
 30
0.0
  0
VERTEX
  5
2FDF5
  8
0
 10
315.2890655493693
 20
460.0319371938744
 30
0.0
  0
SEQEND
  5
2FDF6
  8
0
  0
LINE
  5
1F7EF
  8
0
 10
315.2890655493693
 20
460.0319371938744
 30
0.0
 11
315.2890655493693
 21
465.0130977750436
 31
0.0
  0
POLYLINE
  5
1F7F0
  8
0
 66
     1
 10
0.0
 20
0.0
 30
0.0
  0
VERTEX
  5
2FDF7
  8
0
 10
315.2890655493693
 20
465.0130977750436
 30
0.0
  0
VERTEX
  5
2FDF8
  8
0
 10
315.9382133407135
 20
465.09394242830149
 30
0.0
  0
VERTEX
  5
2FDF9
  8
0
 10
317.15733449825711
 20
465.20855276705458
 30
0.0
  0
VERTEX
  5
2FDFA
  8
0
 10
318.32215084140807
 20
465.26532735083902
 30
0.0
  0
VERTEX
  5
2FDFB
  8
0
 10
318.90231598404722
 20
465.272517484459
 30
0.0
  0
SEQEND
  5
2FDFC
  8
0
  0
LINE
  5
1FBD1
  8
0
 10
390.70231598404729
 20
292.44368873141963
 30
0.0
 11
390.70231598404729
 21
293.24368873141981
 31
0.0
  0
LINE
  5
1FBD2
  8
0
 10
321.10231598404698
 20
293.24368873141981
 30
0.0
 11
321.10231598404698
 21
292.44368873141963
 31
0.0
  0
LINE
  5
1FBD3
  8
0
 10
390.40353664802569
 20
283.94368873141963
 30
0.0
 11
391.90231598404722
 21
292.44368873141963
 31
0.0
  0
LINE
  5
1FBD4
  8
0
 10
319.90231598404722
 20
292.44368873141963
 30
0.0
 11
321.40109532006949
 21
283.94368873141963
 31
0.0
  0
LINE
  5
1FBD5
  8
0
 10
388.90231598404722
 20
278.2436887314197
 30
0.0
 11
388.90231598404722
 21
283.94368873141963
 31
0.0
  0
LINE
  5
1FBD6
  8
0
 10
322.90231598404722
 20
283.94368873141963
 30
0.0
 11
322.90231598404722
 21
281.94368873141963
 31
0.0
  0
LINE
  5
1FBD9
  8
0
 10
405.90231598404711
 20
295.74368873141981
 30
0.0
 11
405.90231598404711
 21
293.24368873141981
 31
0.0
  0
LINE
  5
1FBDB
  8
0
 10
305.90231598404722
 20
295.74368873141981
 30
0.0
 11
305.90231598404722
 21
293.24368873141981
 31
0.0
  0
LINE
  5
1FBDC
  8
0
 10
305.90231598404722
 20
295.74368873141981
 30
0.0
 11
405.90231598404711
 21
295.74368873141981
 31
0.0
  0
LINE
  5
1FBDE
  8
0
 10
305.90231598404722
 20
293.24368873141981
 30
0.0
 11
405.90231598404711
 21
293.24368873141981
 31
0.0
  0
LINE
  5
1FBF2
  8
0
 10
319.90231598404722
 20
292.44368873141963
 30
0.0
 11
391.90231598404722
 21
292.44368873141963
 31
0.0
  0
LINE
  5
1FBF3
  8
0
 10
321.40109532006949
 20
283.94368873141963
 30
0.0
 11
390.40353664802569
 21
283.94368873141963
 31
0.0
  0
LINE
  5
1FBF4
  8
0
 10
334.3616567555091
 20
281.94368873141963
 30
0.0
 11
310.90231598404722
 21
281.94368873141963
 31
0.0
  0
LINE
  5
1FBF5
  8
0
 10
334.3616567555091
 20
281.94368873141963
 30
0.0
 11
334.3616567555091
 21
200.1830750390545
 31
0.0
  0
LINE
  5
1FBF6
  8
0
 10
310.90231598404722
 20
281.94368873141963
 30
0.0
 11
310.90231598404722
 21
278.2436887314197
 31
0.0
  0
ARC
  5
1FBF7
  8
0
 10
323.60231598404698
 20
202.24368873141981
 30
0.0
 40
10.000000000000041
 50
270.0
 51
325.05814374493218
  0
LINE
  5
1FBF8
  8
0
 10
314.20231598404729
 20
192.2436887314197
 30
0.0
 11
323.60231598404698
 21
192.2436887314197
 31
0.0
  0
LINE
  5
1FBF9
  8
0
 10
310.90231598404722
 20
278.2436887314197
 30
0.0
 11
304.24140119739968
 21
203.12696479989421
 31
0.0
  0
LINE
  5
1FBFA
  8
0
 10
331.79965286050992
 20
196.51624007309141
 30
0.0
 11
334.3616567555091
 21
200.1830750390545
 31
0.0
  0
POLYLINE
  5
1FBFB
  8
0
 66
     1
 10
0.0
 20
0.0
 30
0.0
  0
VERTEX
  5
2FDFD
  8
0
 10
334.3616567555091
 20
200.1830750390545
 30
0.0
  0
VERTEX
  5
2FDFE
  8
0
 10
334.62697450944961
 20
200.5628076456824
 30
0.0
  0
VERTEX
  5
2FDFF
  8
0
 10
335.16470404369193
 20
201.3324260924928
 30
0.0
  0
VERTEX
  5
2FE00
  8
0
 10
335.71169178570022
 20
202.1152952295233
 30
0.0
  0
VERTEX
  5
2FE01
  8
0
 10
335.98858133058371
 20
202.51158981239769
 30
0.0
  0
VERTEX
  5
2FE02
  8
0
 10
336.26769353540931
 20
202.91106554858919
 30
0.0
  0
VERTEX
  5
2FE03
  8
0
 10
336.83246106849577
 20
203.71938178183339
 30
0.0
  0
VERTEX
  5
2FE04
  8
0
 10
337.4057422471933
 20
204.53988306033531
 30
0.0
  0
VERTEX
  5
2FE05
  8
0
 10
337.98728113285779
 20
205.3722030752206
 30
0.0
  0
VERTEX
  5
2FE06
  8
0
 10
338.57681810023229
 20
206.21597024119461
 30
0.0
  0
VERTEX
  5
2FE07
  8
0
 10
339.17408995335518
 20
207.0708078624375
 30
0.0
  0
VERTEX
  5
2FE08
  8
0
 10
339.47554326585401
 20
207.5022590202725
 30
0.0
  0
VERTEX
  5
2FE09
  8
0
 10
339.77883004306108
 20
207.9363343007781
 30
0.0
  0
VERTEX
  5
2FE0A
  8
0
 10
340.39076838602608
 20
208.81216314607261
 30
0.0
  0
VERTEX
  5
2FE0B
  8
0
 10
341.00963178530219
 20
209.69790338872011
 30
0.0
  0
VERTEX
  5
2FE0C
  8
0
 10
341.63514395228049
 20
210.59315959421929
 30
0.0
  0
VERTEX
  5
2FE0D
  8
0
 10
342.2670256300425
 20
211.49753207971571
 30
0.0
  0
VERTEX
  5
2FE0E
  8
0
 10
342.90499471803378
 20
212.41061709243331
 30
0.0
  0
VERTEX
  5
2FE0F
  8
0
 10
343.2261731378531
 20
212.8702995552139
 30
0.0
  0
VERTEX
  5
2FE10
  8
0
 10
343.54876639800301
 20
213.33200698993281
 30
0.0
  0
VERTEX
  5
2FE11
  8
0
 10
344.19805326115778
 20
214.26129042209499
 30
0.0
  0
VERTEX
  5
2FE12
  8
0
 10
344.85256543648211
 20
215.1980525147728
 30
0.0
  0
VERTEX
  5
2FE13
  8
0
 10
345.18168979007532
 20
215.6691074925821
 30
0.0
  0
VERTEX
  5
2FE14
  8
0
 10
345.51201072014192
 20
216.14187505500561
 30
0.0
  0
VERTEX
  5
2FE15
  8
0
 10
346.17609470594198
 20
217.09233667772969
 30
0.0
  0
VERTEX
  5
2FE16
  8
0
 10
346.84452091675939
 20
218.0490130538947
 30
0.0
  0
VERTEX
  5
2FE17
  8
0
 10
347.18026917373481
 20
218.5295484078197
 30
0.0
  0
VERTEX
  5
2FE18
  8
0
 10
347.51699093690507
 20
219.01147707990549
 30
0.0
  0
VERTEX
  5
2FE19
  8
0
 10
348.19320454535409
 20
219.97929906829361
 30
0.0
  0
VERTEX
  5
2FE1A
  8
0
 10
348.8728598497691
 20
220.95204693955839
 30
0.0
  0
VERTEX
  5
2FE1B
  8
0
 10
349.5556534212883
 20
221.9292864150602
 30
0.0
  0
VERTEX
  5
2FE1C
  8
0
 10
350.24128042998473
 20
222.91058121090461
 30
0.0
  0
VERTEX
  5
2FE1D
  8
0
 10
350.92943478095458
 20
223.89549323271791
 30
0.0
  0
VERTEX
  5
2FE1E
  8
0
 10
351.2743637428639
 20
224.38916835193589
 30
0.0
  0
VERTEX
  5
2FE1F
  8
0
 10
351.6198092509776
 20
224.8835827712337
 30
0.0
  0
VERTEX
  5
2FE20
  8
0
 10
352.31209562566892
 20
225.87440869860069
 30
0.0
  0
VERTEX
  5
2FE21
  8
0
 10
353.00598483708558
 20
226.86752866531609
 30
0.0
  0
VERTEX
  5
2FE22
  8
0
 10
353.70116710170441
 20
227.8624992977166
 30
0.0
  0
VERTEX
  5
2FE23
  8
0
 10
354.3973320587238
 20
228.8588763959178
 30
0.0
  0
VERTEX
  5
2FE24
  8
0
 10
355.09416890862582
 20
229.856215132123
 30
0.0
  0
VERTEX
  5
2FE25
  8
0
 10
355.44274208273958
 20
230.35510598296599
 30
0.0
  0
VERTEX
  5
2FE26
  8
0
 10
355.79136655192821
 20
230.85407024922091
 30
0.0
  0
VERTEX
  5
2FE27
  8
0
 10
356.4886137280746
 20
231.85199625956011
 30
0.0
  0
VERTEX
  5
2FE28
  8
0
 10
357.18559915439528
 20
232.84954764384381
 30
0.0
  0
VERTEX
  5
2FE29
  8
0
 10
357.88201166507503
 20
233.8462790500225
 30
0.0
  0
VERTEX
  5
2FE2A
  8
0
 10
358.57754035007753
 20
234.84174549212099
 30
0.0
  0
VERTEX
  5
2FE2B
  8
0
 10
359.27187469394448
 20
235.83550254890361
 30
0.0
  0
VERTEX
  5
2FE2C
  8
0
 10
359.61849709388389
 20
236.3316013794192
 30
0.0
  0
VERTEX
  5
2FE2D
  8
0
 10
359.96470471442439
 20
236.8271065622794
 30
0.0
  0
VERTEX
  5
2FE2E
  8
0
 10
360.65572110086669
 20
237.8161148353756
 30
0.0
  0
VERTEX
  5
2FE2F
  8
0
 10
361.34461535230639
 20
238.80208583017429
 30
0.0
  0
VERTEX
  5
2FE30
  8
0
 10
362.03107991519659
 20
239.78457936463559
 30
0.0
  0
VERTEX
  5
2FE31
  8
0
 10
362.71480832071393
 20
240.76315680921471
 30
0.0
  0
VERTEX
  5
2FE32
  8
0
 10
363.39549532157707
 20
241.73738128268809
 30
0.0
  0
VERTEX
  5
2FE33
  8
0
 10
363.73460327305378
 20
242.22272515595071
 30
0.0
  0
VERTEX
  5
2FE34
  8
0
 10
364.07283702832859
 20
242.70681784719449
 30
0.0
  0
VERTEX
  5
2FE35
  8
0
 10
364.74653104499788
 20
243.6710337024106
 30
0.0
  0
VERTEX
  5
2FE36
  8
0
 10
365.41627660411268
 20
244.62959837877679
 30
0.0
  0
VERTEX
  5
2FE37
  8
0
 10
366.08177470096598
 20
245.58208392967211
 30
0.0
  0
VERTEX
  5
2FE38
  8
0
 10
366.74272822711282
 20
246.52806512247301
 30
0.0
  0
VERTEX
  5
2FE39
  8
0
 10
367.39884210300988
 20
247.467119628398
 30
0.0
  0
VERTEX
  5
2FE3A
  8
0
 10
367.72499254697499
 20
247.93391823648199
 30
0.0
  0
VERTEX
  5
2FE3B
  8
0
 10
368.04982340975312
 20
248.39882821104669
 30
0.0
  0
VERTEX
  5
2FE3C
  8
0
 10
368.69538151984671
 20
249.32277491357581
 30
0.0
  0
VERTEX
  5
2FE3D
  8
0
 10
369.33522822695699
 20
250.23854724439479
 30
0.0
  0
VERTEX
  5
2FE3E
  8
0
 10
369.65292043363843
 20
250.69324010967469
 30
0.0
  0
VERTEX
  5
2FE3F
  8
0
 10
369.96907787458082
 20
251.14573636132261
 30
0.0
  0
VERTEX
  5
2FE40
  8
0
 10
370.59664748356948
 20
252.0439372541114
 30
0.0
  0
VERTEX
  5
2FE41
  8
0
 10
371.21765687847068
 20
252.9327489252646
 30
0.0
  0
VERTEX
  5
2FE42
  8
0
 10
371.52561473825239
 20
253.3735096323399
 30
0.0
  0
VERTEX
  5
2FE43
  8
0
 10
371.83182881260751
 20
253.81177456905789
 30
0.0
  0
VERTEX
  5
2FE44
  8
0
 10
372.43888909185262
 20
254.68062174869371
 30
0.0
  0
VERTEX
  5
2FE45
  8
0
 10
373.03856669704783
 20
255.53890257149939
 30
0.0
  0
VERTEX
  5
2FE46
  8
0
 10
373.63059390498893
 20
256.38623386210389
 30
0.0
  0
VERTEX
  5
2FE47
  8
0
 10
374.21470640795911
 20
257.22223733349892
 30
0.0
  0
VERTEX
  5
2FE48
  8
0
 10
374.79064343172291
 20
258.04653975593101
 30
0.0
  0
VERTEX
  5
2FE49
  8
0
 10
375.07546564182309
 20
258.45418786338178
 30
0.0
  0
VERTEX
  5
2FE4A
  8
0
 10
375.3581478519464
 20
258.85877312352022
 30
0.0
  0
VERTEX
  5
2FE4B
  8
0
 10
375.91696630899241
 20
259.65857481856261
 30
0.0
  0
VERTEX
  5
2FE4C
  8
0
 10
376.4668493210329
 20
260.44558777341172
 30
0.0
  0
VERTEX
  5
2FE4D
  8
0
 10
377.00755139542349
 20
261.2194606298944
 30
0.0
  0
VERTEX
  5
2FE4E
  8
0
 10
377.5388311383058
 20
261.97984789617112
 30
0.0
  0
VERTEX
  5
2FE4F
  8
0
 10
378.0604513623785
 20
262.72641010098141
 30
0.0
  0
VERTEX
  5
2FE50
  8
0
 10
378.3175662101566
 20
263.09440240417098
 30
0.0
  0
VERTEX
  5
2FE51
  8
0
 10
378.57217919278349
 20
263.45881394519529
 30
0.0
  0
VERTEX
  5
2FE52
  8
0
 10
379.0737861710777
 20
264.17673245061451
 30
0.0
  0
VERTEX
  5
2FE53
  8
0
 10
379.5650483572208
 20
264.8798451059547
 30
0.0
  0
VERTEX
  5
2FE54
  8
0
 10
380.04574642955691
 20
265.56783800992889
 30
0.0
  0
VERTEX
  5
2FE55
  8
0
 10
380.51566578273008
 20
266.24040401139428
 30
0.0
  0
VERTEX
  5
2FE56
  8
0
 10
380.97459662348871
 20
266.89724284647127
 30
0.0
  0
VERTEX
  5
2FE57
  8
0
 10
381.19987713022692
 20
267.21967266044248
 30
0.0
  0
VERTEX
  5
2FE58
  8
0
 10
381.42233406435298
 20
267.53806127260032
 30
0.0
  0
VERTEX
  5
2FE59
  8
0
 10
381.8586782150806
 20
268.1625731994572
 30
0.0
  0
VERTEX
  5
2FE5A
  8
0
 10
382.28343427191152
 20
268.77049981667727
 30
0.0
  0
VERTEX
  5
2FE5B
  8
0
 10
382.69641260453233
 20
269.36156971832679
 30
0.0
  0
VERTEX
  5
2FE5C
  8
0
 10
383.09742884074058
 20
269.93551902407029
 30
0.0
  0
VERTEX
  5
2FE5D
  8
0
 10
383.48630394875357
 20
270.4920914969843
 30
0.0
  0
VERTEX
  5
2FE5E
  8
0
 10
383.67613411224562
 20
270.76378346530879
 30
0.0
  0
VERTEX
  5
2FE5F
  8
0
 10
383.86286431713779
 20
271.0310386579477
 30
0.0
  0
VERTEX
  5
2FE60
  8
0
 10
384.22694183231579
 20
271.55211989657442
 30
0.0
  0
VERTEX
  5
2FE61
  8
0
 10
384.57837395361997
 20
272.05510257863722
 30
0.0
  0
VERTEX
  5
2FE62
  8
0
 10
384.91700378585853
 20
272.53976214991781
 30
0.0
  0
VERTEX
  5
2FE63
  8
0
 10
385.24268014936212
 20
273.00588223646992
 30
0.0
  0
VERTEX
  5
2FE64
  8
0
 10
385.55525764747381
 20
273.4532547412054
 30
0.0
  0
VERTEX
  5
2FE65
  8
0
 10
385.70659048287331
 20
273.6698479061979
 30
0.0
  0
VERTEX
  5
2FE66
  8
0
 10
385.85459673146312
 20
273.88167993680872
 30
0.0
  0
VERTEX
  5
2FE67
  8
0
 10
386.14056376282588
 20
274.29096655489781
 30
0.0
  0
VERTEX
  5
2FE68
  8
0
 10
386.41303107294789
 20
274.68093187141682
 30
0.0
  0
VERTEX
  5
2FE69
  8
0
 10
386.54416408257481
 20
274.86861429681448
 30
0.0
  0
VERTEX
  5
2FE6A
  8
0
 10
386.6718770200996
 20
275.05140178821421
 30
0.0
  0
VERTEX
  5
2FE6B
  8
0
 10
386.91698604374602
 20
275.40221091076552
 30
0.0
  0
VERTEX
  5
2FE6C
  8
0
 10
387.14824871613291
 20
275.73320262201469
 30
0.0
  0
VERTEX
  5
2FE6D
  8
0
 10
387.25865516344493
 20
275.8912204229473
 30
0.0
  0
VERTEX
  5
2FE6E
  8
0
 10
387.36556179114717
 20
276.0442291522931
 30
0.0
  0
VERTEX
  5
2FE6F
  8
0
 10
387.56882825040339
 20
276.33515164529308
 30
0.0
  0
VERTEX
  5
2FE70
  8
0
 10
387.7579573465618
 20
276.605840220056
 30
0.0
  0
VERTEX
  5
2FE71
  8
0
 10
387.93286464384249
 20
276.85617402896332
 30
0.0
  0
VERTEX
  5
2FE72
  8
0
 10
388.09347205571697
 20
277.08604131168067
 30
0.0
  0
VERTEX
  5
2FE73
  8
0
 10
388.23970787977493
 20
277.29533944505869
 30
0.0
  0
VERTEX
  5
2FE74
  8
0
 10
388.30741579296131
 20
277.39224552081851
 30
0.0
  0
VERTEX
  5
2FE75
  8
0
 10
388.37150682973061
 20
277.48397498894519
 30
0.0
  0
VERTEX
  5
2FE76
  8
0
 10
388.48881006457219
 20
277.65186372790407
 30
0.0
  0
VERTEX
  5
2FE77
  8
0
 10
388.59156521483061
 20
277.79893070880831
 30
0.0
  0
VERTEX
  5
2FE78
  8
0
 10
388.6797264059615
 20
277.92511027430828
 30
0.0
  0
VERTEX
  5
2FE79
  8
0
 10
388.75325427882223
 20
278.03034609213859
 30
0.0
  0
VERTEX
  5
2FE7A
  8
0
 10
388.81211600724328
 20
278.11459118027318
 30
0.0
  0
VERTEX
  5
2FE7B
  8
0
 10
388.8360385991391
 20
278.14883008077231
 30
0.0
  0
VERTEX
  5
2FE7C
  8
0
 10
388.85628531268958
 20
278.1778079278929
 30
0.0
  0
VERTEX
  5
2FE7D
  8
0
 10
388.88574247598439
 20
278.21996811218378
 30
0.0
  0
VERTEX
  5
2FE7E
  8
0
 10
388.9004743461183
 20
278.24105291093292
 30
0.0
  0
VERTEX
  5
2FE7F
  8
0
 10
388.90231598404722
 20
278.2436887314197
 30
0.0
  0
SEQEND
  5
2FE80
  8
0
  0
ARC
  5
1FBFC
  8
0
 10
314.20231598404729
 20
202.24368873141981
 30
0.0
 40
10.000000000000011
 50
174.93259717388781
 51
270.0
  0
LINE
  5
1FC01
  8
0
 10
306.9356369808383
 20
281.7436887314197
 30
0.0
 11
258.41897648244282
 21
268.74368873141981
 31
0.0
  0
LINE
  5
1FC02
  8
0
 10
310.90231598404722
 20
281.7436887314197
 30
0.0
 11
306.9356369808383
 21
281.7436887314197
 31
0.0
  0
LINE
  5
1FC03
  8
0
 10
261.90231598404739
 20
255.74368873141981
 30
0.0
 11
308.90714666814068
 21
255.74368873141981
 31
0.0
  0
LINE
  5
1FC06
  8
0
 10
258.41897648244282
 20
268.74368873141981
 30
0.0
 11
261.90231598404739
 21
255.74368873141981
 31
0.0
  0
LINE
  5
1FC12
  8
1
 10
355.90231598404671
 20
306.8814811489255
 30
0.0
 11
355.90231598404722
 21
243.9936887314197
 31
0.0
  0
CIRCLE
  5
1FC25
  8
0
 10
318.90231598404722
 20
202.24368873141981
 30
0.0
 40
6.2583333333333391
  0
ARC
  5
1FC26
  8
0
 10
318.90231598404722
 20
202.24368873141981
 30
0.0
 40
15.999999999999989
 50
151.51056945108721
 51
355.03759689462379
  0
ARC
  5
1FC2C
  8
0
 10
318.90231598404722
 20
202.24368873141981
 30
0.0
 40
53.499999999999979
 50
100.8602282512839
 51
40.05156953016612
  0
ARC
  5
1FC32
  8
0
 10
318.90231598404722
 20
202.24368873141981
 30
0.0
 40
62.499999999999957
 50
121.1296133227854
 51
42.252533922177669
  0
LINE
  5
1FC40
  8
0
 10
364.29141532215499
 20
180.10594581857089
 30
0.0
 11
335.08060881743222
 21
194.3530080892169
 31
0.0
  0
ARC
  5
1FC4D
  8
0
 10
318.90231598404722
 20
202.24368873141981
 30
0.0
 40
18.0
 50
139.5838949680134
 51
4.7404185328973298
  0
LINE
  5
1FC67
  8
0
 10
318.90231598404722
 20
184.2436887314197
 30
0.0
 11
318.90231598404722
 21
151.7436887314197
 31
0.0
  0
LINE
  5
1FC69
  8
0
 10
277.03591857001811
 20
174.00444710614639
 30
0.0
 11
303.97963967805669
 21
192.1782164689466
 31
0.0
  0
ARC
  5
1FC6E
  8
0
 10
318.90231598404722
 20
202.24368873141981
 30
0.0
 40
50.5
 50
101.83398356034429
 51
39.137134731832518
  0
LINE
  5
1FC70
  8
0
 10
362.63659887516133
 20
227.4936887314197
 30
0.0
 11
347.22761058881127
 21
218.59730519635559
 31
0.0
  0
LINE
  5
1FC73
  8
0
 10
275.168033092933
 20
227.4936887314197
 30
0.0
 11
303.31385871592693
 21
211.2436887314197
 31
0.0
  0
ARC
  5
1FC75
  8
0
 10
318.90231598404353
 20
202.2436887314179
 30
0.0
 40
46.439712300848527
 50
29.999999999997289
 51
37.702899576810061
  0
ARC
  5
1FC76
  8
0
 10
318.90231598404722
 20
202.24368873141981
 30
0.0
 40
46.439712300844313
 50
150.0000000000027
 51
214.0000000000027
  0
ARC
  5
1FC79
  8
0
 10
318.90231598404722
 20
202.24368873141981
 30
0.0
 40
46.439712300844363
 50
270.0
 51
334.00000000000358
  0
LINE
  5
1FC7E
  8
1
 10
245.26452356654229
 20
202.24368873141981
 30
0.0
 11
392.54010840155212
 21
202.24368873141981
 31
0.0
  0
LINE
  5
1FC7F
  8
1
 10
318.90231598404722
 20
128.6058963139148
 30
0.0
 11
318.90231598404722
 21
267.24406357791122
 31
0.0
  0
CIRCLE
  5
2806F
  8
0
 10
355.90231598404722
 20
434.772517484459
 30
0.0
 40
8.9249999999999972
  0
CIRCLE
  5
28070
  8
0
 10
355.90231598404722
 20
434.772517484459
 30
0.0
 40
13.57900689360916
  0
CIRCLE
  5
28071
  8
0
 10
355.90231598404722
 20
434.772517484459
 30
0.0
 40
20.175000000000001
  0
CIRCLE
  5
28072
  8
0
 10
355.90231598404722
 20
434.772517484459
 30
0.0
 40
25.668546822706869
  0
CIRCLE
  5
28073
  8
0
 10
355.90231598404722
 20
434.772517484459
 30
0.0
 40
27.174999999999962
  0
CIRCLE
  5
28074
  8
0
 10
355.90231598404722
 20
434.772517484459
 30
0.0
 40
31.175000000000001
  0
LINE
  5
28075
  8
1
 10
402.7608112670614
 20
404.77251748445912
 30
0.0
 11
389.04382070103293
 21
404.77251748445912
 31
0.0
  0
LINE
  5
28076
  8
1
 10
395.90231598404722
 20
397.91402220144482
 30
0.0
 11
395.90231598404722
 21
411.63101276747329
 31
0.0
  0
LINE
  5
28077
  8
1
 10
400.26081126706129
 20
412.272517484459
 30
0.0
 11
386.54382070103293
 21
412.272517484459
 31
0.0
  0
LINE
  5
28078
  8
1
 10
393.40231598404722
 20
405.41402220144482
 30
0.0
 11
393.40231598404722
 21
419.13101276747278
 31
0.0
  0
LINE
  5
28079
  8
1
 10
325.2608112670614
 20
412.272517484459
 30
0.0
 11
311.54382070103293
 21
412.272517484459
 31
0.0
  0
LINE
  5
2807A
  8
1
 10
318.40231598404722
 20
405.41402220144482
 30
0.0
 11
318.40231598404722
 21
419.13101276747278
 31
0.0
  0
LINE
  5
2807B
  8
1
 10
322.7608112670614
 20
404.77251748445912
 30
0.0
 11
309.04382070103298
 21
404.77251748445912
 31
0.0
  0
LINE
  5
2807C
  8
1
 10
315.90231598404722
 20
397.91402220144482
 30
0.0
 11
315.90231598404722
 21
411.63101276747278
 31
0.0
  0
LINE
  5
2807D
  8
1
 10
402.7608112670614
 20
464.7725174844586
 30
0.0
 11
389.04382070103293
 21
464.7725174844586
 31
0.0
  0
LINE
  5
2807E
  8
1
 10
395.90231598404722
 20
471.63101276747278
 30
0.0
 11
395.90231598404722
 21
457.91402220144431
 31
0.0
  0
LINE
  5
2807F
  8
1
 10
400.26081126706129
 20
457.2725174844586
 30
0.0
 11
386.54382070103293
 21
457.2725174844586
 31
0.0
  0
LINE
  5
28080
  8
1
 10
393.40231598404722
 20
464.13101276747278
 30
0.0
 11
393.40231598404722
 21
450.41402220144482
 31
0.0
  0
LINE
  5
28081
  8
1
 10
325.2608112670614
 20
457.2725174844586
 30
0.0
 11
311.54382070103293
 21
457.2725174844586
 31
0.0
  0
LINE
  5
28082
  8
1
 10
318.40231598404722
 20
464.13101276747278
 30
0.0
 11
318.40231598404722
 21
450.41402220144482
 31
0.0
  0
LINE
  5
28083
  8
1
 10
322.7608112670614
 20
464.7725174844586
 30
0.0
 11
309.04382070103298
 21
464.7725174844586
 31
0.0
  0
LINE
  5
28084
  8
1
 10
315.90231598404722
 20
471.63101276747278
 30
0.0
 11
315.90231598404722
 21
457.91402220144482
 31
0.0
  0
LINE
  5
28085
  8
1
 10
318.90231598404722
 20
483.36311804212392
 30
0.0
 11
318.90231598404722
 21
386.1819169267938
 31
0.0
  0
LINE
  5
2847A
  8
0
 10
315.28906554936839
 20
208.50202206475299
 30
0.0
 11
322.51556641872588
 21
208.50202206475299
 31
0.0
  0
LINE
  5
2847B
  8
0
 10
315.28906554936839
 20
195.98535539808651
 30
0.0
 11
322.51556641872588
 21
195.98535539808651
 31
0.0
  0
LINE
  5
2847C
  8
0
 10
322.51556641872588
 20
208.50202206475299
 30
0.0
 11
326.1288168534038
 21
202.24368873141981
 31
0.0
  0
LINE
  5
2847D
  8
0
 10
326.1288168534038
 20
202.24368873141981
 30
0.0
 11
322.51556641872588
 21
195.98535539808651
 31
0.0
  0
LINE
  5
2847E
  8
0
 10
315.28906554936839
 20
208.50202206475299
 30
0.0
 11
311.67581511469052
 21
202.24368873141981
 31
0.0
  0
LINE
  5
2847F
  8
0
 10
311.67581511469052
 20
202.24368873141981
 30
0.0
 11
315.28906554936839
 21
195.98535539808651
 31
0.0
  0
LINE
  5
28481
  8
1
 10
486.27427697997382
 20
202.24368873141981
 30
0.0
 11
578.74505230930697
 21
202.24368873141981
 31
0.0
  0
LINE
  5
28482
  8
1
 10
532.50966464464045
 20
128.6058963139148
 30
0.0
 11
532.50966464464045
 21
306.88148114892471
 31
0.0
  0
LINE
  5
2848A
  8
1
 10
151.53035498812051
 20
202.24368873141981
 30
0.0
 11
59.059579658787243
 21
202.24368873141981
 31
0.0
  0
LINE
  5
2848B
  8
1
 10
105.2949673234538
 20
128.6058963139148
 30
0.0
 11
105.2949673234538
 21
306.88148114892471
 31
0.0
  0
LINE
  5
284CC
  8
0
 10
238.4189764824427
 20
450.79403816777449
 30
0.0
 11
238.4189764824427
 21
418.7509968011409
 31
0.0
  0
LINE
  5
284CD
  8
0
 10
242.96313674647041
 20
453.772517484459
 30
0.0
 11
242.96313674647041
 21
415.772517484459
 31
0.0
  0
LINE
  5
284CE
  8
0
 10
255.41897648244279
 20
450.77251748445912
 30
0.0
 11
255.41897648244321
 21
418.772517484459
 31
0.0
  0
LINE
  5
284CF
  8
0
 10
258.41897648244282
 20
453.772517484459
 30
0.0
 11
240.0130861810589
 21
453.772517484459
 31
0.0
  0
LINE
  5
284D0
  8
0
 10
255.41897648244279
 20
450.77251748445912
 30
0.0
 11
258.41897648244282
 21
450.77251748445912
 31
0.0
  0
LINE
  5
284D1
  8
0
 10
258.41897648244282
 20
415.772517484459
 30
0.0
 11
240.0130861810585
 21
415.772517484459
 31
0.0
  0
LINE
  5
284D2
  8
0
 10
255.41897648244409
 20
418.772517484459
 30
0.0
 11
258.41897648244361
 21
418.772517484459
 31
0.0
  0
ARC
  5
284D3
  8
0
 10
242.7554158760845
 20
450.38896645801373
 30
0.0
 40
4.3553174057440378
 50
129.0243741561732
 51
174.66342214693049
  0
ARC
  5
284D4
  8
0
 10
242.7554158760845
 20
419.15606851090428
 30
0.0
 40
4.3553174057440378
 50
185.33657785306951
 51
230.9756258438268
  0
LINE
  5
284D9
  8
0
 10
238.4189764824427
 20
269.86604156742851
 30
0.0
 11
241.6329145308755
 21
266.03581935183411
 31
0.0
  0
LINE
  5
284DA
  8
0
 10
240.3340875902399
 20
271.47301059164511
 30
0.0
 11
238.4189764824427
 21
269.86604156742851
 31
0.0
  0
LINE
  5
284DB
  8
0
 10
242.96313674647041
 20
268.33983181460098
 30
0.0
 11
240.3340875902399
 21
271.47301059164511
 31
0.0
  0
LINE
  5
284DC
  8
0
 10
259.12854318207383
 20
266.09554975703668
 30
0.0
 11
242.96313674647041
 21
268.33983181460098
 31
0.0
  0
LINE
  5
284DD
  8
0
 10
258.44511079549881
 20
268.6461541472745
 30
0.0
 11
258.13956915287281
 21
268.8255228994085
 31
0.0
  0
LINE
  5
284DE
  8
0
 10
241.6329145308755
 20
266.03581935183411
 30
0.0
 11
259.84248123050651
 21
263.43109668682979
 31
0.0
  0
LINE
  5
284DF
  8
0
 10
255.87335676289379
 20
272.6021496726616
 30
0.0
 11
258.41739045640952
 21
272.25182632722039
 31
0.0
  0
LINE
  5
284E0
  8
0
 10
255.42243847079411
 20
269.49170897854952
 30
0.0
 11
255.87335676289379
 21
272.6021496726616
 31
0.0
  0
LINE
  5
284E1
  8
0
 10
258.07381807057351
 20
269.20457816917587
 30
0.0
 11
258.41739045640952
 21
272.25182632722039
 31
0.0
  0
LINE
  5
284E2
  8
0
 10
255.42243847079411
 20
269.49170897854952
 30
0.0
 11
256.16038546334721
 21
266.5076261956155
 31
0.0
  0
LINE
  5
284E3
  8
0
 10
258.07381807057351
 20
269.20457816917587
 30
0.0
 11
258.13956915287281
 21
268.8255228994085
 31
0.0
  0
LINE
  5
2D8FF
  8
0
 10
550.43497500934325
 20
266.32887416569702
 30
0.0
 11
514.58262888787294
 21
266.32887416569702
 31
0.0
  0
LINE
  5
2DA7E
  8
0
 10
84.794967323453875
 20
266.32887416569702
 30
0.0
 11
86.294967323453875
 21
266.32887416569702
 31
0.0
  0
LINE
  5
2DA81
  8
0
 10
86.294967323453875
 20
268.74368873141879
 30
0.0
 11
80.294967323453875
 21
268.74368873141981
 31
0.0
  0
LINE
  5
2DA82
  8
0
 10
130.2949673234543
 20
268.74368873141981
 30
0.0
 11
124.2949673234536
 21
268.7436887314206
 31
0.0
  0
LINE
  5
2DA85
  8
0
 10
124.2949673234536
 20
266.32887416569702
 30
0.0
 11
125.7949673234538
 21
266.32887416569702
 31
0.0
  0
LINE
  5
2DBED
  8
0
 10
124.2949673234539
 20
263.43109668683331
 30
0.0
 11
86.294967323453875
 21
263.43109668683331
 31
0.0
  0
LINE
  5
2DBEE
  8
0
 10
124.2949673234539
 20
263.43109668683331
 30
0.0
 11
124.2949673234539
 21
271.47301059164869
 31
0.0
  0
LINE
  5
2DBEF
  8
0
 10
124.2949673234539
 20
271.47301059164869
 30
0.0
 11
86.294967323453875
 21
271.47301059164869
 31
0.0
  0
LINE
  5
2DBF0
  8
0
 10
86.294967323453875
 20
263.43109668683331
 30
0.0
 11
86.294967323453875
 21
271.47301059164869
 31
0.0
  0
LINE
  5
2DBF1
  8
0
 10
86.294967323453875
 20
266.03581935183769
 30
0.0
 11
124.2949673234539
 21
266.03581935183769
 31
0.0
  0
LINE
  5
2DBF2
  8
0
 10
551.50966464464045
 20
263.43109668683331
 30
0.0
 11
548.68366618992923
 21
263.43109668683331
 31
0.0
  0
LINE
  5
2DBF3
  8
0
 10
551.50966464464045
 20
263.43109668683331
 30
0.0
 11
551.50966464464045
 21
265.15514253269163
 31
0.0
  0
LINE
  5
2DBF4
  8
0
 10
513.50966464464045
 20
263.43109668683331
 30
0.0
 11
513.50966464464045
 21
265.15514253269163
 31
0.0
  0
LINE
  5
2DBF5
  8
0
 10
516.33566309935168
 20
263.43109668683331
 30
0.0
 11
513.50966464464045
 21
263.43109668683331
 31
0.0
  0
LINE
  5
2FB13
  8
0
 10
567.30966464464018
 20
292.44368873141963
 30
0.0
 11
567.30966464464018
 21
293.24368873141981
 31
0.0
  0
LINE
  5
2FB14
  8
0
 10
497.70966464464072
 20
293.24368873141981
 30
0.0
 11
497.70966464464072
 21
292.44368873141963
 31
0.0
  0
LINE
  5
2FB15
  8
0
 10
567.01088530861853
 20
283.94368873141963
 30
0.0
 11
568.50966464464045
 21
292.44368873141963
 31
0.0
  0
LINE
  5
2FB16
  8
0
 10
496.5096646446404
 20
292.44368873141963
 30
0.0
 11
498.00844398066232
 21
283.94368873141963
 31
0.0
  0
LINE
  5
2FB17
  8
0
 10
565.50966464464045
 20
231.01286519014141
 30
0.0
 11
565.50966464464045
 21
283.94368873141963
 31
0.0
  0
LINE
  5
2FB18
  8
0
 10
499.50966464464051
 20
283.94368873141963
 30
0.0
 11
499.50966464464051
 21
231.01286519014141
 31
0.0
  0
LINE
  5
2FB19
  8
0
 10
575.00966464464045
 20
295.74368873141981
 30
0.0
 11
575.00966464464045
 21
293.24368873141981
 31
0.0
  0
LINE
  5
2FB1A
  8
0
 10
490.0096646446404
 20
295.74368873141981
 30
0.0
 11
575.00966464464045
 21
295.74368873141981
 31
0.0
  0
LINE
  5
2FB1B
  8
0
 10
490.0096646446404
 20
293.24368873141981
 30
0.0
 11
575.00966464464045
 21
293.24368873141981
 31
0.0
  0
LINE
  5
2FB1C
  8
0
 10
490.0096646446404
 20
295.74368873141981
 30
0.0
 11
490.0096646446404
 21
293.24368873141981
 31
0.0
  0
LINE
  5
2FB1D
  8
0
 10
496.5096646446404
 20
292.44368873141963
 30
0.0
 11
568.50966464464045
 21
292.44368873141963
 31
0.0
  0
LINE
  5
2FB1E
  8
0
 10
498.00844398066232
 20
283.94368873141963
 30
0.0
 11
567.01088530861853
 21
283.94368873141963
 31
0.0
  0
LINE
  5
2FB1F
  8
0
 10
507.5096646446404
 20
192.2436887314197
 30
0.0
 11
507.5096646446404
 21
200.1830750390545
 31
0.0
  0
LINE
  5
2FB20
  8
0
 10
507.5096646446404
 20
192.2436887314197
 30
0.0
 11
512.00966464464045
 21
192.2436887314197
 31
0.0
  0
POLYLINE
  5
2FB21
  8
0
 66
     1
 10
0.0
 20
0.0
 30
0.0
  0
VERTEX
  5
2FE81
  8
0
 10
507.5096646446404
 20
200.1830750390545
 30
0.0
  0
VERTEX
  5
2FE82
  8
0
 10
507.08901998104329
 20
200.89592233069831
 30
0.0
  0
VERTEX
  5
2FE83
  8
0
 10
506.27765407158762
 20
202.35659578554441
 30
0.0
  0
VERTEX
  5
2FE84
  8
0
 10
505.5072349532411
 20
203.86200017224289
 30
0.0
  0
VERTEX
  5
2FE85
  8
0
 10
505.1377587969036
 20
204.63074476253041
 30
0.0
  0
VERTEX
  5
2FE86
  8
0
 10
504.77896520979539
 20
205.40978563359201
 30
0.0
  0
VERTEX
  5
2FE87
  8
0
 10
504.09398163207868
 20
206.99753615775811
 30
0.0
  0
VERTEX
  5
2FE88
  8
0
 10
503.4533534434895
 20
208.62277334954251
 30
0.0
  0
VERTEX
  5
2FE89
  8
0
 10
502.85808063099142
 20
210.28296029902771
 30
0.0
  0
VERTEX
  5
2FE8A
  8
0
 10
502.3090923841882
 20
211.97550554155811
 30
0.0
  0
VERTEX
  5
2FE8B
  8
0
 10
501.8072456449072
 20
213.69776710288349
 30
0.0
  0
VERTEX
  5
2FE8C
  8
0
 10
501.57424804812439
 20
214.56920308829649
 30
0.0
  0
VERTEX
  5
2FE8D
  8
0
 10
501.35332376955648
 20
215.44705662313939
 30
0.0
  0
VERTEX
  5
2FE8E
  8
0
 10
500.94803530634948
 20
217.22064355323619
 30
0.0
  0
VERTEX
  5
2FE8F
  8
0
 10
500.5920128892962
 20
219.0157594171032
 30
0.0
  0
VERTEX
  5
2FE90
  8
0
 10
500.28581225069593
 20
220.82960213313621
 30
0.0
  0
VERTEX
  5
2FE91
  8
0
 10
500.02991135366659
 20
222.65934038809701
 30
0.0
  0
VERTEX
  5
2FE92
  8
0
 10
499.82470964607268
 20
224.5021180566446
 30
0.0
  0
VERTEX
  5
2FE93
  8
0
 10
499.7412241907823
 20
225.42749844375521
 30
0.0
  0
VERTEX
  5
2FE94
  8
0
 10
499.67052743700378
 20
226.3550586596011
 30
0.0
  0
VERTEX
  5
2FE95
  8
0
 10
499.56760539679362
 20
228.2152698539785
 30
0.0
  0
VERTEX
  5
2FE96
  8
0
 10
499.51610418134169
 20
230.07984794777889
 30
0.0
  0
VERTEX
  5
2FE97
  8
0
 10
499.50966464464051
 20
231.01286519014141
 30
0.0
  0
SEQEND
  5
2FE98
  8
0
  0
POLYLINE
  5
2FB22
  8
0
 66
     1
 10
0.0
 20
0.0
 30
0.0
  0
VERTEX
  5
2FE99
  8
0
 10
499.50966464464051
 20
231.01286519014141
 30
0.0
  0
VERTEX
  5
2FE9A
  8
0
 10
499.51315499104561
 20
231.69978545372581
 30
0.0
  0
VERTEX
  5
2FE9B
  8
0
 10
499.54107333243923
 20
233.07304477777231
 30
0.0
  0
VERTEX
  5
2FE9C
  8
0
 10
499.59688639352129
 20
234.44456098420869
 30
0.0
  0
VERTEX
  5
2FE9D
  8
0
 10
499.63523960761262
 20
235.12930269646591
 30
0.0
  0
VERTEX
  5
2FE9E
  8
0
 10
499.68054695087119
 20
235.81317363339801
 30
0.0
  0
VERTEX
  5
2FE9F
  8
0
 10
499.7919842193046
 20
237.17772474240249
 30
0.0
  0
VERTEX
  5
2FEA0
  8
0
 10
499.93110391176691
 20
238.53705976475251
 30
0.0
  0
VERTEX
  5
2FEA1
  8
0
 10
500.09778831910978
 20
239.89002856731079
 30
0.0
  0
VERTEX
  5
2FEA2
  8
0
 10
500.29189640968252
 20
241.23548640339499
 30
0.0
  0
VERTEX
  5
2FEA3
  8
0
 10
500.51326394866282
 20
242.5722948813509
 30
0.0
  0
VERTEX
  5
2FEA4
  8
0
 10
500.63411237710119
 20
243.2371018385011
 30
0.0
  0
VERTEX
  5
2FEA5
  8
0
 10
500.76170363701112
 20
243.89932292774569
 30
0.0
  0
VERTEX
  5
2FEA6
  8
0
 10
501.03700526994902
 20
245.2154477443674
 30
0.0
  0
VERTEX
  5
2FEA7
  8
0
 10
501.3389359148095
 20
246.5195557582247
 30
0.0
  0
VERTEX
  5
2FEA8
  8
0
 10
501.66724010812362
 20
247.8105435637417
 30
0.0
  0
VERTEX
  5
2FEA9
  8
0
 10
502.0216400717681
 20
249.0873188563483
 30
0.0
  0
VERTEX
  5
2FEAA
  8
0
 10
502.40183594799089
 20
250.34880135667939
 30
0.0
  0
VERTEX
  5
2FEAB
  8
0
 10
502.60150767243113
 20
250.97347373573851
 30
0.0
  0
VERTEX
  5
2FEAC
  8
0
 10
502.8075060531246
 20
251.5939237245984
 30
0.0
  0
VERTEX
  5
2FEAD
  8
0
 10
503.23830714975929
 20
252.8216324622754
 30
0.0
  0
VERTEX
  5
2FEAE
  8
0
 10
503.69387473715778
 20
254.03088880554881
 30
0.0
  0
VERTEX
  5
2FEAF
  8
0
 10
503.93082631975398
 20
254.6282769607806
 30
0.0
  0
VERTEX
  5
2FEB0
  8
0
 10
504.17382335966022
 20
255.22066960282521
 30
0.0
  0
VERTEX
  5
2FEB1
  8
0
 10
504.6777469328153
 20
256.38996818076788
 30
0.0
  0
VERTEX
  5
2FEB2
  8
0
 10
505.20521908697083
 20
257.53779519604268
 30
0.0
  0
VERTEX
  5
2FEB3
  8
0
 10
505.47764718310373
 20
258.10335264287278
 30
0.0
  0
VERTEX
  5
2FEB4
  8
0
 10
505.75579352802328
 20
258.66317947239992
 30
0.0
  0
VERTEX
  5
2FEB5
  8
0
 10
506.32900441502977
 20
259.76516882238872
 30
0.0
  0
VERTEX
  5
2FEB6
  8
0
 10
506.92436675435192
 20
260.84283085300098
 30
0.0
  0
VERTEX
  5
2FEB7
  8
0
 10
507.54137681001328
 20
261.89525375457009
 30
0.0
  0
VERTEX
  5
2FEB8
  8
0
 10
508.17951252990628
 20
262.921547072252
 30
0.0
  0
VERTEX
  5
2FEB9
  8
0
 10
508.83823398750383
 20
263.92084245943988
 30
0.0
  0
VERTEX
  5
2FEBA
  8
0
 10
509.17514086548448
 20
264.4101007972049
 30
0.0
  0
VERTEX
  5
2FEBB
  8
0
 10
509.5169838386887
 20
264.89229441246971
 30
0.0
  0
VERTEX
  5
2FEBC
  8
0
 10
510.21518779332382
 20
265.8350809860039
 30
0.0
  0
VERTEX
  5
2FEBD
  8
0
 10
510.9322551011573
 20
266.74840448847863
 30
0.0
  0
VERTEX
  5
2FEBE
  8
0
 10
511.66757905165832
 20
267.63149215702828
 30
0.0
  0
VERTEX
  5
2FEBF
  8
0
 10
512.42053748735259
 20
268.4835968113203
 30
0.0
  0
VERTEX
  5
2FEC0
  8
0
 10
513.19049333023247
 20
269.30399748574843
 30
0.0
  0
VERTEX
  5
2FEC1
  8
0
 10
513.58164224505606
 20
269.70209084743237
 30
0.0
  0
VERTEX
  5
2FEC2
  8
0
 10
513.97679512078503
 20
270.09200003943721
 30
0.0
  0
VERTEX
  5
2FEC3
  8
0
 10
514.77877756919543
 20
270.8469377435531
 30
0.0
  0
VERTEX
  5
2FEC4
  8
0
 10
515.59576211824515
 20
271.56817184543161
 30
0.0
  0
VERTEX
  5
2FEC5
  8
0
 10
516.42705751744143
 20
272.255092109016
 30
0.0
  0
VERTEX
  5
2FEC6
  8
0
 10
517.27196040788419
 20
272.90711733118411
 30
0.0
  0
VERTEX
  5
2FEC7
  8
0
 10
518.12975591737666
 20
273.52369583350361
 30
0.0
  0
VERTEX
  5
2FEC8
  8
0
 10
518.56326200719741
 20
273.81852835375588
 30
0.0
  0
VERTEX
  5
2FEC9
  8
0
 10
518.99971826527951
 20
274.10430592900502
 30
0.0
  0
VERTEX
  5
2FECA
  8
0
 10
519.88111137659234
 20
274.64845636358041
 30
0.0
  0
VERTEX
  5
2FECB
  8
0
 10
520.77318950474955
 20
275.15568673163853
 30
0.0
  0
VERTEX
  5
2FECC
  8
0
 10
521.67519786259288
 20
275.6255678656471
 30
0.0
  0
VERTEX
  5
2FECD
  8
0
 10
522.58637326099961
 20
276.05770219925671
 30
0.0
  0
VERTEX
  5
2FECE
  8
0
 10
523.50594475461412
 20
276.45172410367832
 30
0.0
  0
VERTEX
  5
2FECF
  8
0
 10
523.96863615625705
 20
276.63433744556369
 30
0.0
  0
VERTEX
  5
2FED0
  8
0
 10
524.43313429414775
 20
276.80730019704328
 30
0.0
  0
VERTEX
  5
2FED1
  8
0
 10
525.3671573846832
 20
277.12412962647801
 30
0.0
  0
VERTEX
  5
2FED2
  8
0
 10
526.30722374943662
 20
277.40194432265349
 30
0.0
  0
VERTEX
  5
2FED3
  8
0
 10
527.25253799841221
 20
277.6405092266005
 30
0.0
  0
VERTEX
  5
2FED4
  8
0
 10
528.20230030137873
 20
277.83962248859461
 30
0.0
  0
VERTEX
  5
2FED5
  8
0
 10
529.15570706460812
 20
277.99911563893693
 30
0.0
  0
VERTEX
  5
2FED6
  8
0
 10
529.63352513396785
 20
278.06396118846988
 30
0.0
  0
VERTEX
  5
2FED7
  8
0
 10
530.11195161079422
 20
278.11885373049972
 30
0.0
  0
VERTEX
  5
2FED8
  8
0
 10
531.07022486158439
 20
278.19873545290187
 30
0.0
  0
VERTEX
  5
2FED9
  8
0
 10
532.02971602213802
 20
278.23869321823258
 30
0.0
  0
VERTEX
  5
2FEDA
  8
0
 10
532.50966464464045
 20
278.2436887314197
 30
0.0
  0
VERTEX
  5
2FEDB
  8
0
 10
532.98961326714289
 20
278.23869321823258
 30
0.0
  0
VERTEX
  5
2FEDC
  8
0
 10
533.9491044276964
 20
278.19873545290187
 30
0.0
  0
VERTEX
  5
2FEDD
  8
0
 10
534.90737767848668
 20
278.11885373049972
 30
0.0
  0
VERTEX
  5
2FEDE
  8
0
 10
535.38580415531305
 20
278.06396118846988
 30
0.0
  0
VERTEX
  5
2FEDF
  8
0
 10
535.86362222467278
 20
277.99911563893693
 30
0.0
  0
VERTEX
  5
2FEE0
  8
0
 10
536.81702898790218
 20
277.83962248859461
 30
0.0
  0
VERTEX
  5
2FEE1
  8
0
 10
537.7667912908687
 20
277.6405092266005
 30
0.0
  0
VERTEX
  5
2FEE2
  8
0
 10
538.71210553984417
 20
277.40194432265349
 30
0.0
  0
VERTEX
  5
2FEE3
  8
0
 10
539.65217190459771
 20
277.12412962647801
 30
0.0
  0
VERTEX
  5
2FEE4
  8
0
 10
540.58619499513316
 20
276.80730019704328
 30
0.0
  0
VERTEX
  5
2FEE5
  8
0
 10
541.05069313302374
 20
276.63433744556369
 30
0.0
  0
VERTEX
  5
2FEE6
  8
0
 10
541.51338453466678
 20
276.45172410367832
 30
0.0
  0
VERTEX
  5
2FEE7
  8
0
 10
542.4329560282813
 20
276.05770219925671
 30
0.0
  0
VERTEX
  5
2FEE8
  8
0
 10
543.34413142668791
 20
275.6255678656471
 30
0.0
  0
VERTEX
  5
2FEE9
  8
0
 10
544.24613978453135
 20
275.15568673163853
 30
0.0
  0
VERTEX
  5
2FEEA
  8
0
 10
545.13821791268845
 20
274.64845636358041
 30
0.0
  0
VERTEX
  5
2FEEB
  8
0
 10
546.01961102400116
 20
274.10430592900502
 30
0.0
  0
VERTEX
  5
2FEEC
  8
0
 10
546.4560672820835
 20
273.81852835375588
 30
0.0
  0
VERTEX
  5
2FEED
  8
0
 10
546.88957337190413
 20
273.52369583350361
 30
0.0
  0
VERTEX
  5
2FEEE
  8
0
 10
547.74736888139648
 20
272.90711733118411
 30
0.0
  0
VERTEX
  5
2FEEF
  8
0
 10
548.59227177183936
 20
272.255092109016
 30
0.0
  0
VERTEX
  5
2FEF0
  8
0
 10
549.42356717103576
 20
271.56817184543161
 30
0.0
  0
VERTEX
  5
2FEF1
  8
0
 10
550.24055172008548
 20
270.8469377435531
 30
0.0
  0
VERTEX
  5
2FEF2
  8
0
 10
551.04253416849588
 20
270.09200003943721
 30
0.0
  0
VERTEX
  5
2FEF3
  8
0
 10
551.43768704422473
 20
269.70209084743237
 30
0.0
  0
VERTEX
  5
2FEF4
  8
0
 10
551.82883595904877
 20
269.30399748574843
 30
0.0
  0
VERTEX
  5
2FEF5
  8
0
 10
552.59879180192809
 20
268.4835968113203
 30
0.0
  0
VERTEX
  5
2FEF6
  8
0
 10
553.35175023762247
 20
267.63149215702828
 30
0.0
  0
VERTEX
  5
2FEF7
  8
0
 10
554.08707418812355
 20
266.74840448847863
 30
0.0
  0
VERTEX
  5
2FEF8
  8
0
 10
554.80414149595708
 20
265.8350809860039
 30
0.0
  0
VERTEX
  5
2FEF9
  8
0
 10
555.5023454505922
 20
264.89229441246971
 30
0.0
  0
VERTEX
  5
2FEFA
  8
0
 10
555.84418842379625
 20
264.4101007972049
 30
0.0
  0
VERTEX
  5
2FEFB
  8
0
 10
556.18109530177696
 20
263.92084245943988
 30
0.0
  0
VERTEX
  5
2FEFC
  8
0
 10
556.83981675937457
 20
262.921547072252
 30
0.0
  0
VERTEX
  5
2FEFD
  8
0
 10
557.47795247926751
 20
261.89525375457009
 30
0.0
  0
VERTEX
  5
2FEFE
  8
0
 10
558.09496253492853
 20
260.84283085300098
 30
0.0
  0
VERTEX
  5
2FEFF
  8
0
 10
558.69032487425102
 20
259.76516882238872
 30
0.0
  0
VERTEX
  5
2FF00
  8
0
 10
559.26353576125746
 20
258.66317947239992
 30
0.0
  0
VERTEX
  5
2FF01
  8
0
 10
559.54168210617706
 20
258.10335264287278
 30
0.0
  0
VERTEX
  5
2FF02
  8
0
 10
559.81411020231008
 20
257.53779519604268
 30
0.0
  0
VERTEX
  5
2FF03
  8
0
 10
560.34158235646555
 20
256.3899681807689
 30
0.0
  0
VERTEX
  5
2FF04
  8
0
 10
560.84550592962069
 20
255.22066960282521
 30
0.0
  0
VERTEX
  5
2FF05
  8
0
 10
561.08850296952687
 20
254.6282769607806
 30
0.0
  0
VERTEX
  5
2FF06
  8
0
 10
561.32545455212312
 20
254.03088880554881
 30
0.0
  0
VERTEX
  5
2FF07
  8
0
 10
561.78102213952161
 20
252.8216324622754
 30
0.0
  0
VERTEX
  5
2FF08
  8
0
 10
562.21182323615631
 20
251.5939237245984
 30
0.0
  0
VERTEX
  5
2FF09
  8
0
 10
562.41782161684966
 20
250.97347373573851
 30
0.0
  0
VERTEX
  5
2FF0A
  8
0
 10
562.61749334128979
 20
250.34880135667939
 30
0.0
  0
VERTEX
  5
2FF0B
  8
0
 10
562.99768921751274
 20
249.0873188563483
 30
0.0
  0
VERTEX
  5
2FF0C
  8
0
 10
563.35208918115723
 20
247.8105435637417
 30
0.0
  0
VERTEX
  5
2FF0D
  8
0
 10
563.68039337447135
 20
246.5195557582247
 30
0.0
  0
VERTEX
  5
2FF0E
  8
0
 10
563.98232401933183
 20
245.2154477443674
 30
0.0
  0
VERTEX
  5
2FF0F
  8
0
 10
564.25762565226978
 20
243.89932292774569
 30
0.0
  0
VERTEX
  5
2FF10
  8
0
 10
564.38521691217954
 20
243.2371018385011
 30
0.0
  0
VERTEX
  5
2FF11
  8
0
 10
564.50606534061797
 20
242.5722948813509
 30
0.0
  0
VERTEX
  5
2FF12
  8
0
 10
564.72743287959827
 20
241.23548640339499
 30
0.0
  0
VERTEX
  5
2FF13
  8
0
 10
564.92154097017089
 20
239.89002856731079
 30
0.0
  0
VERTEX
  5
2FF14
  8
0
 10
565.08822537751394
 20
238.53705976475251
 30
0.0
  0
VERTEX
  5
2FF15
  8
0
 10
565.2273450699762
 20
237.17772474240249
 30
0.0
  0
VERTEX
  5
2FF16
  8
0
 10
565.3387823384096
 20
235.81317363339801
 30
0.0
  0
VERTEX
  5
2FF17
  8
0
 10
565.38408968166823
 20
235.12930269646591
 30
0.0
  0
VERTEX
  5
2FF18
  8
0
 10
565.42244289575945
 20
234.44456098420869
 30
0.0
  0
VERTEX
  5
2FF19
  8
0
 10
565.47825595684162
 20
233.07304477777231
 30
0.0
  0
VERTEX
  5
2FF1A
  8
0
 10
565.50617429823524
 20
231.69978545372581
 30
0.0
  0
VERTEX
  5
2FF1B
  8
0
 10
565.50966464464045
 20
231.01286519014141
 30
0.0
  0
SEQEND
  5
2FF1C
  8
0
  0
POLYLINE
  5
2FB23
  8
0
 66
     1
 10
0.0
 20
0.0
 30
0.0
  0
VERTEX
  5
2FF1D
  8
0
 10
565.50966464464045
 20
231.01286519014141
 30
0.0
  0
VERTEX
  5
2FF1E
  8
0
 10
565.50322510793922
 20
230.07984794777889
 30
0.0
  0
VERTEX
  5
2FF1F
  8
0
 10
565.45172389248728
 20
228.2152698539785
 30
0.0
  0
VERTEX
  5
2FF20
  8
0
 10
565.34880185227712
 20
226.3550586596011
 30
0.0
  0
VERTEX
  5
2FF21
  8
0
 10
565.2781050984986
 20
225.42749844375521
 30
0.0
  0
VERTEX
  5
2FF22
  8
0
 10
565.19461964320806
 20
224.5021180566446
 30
0.0
  0
VERTEX
  5
2FF23
  8
0
 10
564.98941793561426
 20
222.65934038809701
 30
0.0
  0
VERTEX
  5
2FF24
  8
0
 10
564.73351703858498
 20
220.82960213313621
 30
0.0
  0
VERTEX
  5
2FF25
  8
0
 10
564.42731639998419
 20
219.0157594171032
 30
0.0
  0
VERTEX
  5
2FF26
  8
0
 10
564.07129398293125
 20
217.22064355323619
 30
0.0
  0
VERTEX
  5
2FF27
  8
0
 10
563.66600551972442
 20
215.44705662313939
 30
0.0
  0
VERTEX
  5
2FF28
  8
0
 10
563.44508124115634
 20
214.56920308829649
 30
0.0
  0
VERTEX
  5
2FF29
  8
0
 10
563.21208364437359
 20
213.69776710288349
 30
0.0
  0
VERTEX
  5
2FF2A
  8
0
 10
562.71023690509264
 20
211.97550554155811
 30
0.0
  0
VERTEX
  5
2FF2B
  8
0
 10
562.16124865828942
 20
210.28296029902771
 30
0.0
  0
VERTEX
  5
2FF2C
  8
0
 10
561.5659758457914
 20
208.62277334954251
 30
0.0
  0
VERTEX
  5
2FF2D
  8
0
 10
560.925347657202
 20
206.99753615775811
 30
0.0
  0
VERTEX
  5
2FF2E
  8
0
 10
560.24036407948552
 20
205.40978563359201
 30
0.0
  0
VERTEX
  5
2FF2F
  8
0
 10
559.88157049237725
 20
204.63074476253041
 30
0.0
  0
VERTEX
  5
2FF30
  8
0
 10
559.51209433603981
 20
203.86200017224289
 30
0.0
  0
VERTEX
  5
2FF31
  8
0
 10
558.74167521769323
 20
202.35659578554441
 30
0.0
  0
VERTEX
  5
2FF32
  8
0
 10
557.9303093082375
 20
200.89592233069831
 30
0.0
  0
VERTEX
  5
2FF33
  8
0
 10
557.50966464464045
 20
200.1830750390545
 30
0.0
  0
SEQEND
  5
2FF34
  8
0
  0
LINE
  5
2FB24
  8
0
 10
557.50966464464045
 20
200.1830750390545
 30
0.0
 11
557.50966464464045
 21
192.2436887314197
 31
0.0
  0
LINE
  5
2FB25
  8
0
 10
553.00966464464045
 20
192.2436887314197
 30
0.0
 11
557.50966464464045
 21
192.2436887314197
 31
0.0
  0
POLYLINE
  5
2FB26
  8
0
 66
     1
 10
0.0
 20
0.0
 30
0.0
  0
VERTEX
  5
2FF35
  8
0
 10
512.00966464464045
 20
198.69098125668549
 30
0.0
  0
VERTEX
  5
2FF36
  8
0
 10
511.49221150126408
 20
199.37907211788931
 30
0.0
  0
VERTEX
  5
2FF37
  8
0
 10
510.49139173666481
 20
200.80577144202019
 30
0.0
  0
VERTEX
  5
2FF38
  8
0
 10
509.53779934448397
 20
202.29726248129009
 30
0.0
  0
VERTEX
  5
2FF39
  8
0
 10
509.07935667175201
 20
203.06631041057699
 30
0.0
  0
VERTEX
  5
2FF3A
  8
0
 10
508.63347970145202
 20
203.85034611090671
 30
0.0
  0
VERTEX
  5
2FF3B
  8
0
 10
507.78037249833039
 20
205.461691095069
 30
0.0
  0
VERTEX
  5
2FF3C
  8
0
 10
506.98030757943968
 20
207.12784123219529
 30
0.0
  0
VERTEX
  5
2FF3D
  8
0
 10
506.23500101778922
 20
208.84522276818731
 30
0.0
  0
VERTEX
  5
2FF3E
  8
0
 10
505.546051434248
 20
210.61015206183851
 30
0.0
  0
VERTEX
  5
2FF3F
  8
0
 10
504.91493656863253
 20
212.41884348593791
 30
0.0
  0
VERTEX
  5
2FF40
  8
0
 10
504.62149510987172
 20
213.33839109564451
 30
0.0
  0
VERTEX
  5
2FF41
  8
0
 10
504.34301011007659
 20
214.26741754713021
 30
0.0
  0
VERTEX
  5
2FF42
  8
0
 10
503.83149879348179
 20
216.15190920710299
 30
0.0
  0
VERTEX
  5
2FF43
  8
0
 10
503.38149976827378
 20
218.06827638726921
 30
0.0
  0
VERTEX
  5
2FF44
  8
0
 10
502.99397824510328
 20
220.01240863868949
 30
0.0
  0
VERTEX
  5
2FF45
  8
0
 10
502.66976542555398
 20
221.9801359586472
 30
0.0
  0
VERTEX
  5
2FF46
  8
0
 10
502.40955671928123
 20
223.96723773495609
 30
0.0
  0
VERTEX
  5
2FF47
  8
0
 10
502.30363372043621
 20
224.96672349034631
 30
0.0
  0
VERTEX
  5
2FF48
  8
0
 10
502.21391025241599
 20
225.96945179882371
 30
0.0
  0
VERTEX
  5
2FF49
  8
0
 10
502.0832456704311
 20
227.98248356685411
 30
0.0
  0
VERTEX
  5
2FF4A
  8
0
 10
502.01784323803753
 20
230.0020152525712
 30
0.0
  0
VERTEX
  5
2FF4B
  8
0
 10
502.0096646446404
 20
231.01286519014141
 30
0.0
  0
SEQEND
  5
2FF4C
  8
0
  0
POLYLINE
  5
2FB27
  8
0
 66
     1
 10
0.0
 20
0.0
 30
0.0
  0
VERTEX
  5
2FF4D
  8
0
 10
502.0096646446404
 20
231.01286519014141
 30
0.0
  0
VERTEX
  5
2FF4E
  8
0
 10
502.01289057086342
 20
231.6477460398182
 30
0.0
  0
VERTEX
  5
2FF4F
  8
0
 10
502.0386938863939
 20
232.91697056658811
 30
0.0
  0
VERTEX
  5
2FF50
  8
0
 10
502.09027868527301
 20
234.184584030113
 30
0.0
  0
VERTEX
  5
2FF51
  8
0
 10
502.12572635284232
 20
234.81745137022881
 30
0.0
  0
VERTEX
  5
2FF52
  8
0
 10
502.16760132161153
 20
235.44951390284771
 30
0.0
  0
VERTEX
  5
2FF53
  8
0
 10
502.27059637273942
 20
236.71068992783691
 30
0.0
  0
VERTEX
  5
2FF54
  8
0
 10
502.39917669456048
 20
237.967045024252
 30
0.0
  0
VERTEX
  5
2FF55
  8
0
 10
502.55323349528629
 20
239.21751619025241
 30
0.0
  0
VERTEX
  5
2FF56
  8
0
 10
502.73263642748219
 20
240.46104540239051
 30
0.0
  0
VERTEX
  5
2FF57
  8
0
 10
502.93723369835789
 20
241.69658051080481
 30
0.0
  0
VERTEX
  5
2FF58
  8
0
 10
503.04892694282393
 20
242.3110233045345
 30
0.0
  0
VERTEX
  5
2FF59
  8
0
 10
503.16685219819499
 20
242.92307612944199
 30
0.0
  0
VERTEX
  5
2FF5A
  8
0
 10
503.42129764681971
 20
244.13949452056201
 30
0.0
  0
VERTEX
  5
2FF5B
  8
0
 10
503.7003547579784
 20
245.34480647276359
 30
0.0
  0
VERTEX
  5
2FF5C
  8
0
 10
504.00378742149633
 20
246.53799217180219
 30
0.0
  0
VERTEX
  5
2FF5D
  8
0
 10
504.33133890304629
 20
247.71804206345311
 30
0.0
  0
VERTEX
  5
2FF5E
  8
0
 10
504.68273206137337
 20
248.8839577076987
 30
0.0
  0
VERTEX
  5
2FF5F
  8
0
 10
504.8672771400224
 20
249.4613064216783
 30
0.0
  0
VERTEX
  5
2FF60
  8
0
 10
505.05766958278491
 20
250.03475262350361
 30
0.0
  0
VERTEX
  5
2FF61
  8
0
 10
505.45583423270449
 20
251.1694531234771
 30
0.0
  0
VERTEX
  5
2FF62
  8
0
 10
505.87688912408839
 20
252.2870991377149
 30
0.0
  0
VERTEX
  5
2FF63
  8
0
 10
506.09588982921508
 20
252.8392306145206
 30
0.0
  0
VERTEX
  5
2FF64
  8
0
 10
506.32047800246158
 20
253.38674502610681
 30
0.0
  0
VERTEX
  5
2FF65
  8
0
 10
506.78622554734739
 20
254.46746037844781
 30
0.0
  0
VERTEX
  5
2FF66
  8
0
 10
507.27373768982437
 20
255.52833080165601
 30
0.0
  0
VERTEX
  5
2FF67
  8
0
 10
507.52552729382609
 20
256.05104298736302
 30
0.0
  0
VERTEX
  5
2FF68
  8
0
 10
507.7826019459489
 20
256.5684586934413
 30
0.0
  0
VERTEX
  5
2FF69
  8
0
 10
508.31238776575759
 20
257.5869640017645
 30
0.0
  0
VERTEX
  5
2FF6A
  8
0
 10
508.86264689755581
 20
258.58298496945099
 30
0.0
  0
VERTEX
  5
2FF6B
  8
0
 10
509.43291376718201
 20
259.5556788633258
 30
0.0
  0
VERTEX
  5
2FF6C
  8
0
 10
510.02270587193152
 20
260.50422268724378
 30
0.0
  0
VERTEX
  5
2FF6D
  8
0
 10
510.6315241888023
 20
261.42781387843212
 30
0.0
  0
VERTEX
  5
2FF6E
  8
0
 10
510.94290781845069
 20
261.88000719060892
 30
0.0
  0
VERTEX
  5
2FF6F
  8
0
 10
511.2588535967152
 20
262.32567098653539
 30
0.0
  0
VERTEX
  5
2FF70
  8
0
 10
511.90416331236293
 20
263.19703433480208
 30
0.0
  0
VERTEX
  5
2FF71
  8
0
 10
512.56690733930009
 20
264.04116666284699
 30
0.0
  0
VERTEX
  5
2FF72
  8
0
 10
513.24652492991424
 20
264.85735375044533
 30
0.0
  0
VERTEX
  5
2FF73
  8
0
 10
513.94244105987445
 20
265.64490502183708
 30
0.0
  0
VERTEX
  5
2FF74
  8
0
 10
514.65406691465705
 20
266.40315413002099
 30
0.0
  0
VERTEX
  5
2FF75
  8
0
 10
515.01558333593357
 20
266.771088903698
 30
0.0
  0
VERTEX
  5
2FF76
  8
0
 10
515.38080038774376
 20
267.13145952055038
 30
0.0
  0
VERTEX
  5
2FF77
  8
0
 10
516.12202659006243
 20
267.82920497435589
 30
0.0
  0
VERTEX
  5
2FF78
  8
0
 10
516.87711837024472
 20
268.49580012912151
 30
0.0
  0
VERTEX
  5
2FF79
  8
0
 10
517.64543684525961
 20
269.13068097879841
 30
0.0
  0
VERTEX
  5
2FF7A
  8
0
 10
518.42633194097186
 20
269.7333103508027
 30
0.0
  0
VERTEX
  5
2FF7B
  8
0
 10
519.21914294216947
 20
270.303178360522
 30
0.0
  0
VERTEX
  5
2FF7C
  8
0
 10
519.6198076615492
 20
270.57567508378543
 30
0.0
  0
VERTEX
  5
2FF7D
  8
0
 10
520.02319905159436
 20
270.83980284272729
 30
0.0
  0
VERTEX
  5
2FF7E
  8
0
 10
520.8378199575053
 20
271.34272975953257
 30
0.0
  0
VERTEX
  5
2FF7F
  8
0
 10
521.66231640928663
 20
271.81153358455589
 30
0.0
  0
VERTEX
  5
2FF80
  8
0
 10
522.49599080062671
 20
272.2458176629579
 30
0.0
  0
VERTEX
  5
2FF81
  8
0
 10
523.33813775976023
 20
272.64521454705118
 30
0.0
  0
VERTEX
  5
2FF82
  8
0
 10
524.18804474628257
 20
273.00938630719889
 30
0.0
  0
VERTEX
  5
2FF83
  8
0
 10
524.61568376901357
 20
273.17816530500198
 30
0.0
  0
VERTEX
  5
2FF84
  8
0
 10
525.04499265403365
 20
273.33802481773267
 30
0.0
  0
VERTEX
  5
2FF85
  8
0
 10
525.90825641952824
 20
273.63085201766449
 30
0.0
  0
VERTEX
  5
2FF86
  8
0
 10
526.77710563543678
 20
273.88762014594801
 30
0.0
  0
VERTEX
  5
2FF87
  8
0
 10
527.65080516858097
 20
274.10811195111182
 30
0.0
  0
VERTEX
  5
2FF88
  8
0
 10
528.52861578192915
 20
274.2921408750762
 30
0.0
  0
VERTEX
  5
2FF89
  8
0
 10
529.40979476006476
 20
274.43955121099862
 30
0.0
  0
VERTEX
  5
2FF8A
  8
0
 10
529.85141449083665
 20
274.49948421889991
 30
0.0
  0
VERTEX
  5
2FF8B
  8
0
 10
530.29359653760093
 20
274.55021823501829
 30
0.0
  0
VERTEX
  5
2FF8C
  8
0
 10
531.1792733299975
 20
274.62404831178361
 30
0.0
  0
VERTEX
  5
2FF8D
  8
0
 10
532.0660757662672
 20
274.66097897368041
 30
0.0
  0
VERTEX
  5
2FF8E
  8
0
 10
532.50966464464045
 20
274.66559603889891
 30
0.0
  0
VERTEX
  5
2FF8F
  8
0
 10
532.9532535230137
 20
274.66097897368041
 30
0.0
  0
VERTEX
  5
2FF90
  8
0
 10
533.84005595928329
 20
274.62404831178361
 30
0.0
  0
VERTEX
  5
2FF91
  8
0
 10
534.72573275167986
 20
274.55021823501829
 30
0.0
  0
VERTEX
  5
2FF92
  8
0
 10
535.16791479844414
 20
274.49948421889991
 30
0.0
  0
VERTEX
  5
2FF93
  8
0
 10
535.60953452921603
 20
274.43955121099862
 30
0.0
  0
VERTEX
  5
2FF94
  8
0
 10
536.49071350735176
 20
274.2921408750762
 30
0.0
  0
VERTEX
  5
2FF95
  8
0
 10
537.36852412069993
 20
274.10811195111182
 30
0.0
  0
VERTEX
  5
2FF96
  8
0
 10
538.24222365384412
 20
273.88762014594801
 30
0.0
  0
VERTEX
  5
2FF97
  8
0
 10
539.11107286975255
 20
273.63085201766449
 30
0.0
  0
VERTEX
  5
2FF98
  8
0
 10
539.97433663524725
 20
273.33802481773267
 30
0.0
  0
VERTEX
  5
2FF99
  8
0
 10
540.40364552026722
 20
273.17816530500198
 30
0.0
  0
VERTEX
  5
2FF9A
  8
0
 10
540.83128454299822
 20
273.00938630719889
 30
0.0
  0
VERTEX
  5
2FF9B
  8
0
 10
541.68119152952056
 20
272.64521454705118
 30
0.0
  0
VERTEX
  5
2FF9C
  8
0
 10
542.52333848865408
 20
272.2458176629579
 30
0.0
  0
VERTEX
  5
2FF9D
  8
0
 10
543.35701287999416
 20
271.81153358455589
 30
0.0
  0
VERTEX
  5
2FF9E
  8
0
 10
544.18150933177549
 20
271.34272975953257
 30
0.0
  0
VERTEX
  5
2FF9F
  8
0
 10
544.99613023768643
 20
270.83980284272729
 30
0.0
  0
VERTEX
  5
2FFA0
  8
0
 10
545.39952162773159
 20
270.57567508378543
 30
0.0
  0
VERTEX
  5
2FFA1
  8
0
 10
545.80018634711132
 20
270.303178360522
 30
0.0
  0
VERTEX
  5
2FFA2
  8
0
 10
546.59299734830893
 20
269.7333103508027
 30
0.0
  0
VERTEX
  5
2FFA3
  8
0
 10
547.37389244402129
 20
269.13068097879841
 30
0.0
  0
VERTEX
  5
2FFA4
  8
0
 10
548.14221091903607
 20
268.49580012912151
 30
0.0
  0
VERTEX
  5
2FFA5
  8
0
 10
548.89730269921847
 20
267.82920497435589
 30
0.0
  0
VERTEX
  5
2FFA6
  8
0
 10
549.63852890153703
 20
267.13145952055038
 30
0.0
  0
VERTEX
  5
2FFA7
  8
0
 10
550.00374595334733
 20
266.771088903698
 30
0.0
  0
VERTEX
  5
2FFA8
  8
0
 10
550.36526237462385
 20
266.40315413002099
 30
0.0
  0
VERTEX
  5
2FFA9
  8
0
 10
551.07688822940645
 20
265.64490502183708
 30
0.0
  0
VERTEX
  5
2FFAA
  8
0
 10
551.77280435936655
 20
264.85735375044533
 30
0.0
  0
VERTEX
  5
2FFAB
  8
0
 10
552.45242194998082
 20
264.04116666284699
 30
0.0
  0
VERTEX
  5
2FFAC
  8
0
 10
553.11516597691798
 20
263.19703433480208
 30
0.0
  0
VERTEX
  5
2FFAD
  8
0
 10
553.76047569256571
 20
262.32567098653539
 30
0.0
  0
VERTEX
  5
2FFAE
  8
0
 10
554.07642147083016
 20
261.88000719060892
 30
0.0
  0
VERTEX
  5
2FFAF
  8
0
 10
554.38780510047854
 20
261.42781387843212
 30
0.0
  0
VERTEX
  5
2FFB0
  8
0
 10
554.99662341734938
 20
260.50422268724378
 30
0.0
  0
VERTEX
  5
2FFB1
  8
0
 10
555.58641552209883
 20
259.5556788633258
 30
0.0
  0
VERTEX
  5
2FFB2
  8
0
 10
556.15668239172498
 20
258.58298496945099
 30
0.0
  0
VERTEX
  5
2FFB3
  8
0
 10
556.70694152352326
 20
257.5869640017645
 30
0.0
  0
VERTEX
  5
2FFB4
  8
0
 10
557.23672734333195
 20
256.5684586934413
 30
0.0
  0
VERTEX
  5
2FFB5
  8
0
 10
557.49380199545465
 20
256.05104298736302
 30
0.0
  0
VERTEX
  5
2FFB6
  8
0
 10
557.74559159945647
 20
255.52833080165601
 30
0.0
  0
VERTEX
  5
2FFB7
  8
0
 10
558.23310374193352
 20
254.46746037844781
 30
0.0
  0
VERTEX
  5
2FFB8
  8
0
 10
558.69885128681926
 20
253.38674502610681
 30
0.0
  0
VERTEX
  5
2FFB9
  8
0
 10
558.92343946006577
 20
252.8392306145206
 30
0.0
  0
VERTEX
  5
2FFBA
  8
0
 10
559.14244016519251
 20
252.2870991377149
 30
0.0
  0
VERTEX
  5
2FFBB
  8
0
 10
559.56349505657624
 20
251.1694531234771
 30
0.0
  0
VERTEX
  5
2FFBC
  8
0
 10
559.96165970649599
 20
250.03475262350361
 30
0.0
  0
VERTEX
  5
2FFBD
  8
0
 10
560.15205214925845
 20
249.4613064216783
 30
0.0
  0
VERTEX
  5
2FFBE
  8
0
 10
560.33659722790753
 20
248.8839577076987
 30
0.0
  0
VERTEX
  5
2FFBF
  8
0
 10
560.68799038623456
 20
247.71804206345311
 30
0.0
  0
VERTEX
  5
2FFC0
  8
0
 10
561.01554186778446
 20
246.53799217180219
 30
0.0
  0
VERTEX
  5
2FFC1
  8
0
 10
561.31897453130239
 20
245.34480647276359
 30
0.0
  0
VERTEX
  5
2FFC2
  8
0
 10
561.59803164246114
 20
244.13949452056201
 30
0.0
  0
VERTEX
  5
2FFC3
  8
0
 10
561.8524770910858
 20
242.92307612944199
 30
0.0
  0
VERTEX
  5
2FFC4
  8
0
 10
561.97040234645692
 20
242.3110233045345
 30
0.0
  0
VERTEX
  5
2FFC5
  8
0
 10
562.08209559092302
 20
241.69658051080481
 30
0.0
  0
VERTEX
  5
2FFC6
  8
0
 10
562.28669286179866
 20
240.46104540239051
 30
0.0
  0
VERTEX
  5
2FFC7
  8
0
 10
562.46609579399455
 20
239.21751619025241
 30
0.0
  0
VERTEX
  5
2FFC8
  8
0
 10
562.62015259472037
 20
237.967045024252
 30
0.0
  0
VERTEX
  5
2FFC9
  8
0
 10
562.74873291654148
 20
236.71068992783691
 30
0.0
  0
VERTEX
  5
2FFCA
  8
0
 10
562.85172796766926
 20
235.44951390284771
 30
0.0
  0
VERTEX
  5
2FFCB
  8
0
 10
562.89360293643847
 20
234.81745137022881
 30
0.0
  0
VERTEX
  5
2FFCC
  8
0
 10
562.9290506040079
 20
234.184584030113
 30
0.0
  0
VERTEX
  5
2FFCD
  8
0
 10
562.98063540288695
 20
232.91697056658811
 30
0.0
  0
VERTEX
  5
2FFCE
  8
0
 10
563.00643871841748
 20
231.6477460398182
 30
0.0
  0
VERTEX
  5
2FFCF
  8
0
 10
563.00966464464045
 20
231.01286519014141
 30
0.0
  0
SEQEND
  5
2FFD0
  8
0
  0
POLYLINE
  5
2FB28
  8
0
 66
     1
 10
0.0
 20
0.0
 30
0.0
  0
VERTEX
  5
2FFD1
  8
0
 10
563.00966464464045
 20
231.01286519014141
 30
0.0
  0
VERTEX
  5
2FFD2
  8
0
 10
563.00148605124321
 20
230.0020152525712
 30
0.0
  0
VERTEX
  5
2FFD3
  8
0
 10
562.93608361884981
 20
227.98248356685411
 30
0.0
  0
VERTEX
  5
2FFD4
  8
0
 10
562.80541903686481
 20
225.96945179882371
 30
0.0
  0
VERTEX
  5
2FFD5
  8
0
 10
562.71569556884458
 20
224.96672349034631
 30
0.0
  0
VERTEX
  5
2FFD6
  8
0
 10
562.60977256999956
 20
223.96723773495609
 30
0.0
  0
VERTEX
  5
2FFD7
  8
0
 10
562.34956386372676
 20
221.9801359586472
 30
0.0
  0
VERTEX
  5
2FFD8
  8
0
 10
562.02535104417746
 20
220.01240863868949
 30
0.0
  0
VERTEX
  5
2FFD9
  8
0
 10
561.63782952100689
 20
218.06827638726921
 30
0.0
  0
VERTEX
  5
2FFDA
  8
0
 10
561.18783049579895
 20
216.15190920710299
 30
0.0
  0
VERTEX
  5
2FFDB
  8
0
 10
560.67631917920426
 20
214.26741754713021
 30
0.0
  0
VERTEX
  5
2FFDC
  8
0
 10
560.39783417940896
 20
213.33839109564451
 30
0.0
  0
VERTEX
  5
2FFDD
  8
0
 10
560.10439272064821
 20
212.41884348593791
 30
0.0
  0
VERTEX
  5
2FFDE
  8
0
 10
559.47327785503285
 20
210.61015206183851
 30
0.0
  0
VERTEX
  5
2FFDF
  8
0
 10
558.78432827149163
 20
208.84522276818731
 30
0.0
  0
VERTEX
  5
2FFE0
  8
0
 10
558.03902170984099
 20
207.12784123219529
 30
0.0
  0
VERTEX
  5
2FFE1
  8
0
 10
557.23895679095028
 20
205.461691095069
 30
0.0
  0
VERTEX
  5
2FFE2
  8
0
 10
556.38584958782894
 20
203.85034611090671
 30
0.0
  0
VERTEX
  5
2FFE3
  8
0
 10
555.93997261752884
 20
203.06631041057699
 30
0.0
  0
VERTEX
  5
2FFE4
  8
0
 10
555.48152994479688
 20
202.29726248129009
 30
0.0
  0
VERTEX
  5
2FFE5
  8
0
 10
554.52793755261609
 20
200.80577144202019
 30
0.0
  0
VERTEX
  5
2FFE6
  8
0
 10
553.52711778801677
 20
199.37907211788931
 30
0.0
  0
VERTEX
  5
2FFE7
  8
0
 10
553.00966464464045
 20
198.69098125668549
 30
0.0
  0
SEQEND
  5
2FFE8
  8
0
  0
LINE
  5
2FB29
  8
0
 10
512.00966464464045
 20
192.2436887314197
 30
0.0
 11
512.00966464464045
 21
263.33476854843229
 31
0.0
  0
LINE
  5
2FB2A
  8
0
 10
553.00966464464045
 20
263.33476854843229
 30
0.0
 11
553.00966464464045
 21
192.2436887314197
 31
0.0
  0
LINE
  5
2FB2B
  8
0
 10
506.90966464464049
 20
196.4286887314201
 30
0.0
 11
507.5096646446404
 21
196.4286887314201
 31
0.0
  0
LINE
  5
2FB2C
  8
0
 10
566.74266464464017
 20
206.24368873141981
 30
0.0
 11
565.50966464464045
 21
206.24368873141981
 31
0.0
  0
LINE
  5
2FB2D
  8
0
 10
565.50966464464045
 20
198.2436887314197
 30
0.0
 11
566.74266464464017
 21
198.2436887314197
 31
0.0
  0
LINE
  5
2FB2E
  8
0
 10
567.50966464464045
 20
205.4766887314199
 30
0.0
 11
566.74266464464017
 21
206.24368873141981
 31
0.0
  0
LINE
  5
2FB2F
  8
0
 10
566.74266464464017
 20
198.2436887314197
 30
0.0
 11
567.50966464464045
 21
199.01068873141961
 31
0.0
  0
LINE
  5
2FB30
  8
0
 10
553.00966464464045
 20
206.24368873141981
 30
0.0
 11
552.50966464464045
 21
206.24368873141981
 31
0.0
  0
LINE
  5
2FB31
  8
0
 10
552.50966464464045
 20
198.2436887314197
 30
0.0
 11
553.00966464464045
 21
198.2436887314197
 31
0.0
  0
LINE
  5
2FB32
  8
0
 10
565.50966464464045
 20
208.05868873141929
 30
0.0
 11
563.00966464464045
 21
208.05868873141929
 31
0.0
  0
LINE
  5
2FB33
  8
0
 10
563.00966464464045
 20
196.4286887314201
 30
0.0
 11
565.50966464464045
 21
196.4286887314201
 31
0.0
  0
LINE
  5
2FB34
  8
0
 10
512.50966464464045
 20
206.24368873141981
 30
0.0
 11
512.00966464464045
 21
206.24368873141981
 31
0.0
  0
LINE
  5
2FB35
  8
0
 10
512.00966464464045
 20
198.2436887314197
 30
0.0
 11
512.50966464464045
 21
198.2436887314197
 31
0.0
  0
LINE
  5
2FB36
  8
0
 10
552.50966464464045
 20
208.24368873141981
 30
0.0
 11
550.00966464464045
 21
208.24368873141981
 31
0.0
  0
LINE
  5
2FB37
  8
0
 10
515.00966464464045
 20
208.24368873141981
 30
0.0
 11
512.50966464464045
 21
208.24368873141981
 31
0.0
  0
LINE
  5
2FB38
  8
0
 10
512.50966464464045
 20
196.2436887314197
 30
0.0
 11
515.00966464464045
 21
196.2436887314197
 31
0.0
  0
LINE
  5
2FB39
  8
0
 10
550.00966464464045
 20
196.2436887314197
 30
0.0
 11
552.50966464464045
 21
196.2436887314197
 31
0.0
  0
LINE
  5
2FB3A
  8
0
 10
566.74266464464017
 20
198.2436887314197
 30
0.0
 11
566.74266464464017
 21
206.24368873141981
 31
0.0
  0
LINE
  5
2FB3B
  8
0
 10
567.50966464464045
 20
199.01068873141961
 30
0.0
 11
567.50966464464045
 21
205.4766887314199
 31
0.0
  0
LINE
  5
2FB3C
  8
0
 10
502.20966464464061
 20
195.98535539808651
 30
0.0
 11
502.20966464464061
 21
208.50202206475299
 31
0.0
  0
LINE
  5
2FB3D
  8
0
 10
506.90966464464049
 20
195.98535539808651
 30
0.0
 11
506.90966464464049
 21
201.19740769933011
 31
0.0
  0
POLYLINE
  5
2FB3E
  8
0
 66
     1
 10
0.0
 20
0.0
 30
0.0
  0
VERTEX
  5
2FFE9
  8
0
 10
502.46908435405612
 20
202.24368873141981
 30
0.0
  0
VERTEX
  5
2FFEA
  8
0
 10
502.38823970079778
 20
202.80586720953491
 30
0.0
  0
VERTEX
  5
2FFEB
  8
0
 10
502.27362936204457
 20
203.8616571022585
 30
0.0
  0
VERTEX
  5
2FFEC
  8
0
 10
502.21685477826031
 20
204.87041764617061
 30
0.0
  0
VERTEX
  5
2FFED
  8
0
 10
502.20966464464061
 20
205.3728553980863
 30
0.0
  0
SEQEND
  5
2FFEE
  8
0
  0
POLYLINE
  5
2FB3F
  8
0
 66
     1
 10
0.0
 20
0.0
 30
0.0
  0
VERTEX
  5
2FFEF
  8
0
 10
502.20966464464061
 20
205.3728553980863
 30
0.0
  0
VERTEX
  5
2FFF0
  8
0
 10
502.21685477826031
 20
205.87529315000211
 30
0.0
  0
VERTEX
  5
2FFF1
  8
0
 10
502.27362936204457
 20
206.88405369391421
 30
0.0
  0
VERTEX
  5
2FFF2
  8
0
 10
502.38823970079778
 20
207.93984358663781
 30
0.0
  0
VERTEX
  5
2FFF3
  8
0
 10
502.46908435405612
 20
208.50202206475299
 30
0.0
  0
SEQEND
  5
2FFF4
  8
0
  0
POLYLINE
  5
2FB40
  8
0
 66
     1
 10
0.0
 20
0.0
 30
0.0
  0
VERTEX
  5
2FFF5
  8
0
 10
506.90966464464049
 20
199.11452206475309
 30
0.0
  0
VERTEX
  5
2FFF6
  8
0
 10
506.9024745110205
 20
198.6120843128374
 30
0.0
  0
VERTEX
  5
2FFF7
  8
0
 10
506.84569992723618
 20
197.60332376892529
 30
0.0
  0
VERTEX
  5
2FFF8
  8
0
 10
506.73108958848292
 20
196.5475338762017
 30
0.0
  0
VERTEX
  5
2FFF9
  8
0
 10
506.65024493522458
 20
195.98535539808651
 30
0.0
  0
SEQEND
  5
2FFFA
  8
0
  0
POLYLINE
  5
2FB41
  8
0
 66
     1
 10
0.0
 20
0.0
 30
0.0
  0
VERTEX
  5
2FFFB
  8
0
 10
502.46908435405612
 20
195.98535539808651
 30
0.0
  0
VERTEX
  5
2FFFC
  8
0
 10
502.38823970079778
 20
196.5475338762017
 30
0.0
  0
VERTEX
  5
2FFFD
  8
0
 10
502.27362936204457
 20
197.60332376892529
 30
0.0
  0
VERTEX
  5
2FFFE
  8
0
 10
502.21685477826031
 20
198.6120843128374
 30
0.0
  0
VERTEX
  5
2FFFF
  8
0
 10
502.20966464464061
 20
199.11452206475309
 30
0.0
  0
SEQEND
  5
30000
  8
0
  0
POLYLINE
  5
2FB42
  8
0
 66
     1
 10
0.0
 20
0.0
 30
0.0
  0
VERTEX
  5
30001
  8
0
 10
502.20966464464061
 20
199.11452206475309
 30
0.0
  0
VERTEX
  5
30002
  8
0
 10
502.21685477826031
 20
199.6169598166689
 30
0.0
  0
VERTEX
  5
30003
  8
0
 10
502.27362936204457
 20
200.625720360581
 30
0.0
  0
VERTEX
  5
30004
  8
0
 10
502.38823970079778
 20
201.68151025330459
 30
0.0
  0
VERTEX
  5
30005
  8
0
 10
502.46908435405612
 20
202.24368873141981
 30
0.0
  0
SEQEND
  5
30006
  8
0
  0
LINE
  5
2FB43
  8
0
 10
502.46908435405612
 20
202.24368873141981
 30
0.0
 11
506.34589755318569
 21
202.24368873141981
 31
0.0
  0
POLYLINE
  5
2FB44
  8
0
 66
     1
 10
0.0
 20
0.0
 30
0.0
  0
VERTEX
  5
30007
  8
0
 10
506.75865274999018
 20
201.46587606667799
 30
0.0
  0
VERTEX
  5
30008
  8
0
 10
506.8050701109841
 20
201.0584128918963
 30
0.0
  0
VERTEX
  5
30009
  8
0
 10
506.87193269804169
 20
200.2707213808153
 30
0.0
  0
VERTEX
  5
3000A
  8
0
 10
506.9054220100806
 20
199.50030328425689
 30
0.0
  0
VERTEX
  5
3000B
  8
0
 10
506.90966464464049
 20
199.11452206475309
 30
0.0
  0
SEQEND
  5
3000C
  8
0
  0
LINE
  5
2FB45
  8
0
 10
565.50966464464045
 20
196.4286887314201
 30
0.0
 11
565.50966464464045
 21
208.05868873141929
 31
0.0
  0
LINE
  5
2FB46
  8
0
 10
563.00966464464045
 20
195.98535539808651
 30
0.0
 11
563.00966464464045
 21
208.50202206475299
 31
0.0
  0
POLYLINE
  5
2FB47
  8
0
 66
     1
 10
0.0
 20
0.0
 30
0.0
  0
VERTEX
  5
3000D
  8
0
 10
563.00966464464045
 20
205.3728553980863
 30
0.0
  0
VERTEX
  5
3000E
  8
0
 10
563.00247451102041
 20
204.87041764617061
 30
0.0
  0
VERTEX
  5
3000F
  8
0
 10
562.94569992723609
 20
203.8616571022585
 30
0.0
  0
VERTEX
  5
30010
  8
0
 10
562.83108958848334
 20
202.80586720953491
 30
0.0
  0
VERTEX
  5
30011
  8
0
 10
562.75024493522506
 20
202.24368873141981
 30
0.0
  0
SEQEND
  5
30012
  8
0
  0
POLYLINE
  5
2FB48
  8
0
 66
     1
 10
0.0
 20
0.0
 30
0.0
  0
VERTEX
  5
30013
  8
0
 10
562.75024493522506
 20
208.50202206475299
 30
0.0
  0
VERTEX
  5
30014
  8
0
 10
562.83108958848334
 20
207.93984358663781
 30
0.0
  0
VERTEX
  5
30015
  8
0
 10
562.94569992723609
 20
206.88405369391421
 30
0.0
  0
VERTEX
  5
30016
  8
0
 10
563.00247451102041
 20
205.87529315000211
 30
0.0
  0
VERTEX
  5
30017
  8
0
 10
563.00966464464045
 20
205.3728553980863
 30
0.0
  0
SEQEND
  5
30018
  8
0
  0
POLYLINE
  5
2FB49
  8
0
 66
     1
 10
0.0
 20
0.0
 30
0.0
  0
VERTEX
  5
30019
  8
0
 10
563.00966464464045
 20
199.11452206475309
 30
0.0
  0
VERTEX
  5
3001A
  8
0
 10
563.00247451102041
 20
198.6120843128374
 30
0.0
  0
VERTEX
  5
3001B
  8
0
 10
562.94569992723609
 20
197.60332376892529
 30
0.0
  0
VERTEX
  5
3001C
  8
0
 10
562.83108958848334
 20
196.5475338762017
 30
0.0
  0
VERTEX
  5
3001D
  8
0
 10
562.75024493522506
 20
195.98535539808651
 30
0.0
  0
SEQEND
  5
3001E
  8
0
  0
POLYLINE
  5
2FB4A
  8
0
 66
     1
 10
0.0
 20
0.0
 30
0.0
  0
VERTEX
  5
3001F
  8
0
 10
557.76908435405585
 20
195.98535539808651
 30
0.0
  0
VERTEX
  5
30020
  8
0
 10
557.68823970079927
 20
196.54753387618979
 30
0.0
  0
VERTEX
  5
30021
  8
0
 10
557.57362936204754
 20
197.6033237688944
 30
0.0
  0
VERTEX
  5
30022
  8
0
 10
557.51685477826175
 20
198.61208431278641
 30
0.0
  0
VERTEX
  5
30023
  8
0
 10
557.50966464464045
 20
199.1145220646913
 30
0.0
  0
SEQEND
  5
30024
  8
0
  0
POLYLINE
  5
2FB4B
  8
0
 66
     1
 10
0.0
 20
0.0
 30
0.0
  0
VERTEX
  5
30025
  8
0
 10
557.50966464464045
 20
199.11452206475309
 30
0.0
  0
VERTEX
  5
30026
  8
0
 10
557.51067611665803
 20
199.30279641780271
 30
0.0
  0
VERTEX
  5
30027
  8
0
 10
557.5186926051141
 20
199.67767624551561
 30
0.0
  0
VERTEX
  5
30028
  8
0
 10
557.53459436273261
 20
200.0525495491938
 30
0.0
  0
VERTEX
  5
30029
  8
0
 10
557.5454889564221
 20
200.2407981392835
 30
0.0
  0
SEQEND
  5
3002A
  8
0
  0
LINE
  5
2FB4C
  8
0
 10
558.67343173609515
 20
202.24368873141981
 30
0.0
 11
562.75024493522506
 21
202.24368873141981
 31
0.0
  0
POLYLINE
  5
2FB4D
  8
0
 66
     1
 10
0.0
 20
0.0
 30
0.0
  0
VERTEX
  5
3002B
  8
0
 10
562.75024493522506
 20
202.24368873141981
 30
0.0
  0
VERTEX
  5
3002C
  8
0
 10
562.83108958848334
 20
201.68151025330459
 30
0.0
  0
VERTEX
  5
3002D
  8
0
 10
562.94569992723609
 20
200.625720360581
 30
0.0
  0
VERTEX
  5
3002E
  8
0
 10
563.00247451102041
 20
199.6169598166689
 30
0.0
  0
VERTEX
  5
3002F
  8
0
 10
563.00966464464045
 20
199.11452206475309
 30
0.0
  0
SEQEND
  5
30030
  8
0
  0
LINE
  5
2FB4E
  8
0
 10
512.50966464464045
 20
196.2436887314197
 30
0.0
 11
512.50966464464045
 21
208.24368873141981
 31
0.0
  0
LINE
  5
2FB4F
  8
0
 10
552.50966464464045
 20
196.2436887314197
 30
0.0
 11
552.50966464464045
 21
208.24368873141981
 31
0.0
  0
LINE
  5
2FB50
  8
0
 10
546.48365202010598
 20
264.74368873141981
 30
0.0
 11
518.53567726917481
 21
264.74368873141981
 31
0.0
  0
LINE
  5
2FB51
  8
0
 10
518.53567726917481
 20
139.7436887314197
 30
0.0
 11
546.48365202010598
 21
139.7436887314197
 31
0.0
  0
ARC
  5
2FB52
  8
0
 10
546.48365202010598
 20
142.2436887314197
 30
0.0
 40
2.499999999999992
 50
270.0
 51
345.00000000000563
  0
ARC
  5
2FB53
  8
0
 10
546.48365202010598
 20
262.24368873141981
 30
0.0
 40
2.499999999999992
 50
14.999999999994451
 51
90.0
  0
LINE
  5
2FB54
  8
0
 10
550.00966464464045
 20
258.7436887314197
 30
0.0
 11
548.89846658582883
 21
262.89073634417582
 31
0.0
  0
LINE
  5
2FB55
  8
0
 10
548.89846658582883
 20
141.5966411186636
 30
0.0
 11
550.00966464464045
 21
145.7436887314197
 31
0.0
  0
LINE
  5
2FB56
  8
0
 10
550.00216464464029
 20
186.2286887314194
 30
0.0
 11
550.00966464464045
 21
186.2286887314194
 31
0.0
  0
LINE
  5
2FB57
  8
0
 10
550.00216464464029
 20
186.2436887314197
 30
0.0
 11
550.00966464464045
 21
186.2436887314197
 31
0.0
  0
LINE
  5
2FB58
  8
0
 10
516.12086270345196
 20
262.89073634417582
 30
0.0
 11
515.00966464464045
 21
258.7436887314197
 31
0.0
  0
LINE
  5
2FB59
  8
0
 10
515.00966464464045
 20
145.7436887314197
 30
0.0
 11
516.12086270345196
 21
141.5966411186636
 31
0.0
  0
ARC
  5
2FB5A
  8
0
 10
518.53567726917481
 20
142.2436887314197
 30
0.0
 40
2.4999999999999778
 50
194.9999999999944
 51
270.0
  0
ARC
  5
2FB5B
  8
0
 10
518.53567726917481
 20
262.24368873141981
 30
0.0
 40
2.4999999999999778
 50
90.0
 51
165.00000000000551
  0
LINE
  5
2FB5C
  8
0
 10
546.48365202010598
 20
139.7436887314197
 30
0.0
 11
546.48365202010598
 21
264.74368873141981
 31
0.0
  0
LINE
  5
2FB5D
  8
0
 10
550.00966464464045
 20
145.7436887314197
 30
0.0
 11
550.00966464464045
 21
258.7436887314197
 31
0.0
  0
LINE
  5
2FB5E
  8
0
 10
515.00966464464045
 20
145.7436887314197
 30
0.0
 11
515.00966464464045
 21
258.7436887314197
 31
0.0
  0
LINE
  5
2FB5F
  8
0
 10
518.53567726917481
 20
139.7436887314197
 30
0.0
 11
518.53567726917481
 21
264.74368873141981
 31
0.0
  0
LINE
  5
2FB60
  8
0
 10
502.20966464464061
 20
195.98535539808651
 30
0.0
 11
506.90966464464049
 21
195.98535539808651
 31
0.0
  0
LINE
  5
2FB61
  8
0
 10
502.20966464464061
 20
208.50202206475299
 30
0.0
 11
503.50095060483631
 21
208.50202206475299
 31
0.0
  0
LINE
  5
2FB62
  8
0
 10
563.00966464464045
 20
208.50202206475299
 30
0.0
 11
561.51837868444454
 21
208.50202206475299
 31
0.0
  0
LINE
  5
2FB63
  8
0
 10
563.00966464464045
 20
195.98535539808651
 30
0.0
 11
557.50966464464045
 21
195.98535539808651
 31
0.0
  0
LINE
  5
2FB64
  8
3
 10
567.50966464464045
 20
205.4766887314199
 30
0.0
 11
565.50966464464045
 21
205.4766887314199
 31
0.0
  0
LINE
  5
2FB65
  8
3
 10
553.00966464464045
 20
205.4766887314199
 30
0.0
 11
552.50966464464045
 21
205.4766887314199
 31
0.0
  0
LINE
  5
2FB66
  8
3
 10
512.50966464464045
 20
205.4766887314199
 30
0.0
 11
512.00966464464045
 21
205.4766887314199
 31
0.0
  0
LINE
  5
2FB67
  8
3
 10
567.50966464464045
 20
199.01068873141961
 30
0.0
 11
565.50966464464045
 21
199.01068873141961
 31
0.0
  0
LINE
  5
2FB68
  8
3
 10
553.00966464464045
 20
199.01068873141961
 30
0.0
 11
552.50966464464045
 21
199.01068873141961
 31
0.0
  0
LINE
  5
2FB69
  8
3
 10
512.50966464464045
 20
199.01068873141961
 30
0.0
 11
512.00966464464045
 21
199.01068873141961
 31
0.0
  0
LINE
  5
2FB6A
  8
0
 10
140.0949673234538
 20
292.44368873141963
 30
0.0
 11
140.0949673234538
 21
293.24368873141981
 31
0.0
  0
LINE
  5
2FB6B
  8
0
 10
70.494967323453693
 20
293.24368873141981
 30
0.0
 11
70.494967323453693
 21
292.44368873141963
 31
0.0
  0
LINE
  5
2FB6C
  8
0
 10
139.79618798743189
 20
283.94368873141963
 30
0.0
 11
141.2949673234539
 21
292.44368873141963
 31
0.0
  0
LINE
  5
2FB6D
  8
0
 10
69.294967323453875
 20
292.44368873141963
 30
0.0
 11
70.793746659475801
 21
283.94368873141963
 31
0.0
  0
LINE
  5
2FB6E
  8
0
 10
138.29496732345379
 20
231.01286519014229
 30
0.0
 11
138.29496732345379
 21
283.94368873141963
 31
0.0
  0
LINE
  5
2FB6F
  8
0
 10
72.294967323453875
 20
283.94368873141963
 30
0.0
 11
72.294967323453875
 21
231.01286519014229
 31
0.0
  0
LINE
  5
2FB70
  8
0
 10
62.794967323453868
 20
295.74368873141981
 30
0.0
 11
62.794967323453868
 21
293.24368873141981
 31
0.0
  0
LINE
  5
2FB71
  8
0
 10
62.794967323453868
 20
295.74368873141981
 30
0.0
 11
147.79496732345379
 21
295.74368873141981
 31
0.0
  0
LINE
  5
2FB72
  8
0
 10
147.79496732345379
 20
295.74368873141981
 30
0.0
 11
147.79496732345379
 21
293.24368873141981
 31
0.0
  0
LINE
  5
2FB73
  8
0
 10
62.794967323453868
 20
293.24368873141981
 30
0.0
 11
147.79496732345379
 21
293.24368873141981
 31
0.0
  0
LINE
  5
2FB74
  8
0
 10
69.294967323453875
 20
292.44368873141963
 30
0.0
 11
141.2949673234539
 21
292.44368873141963
 31
0.0
  0
LINE
  5
2FB75
  8
0
 10
70.793746659475801
 20
283.94368873141963
 30
0.0
 11
139.79618798743189
 21
283.94368873141963
 31
0.0
  0
LINE
  5
2FB76
  8
0
 10
80.294967323453875
 20
281.94368873141963
 30
0.0
 11
130.29496732345379
 21
281.94368873141963
 31
0.0
  0
LINE
  5
2FB77
  8
0
 10
130.29496732345379
 20
281.94368873141963
 30
0.0
 11
130.29496732345379
 21
192.2436887314197
 31
0.0
  0
LINE
  5
2FB78
  8
0
 10
130.29496732345379
 20
192.2436887314197
 30
0.0
 11
125.7949673234538
 21
192.2436887314197
 31
0.0
  0
POLYLINE
  5
2FB79
  8
0
 66
     1
 10
0.0
 20
0.0
 30
0.0
  0
VERTEX
  5
30031
  8
0
 10
134.30384059913959
 20
208.497123522995
 30
0.0
  0
VERTEX
  5
30032
  8
0
 10
134.5182180457
 20
209.072340768902
 30
0.0
  0
VERTEX
  5
30033
  8
0
 10
134.93022977126739
 20
210.2352056038844
 30
0.0
  0
VERTEX
  5
30034
  8
0
 10
135.3196573980442
 20
211.41390443789169
 30
0.0
  0
VERTEX
  5
30035
  8
0
 10
135.50580875503641
 20
212.0089113543481
 30
0.0
  0
VERTEX
  5
30036
  8
0
 10
135.68620415551871
 20
212.6075390217211
 30
0.0
  0
VERTEX
  5
30037
  8
0
 10
136.02959070996849
 20
213.81519972410479
 30
0.0
  0
VERTEX
  5
30038
  8
0
 10
136.34955537733049
 20
215.03596622491111
 30
0.0
  0
VERTEX
  5
30039
  8
0
 10
136.6458543226245
 20
216.26890821649431
 30
0.0
  0
VERTEX
  5
3003A
  8
0
 10
136.91826174576909
 20
217.51308611265
 30
0.0
  0
VERTEX
  5
3003B
  8
0
 10
137.1665700536596
 20
218.76755176464761
 30
0.0
  0
VERTEX
  5
3003C
  8
0
 10
137.28162718422729
 20
219.398344038982
 30
0.0
  0
VERTEX
  5
3003D
  8
0
 10
137.3905900183658
 20
220.03134918377779
 30
0.0
  0
VERTEX
  5
3003E
  8
0
 10
137.59015092133899
 20
221.30351526989131
 30
0.0
  0
VERTEX
  5
3003F
  8
0
 10
137.76510068350899
 20
222.58308054533879
 30
0.0
  0
VERTEX
  5
30040
  8
0
 10
137.91530598118041
 20
223.86906989378079
 30
0.0
  0
VERTEX
  5
30041
  8
0
 10
138.04065234763311
 20
225.16050330329651
 30
0.0
  0
VERTEX
  5
30042
  8
0
 10
138.1410442603551
 20
226.45639661321911
 30
0.0
  0
VERTEX
  5
30043
  8
0
 10
138.18185764404981
 20
227.10570723071399
 30
0.0
  0
VERTEX
  5
30044
  8
0
 10
138.21640521383571
 20
227.75576226412801
 30
0.0
  0
VERTEX
  5
30045
  8
0
 10
138.26667777786949
 20
229.0576100504459
 30
0.0
  0
VERTEX
  5
30046
  8
0
 10
138.29182364132129
 20
230.36094787503501
 30
0.0
  0
VERTEX
  5
30047
  8
0
 10
138.29496732345379
 20
231.01286519014229
 30
0.0
  0
SEQEND
  5
30048
  8
0
  0
POLYLINE
  5
2FB7A
  8
0
 66
     1
 10
0.0
 20
0.0
 30
0.0
  0
VERTEX
  5
30049
  8
0
 10
72.294967323453875
 20
231.01286519014229
 30
0.0
  0
VERTEX
  5
3004A
  8
0
 10
72.298111005586406
 20
230.36094787503501
 30
0.0
  0
VERTEX
  5
3004B
  8
0
 10
72.323256869038005
 20
229.0576100504459
 30
0.0
  0
VERTEX
  5
3004C
  8
0
 10
72.373529433071781
 20
227.75576226412801
 30
0.0
  0
VERTEX
  5
3004D
  8
0
 10
72.408077002857908
 20
227.10570723071399
 30
0.0
  0
VERTEX
  5
3004E
  8
0
 10
72.448890386552648
 20
226.4563966132182
 30
0.0
  0
VERTEX
  5
3004F
  8
0
 10
72.549282299274637
 20
225.16050330329651
 30
0.0
  0
VERTEX
  5
30050
  8
0
 10
72.674628665727141
 20
223.86906989378079
 30
0.0
  0
VERTEX
  5
30051
  8
0
 10
72.824833963398532
 20
222.58308054533791
 30
0.0
  0
VERTEX
  5
30052
  8
0
 10
72.999783725568705
 20
221.30351526989131
 30
0.0
  0
VERTEX
  5
30053
  8
0
 10
73.199344628541894
 20
220.03134918377779
 30
0.0
  0
VERTEX
  5
30054
  8
0
 10
73.308307462680432
 20
219.398344038982
 30
0.0
  0
VERTEX
  5
30055
  8
0
 10
73.423364593248152
 20
218.7675517646467
 30
0.0
  0
VERTEX
  5
30056
  8
0
 10
73.671672901138663
 20
217.51308611265
 30
0.0
  0
VERTEX
  5
30057
  8
0
 10
73.944080324283263
 20
216.26890821649431
 30
0.0
  0
VERTEX
  5
30058
  8
0
 10
74.240379269577261
 20
215.03596622491111
 30
0.0
  0
VERTEX
  5
30059
  8
0
 10
74.560343936939262
 20
213.81519972410479
 30
0.0
  0
VERTEX
  5
3005A
  8
0
 10
74.903730491389069
 20
212.6075390217211
 30
0.0
  0
VERTEX
  5
3005B
  8
0
 10
75.084125891871281
 20
212.0089113543481
 30
0.0
  0
VERTEX
  5
3005C
  8
0
 10
75.270277248863522
 20
211.41390443789169
 30
0.0
  0
VERTEX
  5
3005D
  8
0
 10
75.659704875640273
 20
210.23520560388349
 30
0.0
  0
VERTEX
  5
3005E
  8
0
 10
76.071716601207754
 20
209.072340768902
 30
0.0
  0
VERTEX
  5
3005F
  8
0
 10
76.286094047768074
 20
208.497123522995
 30
0.0
  0
SEQEND
  5
30060
  8
0
  0
LINE
  5
2FB7B
  8
0
 10
80.294967323453875
 20
192.2436887314197
 30
0.0
 11
80.294967323453875
 21
281.94368873141963
 31
0.0
  0
LINE
  5
2FB7C
  8
0
 10
84.794967323453875
 20
192.2436887314197
 30
0.0
 11
80.294967323453875
 21
192.2436887314197
 31
0.0
  0
POLYLINE
  5
2FB7D
  8
0
 66
     1
 10
0.0
 20
0.0
 30
0.0
  0
VERTEX
  5
30061
  8
0
 10
125.78532322217551
 20
263.34727349137847
 30
0.0
  0
VERTEX
  5
30062
  8
0
 10
125.63075065218339
 20
263.54655304647082
 30
0.0
  0
VERTEX
  5
30063
  8
0
 10
125.3187744181223
 20
263.9405621261767
 30
0.0
  0
VERTEX
  5
30064
  8
0
 10
125.00307184609591
 20
264.32844351365111
 30
0.0
  0
VERTEX
  5
30065
  8
0
 10
124.8438415161777
 20
264.52006372072168
 30
0.0
  0
VERTEX
  5
30066
  8
0
 10
124.68370168689439
 20
264.71012502595931
 30
0.0
  0
VERTEX
  5
30067
  8
0
 10
124.36072337382799
 20
265.0855356339361
 30
0.0
  0
VERTEX
  5
30068
  8
0
 10
124.2949673234541
 20
265.15985911252568
 30
0.0
  0
SEQEND
  5
30069
  8
0
  0
LINE
  5
2FB7E
  8
0
 10
125.7949673234538
 20
266.32887416569702
 30
0.0
 11
125.7949673234538
 21
192.2436887314197
 31
0.0
  0
LINE
  5
2FB80
  8
0
 10
84.794967323453875
 20
192.2436887314197
 30
0.0
 11
84.794967323453875
 21
266.32887416569702
 31
0.0
  0
LINE
  5
2FB81
  8
0
 10
130.29496732345379
 20
196.4286887314201
 30
0.0
 11
130.89496732345381
 21
196.4286887314201
 31
0.0
  0
LINE
  5
2FB82
  8
0
 10
130.89496732345381
 20
208.05868873142029
 30
0.0
 11
130.29496732345379
 21
208.05868873142029
 31
0.0
  0
LINE
  5
2FB83
  8
0
 10
71.0619673234537
 20
198.2436887314197
 30
0.0
 11
72.294967323453875
 21
198.2436887314197
 31
0.0
  0
LINE
  5
2FB84
  8
0
 10
72.294967323453875
 20
206.24368873141981
 30
0.0
 11
71.0619673234537
 21
206.24368873141981
 31
0.0
  0
LINE
  5
2FB85
  8
0
 10
70.294967323453875
 20
199.01068873141961
 30
0.0
 11
71.0619673234537
 21
198.2436887314197
 31
0.0
  0
LINE
  5
2FB86
  8
0
 10
71.0619673234537
 20
206.24368873141981
 30
0.0
 11
70.294967323453875
 21
205.4766887314199
 31
0.0
  0
LINE
  5
2FB87
  8
0
 10
84.794967323453875
 20
198.2436887314197
 30
0.0
 11
85.294967323453875
 21
198.2436887314197
 31
0.0
  0
LINE
  5
2FB88
  8
0
 10
85.294967323453875
 20
206.24368873141981
 30
0.0
 11
84.794967323453875
 21
206.24368873141981
 31
0.0
  0
LINE
  5
2FB89
  8
0
 10
72.294967323453875
 20
196.4286887314201
 30
0.0
 11
74.794967323453875
 21
196.4286887314201
 31
0.0
  0
LINE
  5
2FB8A
  8
0
 10
74.794967323453875
 20
208.05868873142029
 30
0.0
 11
72.294967323453875
 21
208.05868873142029
 31
0.0
  0
LINE
  5
2FB8B
  8
0
 10
125.2949673234539
 20
198.2436887314197
 30
0.0
 11
125.7949673234538
 21
198.2436887314197
 31
0.0
  0
LINE
  5
2FB8C
  8
0
 10
125.7949673234538
 20
206.24368873141981
 30
0.0
 11
125.2949673234539
 21
206.24368873141981
 31
0.0
  0
LINE
  5
2FB8D
  8
0
 10
85.294967323453875
 20
196.2436887314197
 30
0.0
 11
87.794967323453875
 21
196.2436887314197
 31
0.0
  0
LINE
  5
2FB8E
  8
0
 10
122.7949673234538
 20
196.2436887314197
 30
0.0
 11
125.2949673234539
 21
196.2436887314197
 31
0.0
  0
LINE
  5
2FB8F
  8
0
 10
125.2949673234539
 20
208.24368873141981
 30
0.0
 11
122.7949673234538
 21
208.24368873141981
 31
0.0
  0
LINE
  5
2FB90
  8
0
 10
87.794967323453875
 20
208.24368873141981
 30
0.0
 11
85.294967323453875
 21
208.24368873141981
 31
0.0
  0
LINE
  5
2FB91
  8
0
 10
71.0619673234537
 20
206.24368873141981
 30
0.0
 11
71.0619673234537
 21
198.2436887314197
 31
0.0
  0
LINE
  5
2FB92
  8
0
 10
70.294967323453875
 20
205.4766887314199
 30
0.0
 11
70.294967323453875
 21
199.01068873141961
 31
0.0
  0
LINE
  5
2FB93
  8
0
 10
135.5949673234538
 20
208.50202206475299
 30
0.0
 11
135.5949673234538
 21
195.98535539808651
 31
0.0
  0
LINE
  5
2FB94
  8
0
 10
130.89496732345381
 20
208.50202206475299
 30
0.0
 11
130.89496732345381
 21
195.98535539808651
 31
0.0
  0
POLYLINE
  5
2FB95
  8
0
 66
     1
 10
0.0
 20
0.0
 30
0.0
  0
VERTEX
  5
3006A
  8
0
 10
135.33554761403821
 20
208.50202206475299
 30
0.0
  0
VERTEX
  5
3006B
  8
0
 10
135.41639226729649
 20
207.93984358663869
 30
0.0
  0
VERTEX
  5
3006C
  8
0
 10
135.5310026060497
 20
206.88405369391421
 30
0.0
  0
VERTEX
  5
3006D
  8
0
 10
135.58777718983399
 20
205.87529315000211
 30
0.0
  0
VERTEX
  5
3006E
  8
0
 10
135.5949673234538
 20
205.3728553980863
 30
0.0
  0
SEQEND
  5
3006F
  8
0
  0
POLYLINE
  5
2FB96
  8
0
 66
     1
 10
0.0
 20
0.0
 30
0.0
  0
VERTEX
  5
30070
  8
0
 10
135.5949673234538
 20
205.3728553980863
 30
0.0
  0
VERTEX
  5
30071
  8
0
 10
135.58777718983399
 20
204.87041764617061
 30
0.0
  0
VERTEX
  5
30072
  8
0
 10
135.53100260604941
 20
203.8616571022585
 30
0.0
  0
VERTEX
  5
30073
  8
0
 10
135.41639226729649
 20
202.80586720953491
 30
0.0
  0
VERTEX
  5
30074
  8
0
 10
135.33554761403821
 20
202.24368873141981
 30
0.0
  0
SEQEND
  5
30075
  8
0
  0
POLYLINE
  5
2FB97
  8
0
 66
     1
 10
0.0
 20
0.0
 30
0.0
  0
VERTEX
  5
30076
  8
0
 10
131.15438703286941
 20
202.24368873141981
 30
0.0
  0
VERTEX
  5
30077
  8
0
 10
131.0735423796113
 20
202.80586720953491
 30
0.0
  0
VERTEX
  5
30078
  8
0
 10
130.95893204085809
 20
203.8616571022585
 30
0.0
  0
VERTEX
  5
30079
  8
0
 10
130.9021574570738
 20
204.87041764617061
 30
0.0
  0
VERTEX
  5
3007A
  8
0
 10
130.89496732345381
 20
205.3728553980863
 30
0.0
  0
SEQEND
  5
3007B
  8
0
  0
POLYLINE
  5
2FB98
  8
0
 66
     1
 10
0.0
 20
0.0
 30
0.0
  0
VERTEX
  5
3007C
  8
0
 10
130.89496732345381
 20
205.3728553980863
 30
0.0
  0
VERTEX
  5
3007D
  8
0
 10
130.9021574570738
 20
205.87529315000211
 30
0.0
  0
VERTEX
  5
3007E
  8
0
 10
130.95893204085809
 20
206.88405369391421
 30
0.0
  0
VERTEX
  5
3007F
  8
0
 10
131.0735423796113
 20
207.93984358663869
 30
0.0
  0
VERTEX
  5
30080
  8
0
 10
131.15438703286941
 20
208.50202206475299
 30
0.0
  0
SEQEND
  5
30081
  8
0
  0
LINE
  5
2FB99
  8
0
 10
135.33554761403821
 20
202.24368873141981
 30
0.0
 11
131.15438703286941
 21
202.24368873141981
 31
0.0
  0
POLYLINE
  5
2FB9A
  8
0
 66
     1
 10
0.0
 20
0.0
 30
0.0
  0
VERTEX
  5
30082
  8
0
 10
135.33554761403821
 20
202.24368873141981
 30
0.0
  0
VERTEX
  5
30083
  8
0
 10
135.41639226729649
 20
201.68151025330459
 30
0.0
  0
VERTEX
  5
30084
  8
0
 10
135.53100260604941
 20
200.625720360581
 30
0.0
  0
VERTEX
  5
30085
  8
0
 10
135.58777718983399
 20
199.6169598166689
 30
0.0
  0
VERTEX
  5
30086
  8
0
 10
135.5949673234538
 20
199.11452206475309
 30
0.0
  0
SEQEND
  5
30087
  8
0
  0
POLYLINE
  5
2FB9B
  8
0
 66
     1
 10
0.0
 20
0.0
 30
0.0
  0
VERTEX
  5
30088
  8
0
 10
135.5949673234538
 20
199.11452206475309
 30
0.0
  0
VERTEX
  5
30089
  8
0
 10
135.58777718983399
 20
198.6120843128374
 30
0.0
  0
VERTEX
  5
3008A
  8
0
 10
135.53100260604941
 20
197.60332376892529
 30
0.0
  0
VERTEX
  5
3008B
  8
0
 10
135.41639226729649
 20
196.5475338762017
 30
0.0
  0
VERTEX
  5
3008C
  8
0
 10
135.33554761403821
 20
195.98535539808651
 30
0.0
  0
SEQEND
  5
3008D
  8
0
  0
POLYLINE
  5
2FB9C
  8
0
 66
     1
 10
0.0
 20
0.0
 30
0.0
  0
VERTEX
  5
3008E
  8
0
 10
131.15438703286941
 20
195.98535539808651
 30
0.0
  0
VERTEX
  5
3008F
  8
0
 10
131.0735423796113
 20
196.5475338762017
 30
0.0
  0
VERTEX
  5
30090
  8
0
 10
130.95893204085809
 20
197.60332376892529
 30
0.0
  0
VERTEX
  5
30091
  8
0
 10
130.9021574570738
 20
198.6120843128374
 30
0.0
  0
VERTEX
  5
30092
  8
0
 10
130.89496732345381
 20
199.11452206475309
 30
0.0
  0
SEQEND
  5
30093
  8
0
  0
POLYLINE
  5
2FB9D
  8
0
 66
     1
 10
0.0
 20
0.0
 30
0.0
  0
VERTEX
  5
30094
  8
0
 10
130.89496732345381
 20
199.11452206475309
 30
0.0
  0
VERTEX
  5
30095
  8
0
 10
130.9021574570738
 20
199.6169598166689
 30
0.0
  0
VERTEX
  5
30096
  8
0
 10
130.95893204085809
 20
200.625720360581
 30
0.0
  0
VERTEX
  5
30097
  8
0
 10
131.0735423796113
 20
201.68151025330459
 30
0.0
  0
VERTEX
  5
30098
  8
0
 10
131.15438703286941
 20
202.24368873141981
 30
0.0
  0
SEQEND
  5
30099
  8
0
  0
LINE
  5
2FB9E
  8
0
 10
72.294967323453875
 20
208.05868873142029
 30
0.0
 11
72.294967323453875
 21
196.4286887314201
 31
0.0
  0
LINE
  5
2FB9F
  8
0
 10
74.794967323453875
 20
208.50202206475299
 30
0.0
 11
74.794967323453875
 21
195.98535539808651
 31
0.0
  0
POLYLINE
  5
2FBA0
  8
0
 66
     1
 10
0.0
 20
0.0
 30
0.0
  0
VERTEX
  5
3009A
  8
0
 10
80.035547614038236
 20
208.50202206475299
 30
0.0
  0
VERTEX
  5
3009B
  8
0
 10
80.116392267296547
 20
207.93984358663869
 30
0.0
  0
VERTEX
  5
3009C
  8
0
 10
80.231002606049515
 20
206.88405369391421
 30
0.0
  0
VERTEX
  5
3009D
  8
0
 10
80.287777189833818
 20
205.87529315000211
 30
0.0
  0
VERTEX
  5
3009E
  8
0
 10
80.294967323453875
 20
205.3728553980863
 30
0.0
  0
SEQEND
  5
3009F
  8
0
  0
POLYLINE
  5
2FBA1
  8
0
 66
     1
 10
0.0
 20
0.0
 30
0.0
  0
VERTEX
  5
300A0
  8
0
 10
80.294967323453875
 20
205.3728553980863
 30
0.0
  0
VERTEX
  5
300A1
  8
0
 10
80.287777189833818
 20
204.87041764617061
 30
0.0
  0
VERTEX
  5
300A2
  8
0
 10
80.231002606049515
 20
203.8616571022585
 30
0.0
  0
VERTEX
  5
300A3
  8
0
 10
80.116392267296547
 20
202.80586720953491
 30
0.0
  0
VERTEX
  5
300A4
  8
0
 10
80.035547614038236
 20
202.24368873141981
 30
0.0
  0
SEQEND
  5
300A5
  8
0
  0
POLYLINE
  5
2FBA2
  8
0
 66
     1
 10
0.0
 20
0.0
 30
0.0
  0
VERTEX
  5
300A6
  8
0
 10
75.054387032869272
 20
202.24368873141981
 30
0.0
  0
VERTEX
  5
300A7
  8
0
 10
74.973542379611217
 20
202.80586720953491
 30
0.0
  0
VERTEX
  5
300A8
  8
0
 10
74.858932040858235
 20
203.8616571022585
 30
0.0
  0
VERTEX
  5
300A9
  8
0
 10
74.80215745707369
 20
204.87041764617061
 30
0.0
  0
VERTEX
  5
300AA
  8
0
 10
74.794967323453875
 20
205.3728553980863
 30
0.0
  0
SEQEND
  5
300AB
  8
0
  0
POLYLINE
  5
2FBA3
  8
0
 66
     1
 10
0.0
 20
0.0
 30
0.0
  0
VERTEX
  5
300AC
  8
0
 10
74.794967323453875
 20
205.3728553980863
 30
0.0
  0
VERTEX
  5
300AD
  8
0
 10
74.80215745707369
 20
205.87529315000211
 30
0.0
  0
VERTEX
  5
300AE
  8
0
 10
74.858932040858235
 20
206.88405369391421
 30
0.0
  0
VERTEX
  5
300AF
  8
0
 10
74.973542379611217
 20
207.93984358663869
 30
0.0
  0
VERTEX
  5
300B0
  8
0
 10
75.054387032869272
 20
208.50202206475299
 30
0.0
  0
SEQEND
  5
300B1
  8
0
  0
LINE
  5
2FBA4
  8
0
 10
80.035547614038236
 20
202.24368873141981
 30
0.0
 11
75.054387032869272
 21
202.24368873141981
 31
0.0
  0
POLYLINE
  5
2FBA5
  8
0
 66
     1
 10
0.0
 20
0.0
 30
0.0
  0
VERTEX
  5
300B2
  8
0
 10
80.035547614038236
 20
202.24368873141981
 30
0.0
  0
VERTEX
  5
300B3
  8
0
 10
80.116392267296547
 20
201.68151025330459
 30
0.0
  0
VERTEX
  5
300B4
  8
0
 10
80.231002606049515
 20
200.625720360581
 30
0.0
  0
VERTEX
  5
300B5
  8
0
 10
80.287777189833818
 20
199.6169598166689
 30
0.0
  0
VERTEX
  5
300B6
  8
0
 10
80.294967323453875
 20
199.11452206475309
 30
0.0
  0
SEQEND
  5
300B7
  8
0
  0
POLYLINE
  5
2FBA6
  8
0
 66
     1
 10
0.0
 20
0.0
 30
0.0
  0
VERTEX
  5
300B8
  8
0
 10
80.294967323453875
 20
199.11452206475309
 30
0.0
  0
VERTEX
  5
300B9
  8
0
 10
80.287777189833818
 20
198.6120843128374
 30
0.0
  0
VERTEX
  5
300BA
  8
0
 10
80.231002606049515
 20
197.60332376892529
 30
0.0
  0
VERTEX
  5
300BB
  8
0
 10
80.116392267296547
 20
196.5475338762017
 30
0.0
  0
VERTEX
  5
300BC
  8
0
 10
80.035547614038236
 20
195.98535539808651
 30
0.0
  0
SEQEND
  5
300BD
  8
0
  0
POLYLINE
  5
2FBA7
  8
0
 66
     1
 10
0.0
 20
0.0
 30
0.0
  0
VERTEX
  5
300BE
  8
0
 10
75.054387032869272
 20
195.98535539808651
 30
0.0
  0
VERTEX
  5
300BF
  8
0
 10
74.973542379611217
 20
196.5475338762017
 30
0.0
  0
VERTEX
  5
300C0
  8
0
 10
74.858932040858235
 20
197.60332376892529
 30
0.0
  0
VERTEX
  5
300C1
  8
0
 10
74.80215745707369
 20
198.6120843128374
 30
0.0
  0
VERTEX
  5
300C2
  8
0
 10
74.794967323453875
 20
199.11452206475309
 30
0.0
  0
SEQEND
  5
300C3
  8
0
  0
POLYLINE
  5
2FBA8
  8
0
 66
     1
 10
0.0
 20
0.0
 30
0.0
  0
VERTEX
  5
300C4
  8
0
 10
74.794967323453875
 20
199.11452206475309
 30
0.0
  0
VERTEX
  5
300C5
  8
0
 10
74.80215745707369
 20
199.6169598166689
 30
0.0
  0
VERTEX
  5
300C6
  8
0
 10
74.858932040858235
 20
200.625720360581
 30
0.0
  0
VERTEX
  5
300C7
  8
0
 10
74.973542379611217
 20
201.68151025330459
 30
0.0
  0
VERTEX
  5
300C8
  8
0
 10
75.054387032869272
 20
202.24368873141981
 30
0.0
  0
SEQEND
  5
300C9
  8
0
  0
LINE
  5
2FBA9
  8
0
 10
125.2949673234539
 20
208.24368873141981
 30
0.0
 11
125.2949673234539
 21
196.2436887314197
 31
0.0
  0
LINE
  5
2FBAA
  8
0
 10
85.294967323453875
 20
208.24368873141981
 30
0.0
 11
85.294967323453875
 21
196.2436887314197
 31
0.0
  0
LINE
  5
2FBAB
  8
0
 10
91.320979947988008
 20
139.7436887314197
 30
0.0
 11
119.2689546989197
 21
139.7436887314197
 31
0.0
  0
ARC
  5
2FBAD
  8
0
 10
91.320979947988008
 20
262.24368873141981
 30
0.0
 40
2.499999999999992
 50
151.64304714999901
 51
165.00000000000551
  0
ARC
  5
2FBAE
  8
0
 10
91.320979947988008
 20
142.2436887314197
 30
0.0
 40
2.499999999999992
 50
194.9999999999944
 51
270.0
  0
LINE
  5
2FBAF
  8
0
 10
87.794967323453875
 20
145.7436887314197
 30
0.0
 11
88.906165382265272
 21
141.5966411186636
 31
0.0
  0
LINE
  5
2FBB0
  8
0
 10
88.906165382265272
 20
262.89073634417582
 30
0.0
 11
87.794967323453875
 21
258.7436887314197
 31
0.0
  0
LINE
  5
2FBB1
  8
0
 10
122.7874673234537
 20
186.2436887314197
 30
0.0
 11
122.7949673234538
 21
186.2436887314197
 31
0.0
  0
LINE
  5
2FBB2
  8
0
 10
122.7874673234537
 20
186.2286887314194
 30
0.0
 11
122.7949673234538
 21
186.2286887314194
 31
0.0
  0
LINE
  5
2FBB3
  8
0
 10
121.68376926464219
 20
141.5966411186636
 30
0.0
 11
122.7949673234538
 21
145.7436887314197
 31
0.0
  0
LINE
  5
2FBB4
  8
0
 10
122.7949673234538
 20
258.7436887314197
 30
0.0
 11
121.68376926464219
 21
262.89073634417582
 31
0.0
  0
ARC
  5
2FBB5
  8
0
 10
119.2689546989197
 20
262.24368873141981
 30
0.0
 40
2.4999999999999778
 50
14.999999999994451
 51
28.35695285000098
  0
ARC
  5
2FBB6
  8
0
 10
119.2689546989197
 20
142.2436887314197
 30
0.0
 40
2.4999999999999849
 50
270.0
 51
345.00000000000563
  0
LINE
  5
2FBB7
  8
0
 10
91.320979947988008
 20
263.43109668683331
 30
0.0
 11
91.320979947988008
 21
139.7436887314197
 31
0.0
  0
LINE
  5
2FBB8
  8
0
 10
87.794967323453875
 20
258.7436887314197
 30
0.0
 11
87.794967323453875
 21
145.7436887314197
 31
0.0
  0
LINE
  5
2FBB9
  8
0
 10
122.7949673234538
 20
258.7436887314197
 30
0.0
 11
122.7949673234538
 21
145.7436887314197
 31
0.0
  0
LINE
  5
2FBBA
  8
0
 10
119.2689546989197
 20
263.43109668683331
 30
0.0
 11
119.2689546989197
 21
139.7436887314197
 31
0.0
  0
LINE
  5
2FBBB
  8
0
 10
130.89496732345381
 20
195.98535539808651
 30
0.0
 11
135.5949673234538
 21
195.98535539808651
 31
0.0
  0
LINE
  5
2FBBC
  8
0
 10
130.89496732345381
 20
208.50202206475299
 30
0.0
 11
135.5949673234538
 21
208.50202206475299
 31
0.0
  0
LINE
  5
2FBBD
  8
0
 10
74.794967323453875
 20
208.50202206475299
 30
0.0
 11
80.294967323453875
 21
208.50202206475299
 31
0.0
  0
LINE
  5
2FBBE
  8
0
 10
74.794967323453875
 20
195.98535539808651
 30
0.0
 11
80.294967323453875
 21
195.98535539808651
 31
0.0
  0
LINE
  5
2FBBF
  8
3
 10
70.294967323453875
 20
205.4766887314199
 30
0.0
 11
72.294967323453875
 21
205.4766887314199
 31
0.0
  0
LINE
  5
2FBC0
  8
3
 10
84.794967323453875
 20
205.4766887314199
 30
0.0
 11
85.294967323453875
 21
205.4766887314199
 31
0.0
  0
LINE
  5
2FBC1
  8
3
 10
125.2949673234539
 20
205.4766887314199
 30
0.0
 11
125.7949673234538
 21
205.4766887314199
 31
0.0
  0
LINE
  5
2FBC2
  8
3
 10
70.294967323453875
 20
199.01068873141961
 30
0.0
 11
72.294967323453875
 21
199.01068873141961
 31
0.0
  0
LINE
  5
2FBC3
  8
3
 10
84.794967323453875
 20
199.01068873141961
 30
0.0
 11
85.294967323453875
 21
199.01068873141961
 31
0.0
  0
LINE
  5
2FBC4
  8
3
 10
125.2949673234539
 20
199.01068873141961
 30
0.0
 11
125.7949673234538
 21
199.01068873141961
 31
0.0
  0
POLYLINE
  5
2FBC6
  8
0
 66
     1
 10
0.0
 20
0.0
 30
0.0
  0
VERTEX
  5
300CA
  8
0
 10
86.294967323453633
 20
265.15985911252568
 30
0.0
  0
VERTEX
  5
300CB
  8
0
 10
86.229211273079727
 20
265.0855356339361
 30
0.0
  0
VERTEX
  5
300CC
  8
0
 10
85.906232960013298
 20
264.71012502595931
 30
0.0
  0
VERTEX
  5
300CD
  8
0
 10
85.746093130729832
 20
264.52006372072168
 30
0.0
  0
VERTEX
  5
300CE
  8
0
 10
85.586862800811559
 20
264.32844351365111
 30
0.0
  0
VERTEX
  5
300CF
  8
0
 10
85.271160228785433
 20
263.9405621261767
 30
0.0
  0
VERTEX
  5
300D0
  8
0
 10
84.959183994724285
 20
263.54655304647082
 30
0.0
  0
VERTEX
  5
300D1
  8
0
 10
84.804611424732215
 20
263.34727349137938
 30
0.0
  0
SEQEND
  5
300D2
  8
0
  0
LINE
  5
2FC91
  8
0
 10
84.794967323453875
 20
255.74368873141981
 30
0.0
 11
80.394967323453315
 21
255.74368873141981
 31
0.0
  0
LINE
  5
2FC92
  8
0
 10
130.19496732345351
 20
255.74368873141981
 30
0.0
 11
125.7949673234539
 21
255.74368873141981
 31
0.0
  0
LINE
  5
2FCDE
  8
0
 10
121.2949673234541
 20
271.47301059164869
 30
0.0
 11
121.2949673234541
 21
272.60214967266529
 31
0.0
  0
LINE
  5
2FCDF
  8
0
 10
121.2949673234541
 20
272.60214967266529
 30
0.0
 11
89.294967323453648
 21
272.60214967266529
 31
0.0
  0
LINE
  5
2FCE0
  8
0
 10
89.294967323453648
 20
271.47301059164869
 30
0.0
 11
89.294967323453648
 21
272.60214967266529
 31
0.0
  0
TEXT
  5
2FD3C
  8
0
 62
     3
 10
0.0
 20
0.0
 30
0.0
 40
10.0
  1
CAF5-125SSF
  7
STANDARD1
  0
ENDSEC
  0
EOF
