  0
SECTION
  2
HEADER
  9
$ACADVER
  1
AC1009
  9
$INSBASE
 10
0.0
 20
0.0
 30
0.0
  9
$EXTMIN
 10
0.0
 20
-2.960436562073669
 30
0.0
  9
$EXTMAX
 10
623.32338669459375
 20
568.08921396455696
 30
0.0
  9
$LIMMIN
 10
0.0
 20
0.0
  9
$LIMMAX
 10
375.0
 20
270.0
  9
$ORTHOMODE
 70
     1
  9
$REGENMODE
 70
     1
  9
$FILLMODE
 70
     1
  9
$QTEXTMODE
 70
     0
  9
$MIRRTEXT
 70
     1
  9
$DRAGMODE
 70
     2
  9
$LTSCALE
 40
10.0
  9
$OSMODE
 70
  3071
  9
$ATTMODE
 70
     1
  9
$TEXTSIZE
 40
5.0
  9
$TRACEWID
 40
0.05
  9
$TEXTSTYLE
  7
STANDARD
  9
$CLAYER
  8
0
  9
$CELTYPE
  6
BYLAYER
  9
$CECOLOR
 62
     6
  9
$DIMSCALE
 40
2.0
  9
$DIMASZ
 40
3.0
  9
$DIMEXO
 40
2.0
  9
$DIMDLI
 40
0.38
  9
$DIMRND
 40
0.0
  9
$DIMDLE
 40
0.0
  9
$DIMEXE
 40
2.0
  9
$DIMTP
 40
0.0
  9
$DIMTM
 40
0.0
  9
$DIMTXT
 40
3.2000000000000002
  9
$DIMCEN
 40
0.0
  9
$DIMTSZ
 40
0.0
  9
$DIMTOL
 70
     0
  9
$DIMLIM
 70
     0
  9
$DIMTIH
 70
     0
  9
$DIMTOH
 70
     0
  9
$DIMSE1
 70
     0
  9
$DIMSE2
 70
     0
  9
$DIMTAD
 70
     1
  9
$DIMZIN
 70
     8
  9
$DIMBLK
  1

  9
$DIMASO
 70
     0
  9
$DIMSHO
 70
     0
  9
$DIMPOST
  1

  9
$DIMAPOST
  1

  9
$DIMALT
 70
     0
  9
$DIMALTD
 70
     2
  9
$DIMALTF
 40
25.399999999999999
  9
$DIMLFAC
 40
1.0
  9
$DIMTOFL
 70
     0
  9
$DIMTVP
 40
1.6000000000000001
  9
$DIMTIX
 70
     1
  9
$DIMSOXD
 70
     0
  9
$DIMSAH
 70
     0
  9
$DIMBLK1
  1

  9
$DIMBLK2
  1

  9
$DIMSTYLE
  2
STANDARD
  9
$DIMCLRD
 70
     0
  9
$DIMCLRE
 70
     0
  9
$DIMCLRT
 70
     0
  9
$DIMTFAC
 40
1.0
  9
$DIMGAP
 40
1.1999999999999991
  9
$LUNITS
 70
     2
  9
$LUPREC
 70
     4
  9
$SKETCHINC
 40
0.1
  9
$FILLETRAD
 40
0.0
  9
$AUNITS
 70
     0
  9
$AUPREC
 70
     4
  9
$MENU
  1
ACAD
  9
$ELEVATION
 40
0.0
  9
$PELEVATION
 40
0.0
  9
$THICKNESS
 40
0.0
  9
$LIMCHECK
 70
     0
  9
$BLIPMODE
 70
     0
  9
$CHAMFERA
 40
0.0
  9
$CHAMFERB
 40
0.0
  9
$SKPOLY
 70
     0
  9
$TDCREATE
 40
2448055.7149187499
  9
$TDUPDATE
 40
2456598.5601062728
  9
$TDINDWG
 40
3.1897212037
  9
$TDUSRTIMER
 40
3.1897212037
  9
$USRTIMER
 70
     1
  9
$ANGBASE
 50
0.0
  9
$ANGDIR
 70
     0
  9
$PDMODE
 70
     0
  9
$PDSIZE
 40
0.0
  9
$PLINEWID
 40
0.0
  9
$COORDS
 70
     1
  9
$SPLFRAME
 70
     0
  9
$SPLINETYPE
 70
     6
  9
$SPLINESEGS
 70
     8
  9
$ATTDIA
 70
     0
  9
$ATTREQ
 70
     1
  9
$HANDLING
 70
     1
  9
$HANDSEED
  5
3103C
  9
$SURFTAB1
 70
     6
  9
$SURFTAB2
 70
     6
  9
$SURFTYPE
 70
     6
  9
$SURFU
 70
     6
  9
$SURFV
 70
     6
  9
$UCSNAME
  2

  9
$UCSORG
 10
0.0
 20
0.0
 30
0.0
  9
$UCSXDIR
 10
1.0
 20
0.0
 30
0.0
  9
$UCSYDIR
 10
0.0
 20
1.0
 30
0.0
  9
$PUCSNAME
  2

  9
$PUCSORG
 10
0.0
 20
0.0
 30
0.0
  9
$PUCSXDIR
 10
1.0
 20
0.0
 30
0.0
  9
$PUCSYDIR
 10
0.0
 20
1.0
 30
0.0
  9
$USERI1
 70
     0
  9
$USERI2
 70
     0
  9
$USERI3
 70
     0
  9
$USERI4
 70
     0
  9
$USERI5
 70
     0
  9
$USERR1
 40
0.0
  9
$USERR2
 40
0.0
  9
$USERR3
 40
0.0
  9
$USERR4
 40
0.0
  9
$USERR5
 40
0.0
  9
$WORLDVIEW
 70
     1
  9
$SHADEDGE
 70
     3
  9
$SHADEDIF
 70
    70
  9
$TILEMODE
 70
     1
  9
$MAXACTVP
 70
    16
  9
$PLIMCHECK
 70
     0
  9
$PEXTMIN
 10
1.0000000000000000E+020
 20
1.0000000000000000E+020
 30
1.0000000000000000E+020
  9
$PEXTMAX
 10
-1.0000000000000000E+020
 20
-1.0000000000000000E+020
 30
-1.0000000000000000E+020
  9
$PLIMMIN
 10
0.0
 20
0.0
  9
$PLIMMAX
 10
12.0
 20
9.0
  9
$UNITMODE
 70
     0
  9
$VISRETAIN
 70
     0
  9
$PLINEGEN
 70
     1
  9
$PSLTSCALE
 70
     0
  0
ENDSEC
  0
SECTION
  2
TABLES
  0
TABLE
  2
VPORT
 70
     1
  0
VPORT
  2
*ACTIVE
 70
     0
 10
0.0
 20
0.0
 11
1.0
 21
1.0
 12
327.48545906357151
 22
282.57098821087249
 13
0.0
 23
0.0
 14
5.0
 24
5.0
 15
10.0
 25
10.0
 16
0.0
 26
0.0
 36
1.0
 17
0.0
 27
0.0
 37
0.0
 40
576.19284171529989
 41
1.831871345029239
 42
50.0
 43
0.0
 44
0.0
 50
0.0
 51
0.0
 71
     0
 72
   500
 73
     1
 74
     1
 75
     0
 76
     0
 77
     0
 78
     2
  0
ENDTAB
  0
TABLE
  2
LTYPE
 70
     3
  0
LTYPE
  2
CONTINUOUS
 70
     0
  3
実線
 72
    65
 73
     0
 40
0.0
  0
LTYPE
  2
CENTER
 70
     0
  3
____ _ ____ _ ____ _ ____ _ ____ _ ____ _ ____
 72
    65
 73
     4
 40
2.0
 49
1.25
 49
-0.25
 49
0.25
 49
-0.25
  0
LTYPE
  2
PHANTOM2
 70
     0
  3
___ _ _ ___ _ _ ___ _ _ ___ _ _
 72
    65
 73
     6
 40
1.25
 49
0.625
 49
-0.125
 49
0.125
 49
-0.125
 49
0.125
 49
-0.125
  0
ENDTAB
  0
TABLE
  2
LAYER
 70
     4
  0
LAYER
  2
0
 70
     0
 62
     7
  6
CONTINUOUS
  0
LAYER
  2
1
 70
     0
 62
     1
  6
CENTER
  0
LAYER
  2
DEFPOINTS
 70
     0
 62
     7
  6
CONTINUOUS
  0
LAYER
  2
3
 70
     0
 62
     3
  6
CONTINUOUS
  0
ENDTAB
  0
TABLE
  2
STYLE
 70
     3
  0
STYLE
  2
STANDARD
 70
     0
 40
0.0
 41
1.0
 50
0.0
 71
     0
 42
5.0
  3
simplex.shx
  4
bigfont.shx
  0
STYLE
  2
07500
 70
     0
 40
0.0
 41
0.75
 50
0.0
 71
     0
 42
0.2
  3
simplex.shx
  4
bigfont.shx
  0
STYLE
  2
STANDARD1
 70
     0
 40
0.0
 41
1.0
 50
0.0
 71
     0
 42
3.0
  3
txt
  4

  0
ENDTAB
  0
TABLE
  2
VIEW
 70
     2
  0
VIEW
  2
ALL
 70
     0
 40
270.0
 10
220.99159663865549
 20
135.0
 41
0.0
 11
0.0
 21
0.0
 31
1.0
 12
0.0
 22
0.0
 32
0.0
 42
0.0
 43
0.0
 44
0.0
 50
0.0
 71
     0
  0
VIEW
  2
OLE1
 70
     0
 40
168.2487151179721
 10
2892.3009567448912
 20
702.51600084347126
 41
162.5749581879237
 11
0.0
 21
0.0
 31
1.0
 12
0.0
 22
0.0
 32
0.0
 42
50.0
 43
0.0
 44
0.0
 50
0.0
 71
     0
  0
ENDTAB
  0
TABLE
  2
UCS
 70
     0
  0
ENDTAB
  0
TABLE
  2
APPID
 70
    48
  0
APPID
  2
ACAD
 70
     0
  0
APPID
  2
DCO15
 70
     0
  0
APPID
  2
GENIUS_GENOREF_13
 70
     0
  0
APPID
  2
GENIUS_GENOENT_13
 70
     0
  0
APPID
  2
GENIUS_GENBH_13
 70
     0
  0
APPID
  2
GENIUS_GENOBJ_13
 70
     0
  0
APPID
  2
GENIUS_GENODEF_13
 70
     0
  0
APPID
  2
GENIUS_GENOLIS_13
 70
     0
  0
APPID
  2
GENIUS_GENOBJ-NBEHI-BHF_13
 70
     0
  0
APPID
  2
GENIUS_GENOBJ-NBEHI-BHB_13
 70
     0
  0
APPID
  2
GENIUS_GENOBJ-F-PART_13
 70
     0
  0
APPID
  2
GENIUS_GEFSTDP_13
 70
     0
  0
APPID
  2
GENIUS_GENOBJ-N-RSSYM_13
 70
     0
  0
APPID
  2
GENIUS_GENSYMENT_13
 70
     0
  0
APPID
  2
GENIUS_GENOBJ-N-TIT_13
 70
     0
  0
APPID
  2
GENIUS_GENTITLE_13
 70
     0
  0
APPID
  2
GENIUS_GENZVEED_13
 70
     0
  0
APPID
  2
GENIUS_GENOBJ-N-LEADER_13
 70
     0
  0
APPID
  2
GENIUS_GENOBJ-N-FIL_13
 70
     0
  0
APPID
  2
GENIUS_GENOBJ-N-SEC_13
 70
     0
  0
APPID
  2
GENIUS_GENOBJ-N-CRS_13
 70
     0
  0
APPID
  2
GENIUS_GENOBJ-N-ZOO_13
 70
     0
  0
APPID
  2
GENIUS_GENZOO_13
 70
     0
  0
APPID
  2
GENIUS_GENOBJ-F-TOL_13
 70
     0
  0
APPID
  2
GENIUS_GENFIL_13
 70
     0
  0
APPID
  2
GENIUS_GENOBJ-N-CHA_13
 70
     0
  0
APPID
  2
_CALL_MAC$
 70
     0
  0
APPID
  2
ASM_BASE
 70
     0
  0
APPID
  2
ASM_EXPLO_VER_2_00
 70
     0
  0
APPID
  2
ASM_CADM_VER_12_00
 70
     0
  0
APPID
  2
ASM_BASEFORO
 70
     0
  0
APPID
  2
ASM_BASETRAVI
 70
     0
  0
APPID
  2
ASM_BASETRAVI1
 70
     0
  0
APPID
  2
ASM_GRUPPI
 70
     0
  0
APPID
  2
ASM_CADM_ALBERO
 70
     0
  0
APPID
  2
ASM_GOLE
 70
     0
  0
APPID
  2
ACAD_MLEADERVER
 70
     0
  0
APPID
  2
ACAD_DSTYLE_DIMJAG
 70
     0
  0
APPID
  2
ACAD_DSTYLE_DIMTALN
 70
     0
  0
APPID
  2
ACAD_EXEMPT_FROM_CAD_STANDARDS
 70
     0
  0
APPID
  2
ACAD_DSTYLE_DIMRADIAL_EXTENSION
 70
     0
  0
APPID
  2
ACAD_PSEXT
 70
     0
  0
APPID
  2
ACAD_DSTYLE_DIMBREAK
 70
     0
  0
APPID
  2
ACAECLAYERSTANDARD
 70
     0
  0
APPID
  2
ACCMTRANSPARENCY
 70
     0
  0
APPID
  2
GRADIENTCOLOR1ACI
 70
     0
  0
APPID
  2
GRADIENTCOLOR2ACI
 70
     0
  0
APPID
  2
ACAD_NAV_VCDISPLAY
 70
     0
  0
ENDTAB
  0
TABLE
  2
DIMSTYLE
 70
     1
  0
DIMSTYLE
  2
STANDARD
 70
     0
  3

  4

  5

  6

  7

 40
1.0
 41
0.18
 42
0.0625
 43
0.38
 44
0.18
 45
0.0
 46
0.0
 47
0.0
 48
0.0
140
0.18
141
0.09
142
0.0
143
25.399999999999999
144
1.0
145
0.0
146
1.0
147
0.09
 71
     0
 72
     0
 73
     1
 74
     1
 75
     0
 76
     0
 77
     0
 78
     0
170
     0
171
     2
172
     0
173
     0
174
     0
175
     0
176
     0
177
     0
178
     0
  0
ENDTAB
  0
ENDSEC
  0
SECTION
  2
BLOCKS
  0
BLOCK
  8
0
  2
$MODEL_SPACE
 70
     0
 10
0.0
 20
0.0
 30
0.0
  3
$MODEL_SPACE
  1

  0
ENDBLK
  5
36
  8
0
  0
BLOCK
 67
     1
  8
0
  2
$PAPER_SPACE
 70
     0
 10
0.0
 20
0.0
 30
0.0
  3
$PAPER_SPACE
  1

  0
ENDBLK
  5
34
 67
     1
  8
0
  0
ENDSEC
  0
SECTION
  2
ENTITIES
  0
LINE
  5
30753
  8
0
 10
373.46491379589912
 20
347.11739688357471
 30
0.0
 11
373.46491379589912
 21
343.11739622792362
 31
0.0
  0
LINE
  5
30754
  8
0
 10
449.86491253526083
 20
343.11739622792362
 30
0.0
 11
449.86491253526083
 21
347.11739688357471
 31
0.0
  0
LINE
  5
30755
  8
0
 10
375.28834281415811
 20
354.11739616831892
 30
0.0
 11
376.52263114155397
 21
347.11739688357471
 31
0.0
  0
LINE
  5
30756
  8
0
 10
446.80719425828329
 20
347.11739688357471
 30
0.0
 11
448.04148724229208
 21
354.11739616831892
 31
0.0
  0
LINE
  5
30758
  8
0
 10
361.66491358467511
 20
354.11739616831892
 30
0.0
 11
461.66491111667028
 21
354.11739616831892
 31
0.0
  0
LINE
  5
30759
  8
0
 10
361.66491358467511
 20
354.11739616831892
 30
0.0
 11
361.66491358467511
 21
358.11739682397001
 31
0.0
  0
LINE
  5
3075A
  8
0
 10
361.66491358467511
 20
358.11739682397001
 30
0.0
 11
461.66491111667028
 21
358.11739682397001
 31
0.0
  0
LINE
  5
3075B
  8
0
 10
461.66491111667028
 20
354.11739616831892
 30
0.0
 11
461.66491111667028
 21
358.11739682397001
 31
0.0
  0
LINE
  5
30761
  8
0
 10
383.86563373656139
 20
343.11739622792362
 30
0.0
 11
383.86563373656139
 21
262.84810842191928
 31
0.0
  0
LINE
  5
30762
  8
0
 10
449.86491253526083
 20
343.11739622792362
 30
0.0
 11
448.16491356046072
 21
343.11739622792362
 31
0.0
  0
POLYLINE
  5
30763
  8
0
 66
     1
 10
0.0
 20
0.0
 30
0.0
 70
   128
  0
VERTEX
  5
30BC6
  8
0
 10
448.16491356046072
 20
343.11739622792362
 30
0.0
  0
VERTEX
  5
30BC7
  8
0
 10
447.52776971013418
 20
342.32200204571842
 30
0.0
  0
VERTEX
  5
30BC8
  8
0
 10
446.79307540805212
 20
341.40483557423698
 30
0.0
  0
VERTEX
  5
30BC9
  8
0
 10
445.9628423109757
 20
340.36839275797962
 30
0.0
  0
VERTEX
  5
30BCA
  8
0
 10
445.03931304366461
 20
339.21549736699222
 30
0.0
  0
VERTEX
  5
30BCB
  8
0
 10
444.02501335294119
 20
337.94927119454502
 30
0.0
  0
VERTEX
  5
30BCC
  8
0
 10
442.92269995362631
 20
336.57317876061552
 30
0.0
  0
VERTEX
  5
30BCD
  8
0
 10
441.73536797911993
 20
335.0909453555023
 30
0.0
  0
VERTEX
  5
30BCE
  8
0
 10
440.46624353082052
 20
333.50660919388878
 30
0.0
  0
VERTEX
  5
30BCF
  8
0
 10
439.118783678125
 20
331.82447671136009
 30
0.0
  0
VERTEX
  5
30BD0
  8
0
 10
437.69664665610662
 20
330.04913001498329
 30
0.0
  0
VERTEX
  5
30BD1
  8
0
 10
436.20371421725622
 20
328.18538963040459
 30
0.0
  0
VERTEX
  5
30BD2
  8
0
 10
434.64403202683798
 20
326.23833685359108
 30
0.0
  0
VERTEX
  5
30BD3
  8
0
 10
433.02185436637268
 20
324.21325414618599
 30
0.0
  0
VERTEX
  5
30BD4
  8
0
 10
431.34157707841268
 20
322.1156549378311
 30
0.0
  0
VERTEX
  5
30BD5
  8
0
 10
429.60778972060552
 20
319.95124637326347
 30
0.0
  0
VERTEX
  5
30BD6
  8
0
 10
427.82520105988851
 20
317.72591068586462
 30
0.0
  0
VERTEX
  5
30BD7
  8
0
 10
425.9986539736496
 20
315.44570519765972
 30
0.0
  0
VERTEX
  5
30BD8
  8
0
 10
424.13312172443739
 20
313.1168287917053
 30
0.0
  0
VERTEX
  5
30BD9
  8
0
 10
422.23367443234793
 20
310.74561818679922
 30
0.0
  0
VERTEX
  5
30BDA
  8
0
 10
420.30548280031547
 20
308.33852186044811
 30
0.0
  0
VERTEX
  5
30BDB
  8
0
 10
418.35378831179008
 20
305.9020888729965
 30
0.0
  0
VERTEX
  5
30BDC
  8
0
 10
416.3839032307373
 20
303.44293906530493
 30
0.0
  0
VERTEX
  5
30BDD
  8
0
 10
414.40118079931608
 20
300.96777050933002
 30
0.0
  0
VERTEX
  5
30BDE
  8
0
 10
412.41101896316877
 20
298.48331107935059
 30
0.0
  0
VERTEX
  5
30BDF
  8
0
 10
410.4188231185185
 20
295.99631472667812
 30
0.0
  0
VERTEX
  5
30BE0
  8
0
 10
408.43002101333008
 20
293.51355030378448
 30
0.0
  0
VERTEX
  5
30BE1
  8
0
 10
406.45001431853638
 20
291.04177176198118
 30
0.0
  0
VERTEX
  5
30BE2
  8
0
 10
404.48419352919927
 20
288.58770138761162
 30
0.0
  0
VERTEX
  5
30BE3
  8
0
 10
402.53790443689689
 20
286.15800931295507
 30
0.0
  0
VERTEX
  5
30BE4
  8
0
 10
400.61643695385328
 20
283.75930979093658
 30
0.0
  0
VERTEX
  5
30BE5
  8
0
 10
398.7250213876473
 20
281.39812394222372
 30
0.0
  0
VERTEX
  5
30BE6
  8
0
 10
396.86880236418119
 20
279.08087602993601
 30
0.0
  0
VERTEX
  5
30BE7
  8
0
 10
395.05282765180942
 20
276.8138673826133
 30
0.0
  0
VERTEX
  5
30BE8
  8
0
 10
393.28203698546758
 20
274.60326335569971
 30
0.0
  0
VERTEX
  5
30BE9
  8
0
 10
391.5612434402214
 20
272.45507749905943
 30
0.0
  0
VERTEX
  5
30BEA
  8
0
 10
389.89513156862131
 20
270.37515386184799
 30
0.0
  0
VERTEX
  5
30BEB
  8
0
 10
388.28823132367
 20
268.36914836606138
 30
0.0
  0
VERTEX
  5
30BEC
  8
0
 10
386.7449143335329
 20
266.44251669934152
 30
0.0
  0
VERTEX
  5
30BED
  8
0
 10
385.26937713773123
 20
264.60049987947701
 30
0.0
  0
VERTEX
  5
30BEE
  8
0
 10
383.86563373656139
 20
262.84810842191928
 30
0.0
  0
SEQEND
  5
30BEF
  8
0
  0
LINE
  5
30765
  8
0
 10
373.46491379589912
 20
347.11739688357471
 30
0.0
 11
449.86491253526083
 21
347.11739688357471
 31
0.0
  0
LINE
  5
30766
  8
0
 10
358.86491345168218
 20
249.61739859720819
 30
0.0
 11
368.46491390765777
 21
249.61739859720819
 31
0.0
  0
ARC
  5
30767
  8
0
 10
358.86491367966983
 20
259.61739837369078
 30
0.0
 40
9.9999999999998899
 50
166.1009851026347
 51
270.0
  0
LINE
  5
30768
  8
0
 10
367.86491352991328
 20
337.61739998301618
 30
0.0
 11
349.15770752282009
 21
262.01951189143711
 31
0.0
  0
LINE
  5
30769
  8
0
 10
367.86491352991328
 20
343.11739622792362
 30
0.0
 11
367.86491352991328
 21
337.61739998301618
 31
0.0
  0
LINE
  5
3076A
  8
0
 10
383.86563373656139
 20
343.11739622792362
 30
0.0
 11
367.86491352991328
 21
343.11739622792362
 31
0.0
  0
ARC
  5
3076B
  8
0
 10
368.46491367966928
 20
259.61739837369208
 30
0.0
 40
10.00000000000146
 50
270.0
 51
321.30371600708497
  0
LINE
  5
3076C
  8
0
 10
376.26962339432112
 20
253.36547789340969
 30
0.0
 11
383.86563373656139
 21
262.84810842191928
 31
0.0
  0
LINE
  5
307C9
  8
0
 10
540.3608062906942
 20
347.11739688357471
 30
0.0
 11
540.3608062906942
 21
297.5518953724777
 31
0.0
  0
LINE
  5
307CA
  8
0
 10
616.76080316741081
 20
297.5518953724777
 30
0.0
 11
616.76080316741081
 21
347.11739688357471
 31
0.0
  0
LINE
  5
307CB
  8
0
 10
542.18423530895325
 20
354.11739616831892
 30
0.0
 11
543.41852084238144
 21
347.11739688357471
 31
0.0
  0
LINE
  5
307CC
  8
0
 10
613.70308861572346
 20
347.11739688357471
 30
0.0
 11
614.93737414915165
 21
354.11739616831892
 31
0.0
  0
LINE
  5
307CD
  8
0
 10
598.56080428201756
 20
251.61739799371119
 30
0.0
 11
601.56080477375588
 21
251.61739799371119
 31
0.0
  0
LINE
  5
307CE
  8
0
 10
601.56080477375588
 20
267.61739875367039
 30
0.0
 11
598.56080428201756
 21
267.61739875367039
 31
0.0
  0
LINE
  5
307CF
  8
0
 10
556.27843715686413
 20
251.61739799371119
 30
0.0
 11
558.56080517608825
 21
251.61739799371119
 31
0.0
  0
LINE
  5
307D0
  8
0
 10
558.56080517608825
 20
267.61739875367039
 30
0.0
 11
556.27843715686413
 21
267.61739875367039
 31
0.0
  0
LINE
  5
307D3
  8
0
 10
555.56080468434902
 20
255.617398183701
 30
0.0
 11
556.27843715686504
 21
255.617398183701
 31
0.0
  0
LINE
  5
307D4
  8
0
 10
556.27843715686504
 20
263.61739856368058
 30
0.0
 11
555.56080468434902
 21
263.61739856368058
 31
0.0
  0
LINE
  5
307D5
  8
0
 10
551.64317205984287
 20
255.617398183701
 30
0.0
 11
552.36080453235706
 21
255.617398183701
 31
0.0
  0
LINE
  5
307D6
  8
0
 10
551.72198802668663
 20
263.61739856368058
 30
0.0
 11
551.64317205984287
 21
263.61739856368058
 31
0.0
  0
LINE
  5
307D7
  8
0
 10
564.58681706775042
 20
197.1173983736908
 30
0.0
 11
592.5347923903546
 21
197.1173983736908
 31
0.0
  0
LINE
  5
307D8
  8
0
 10
592.5347923903546
 20
322.11739837369078
 30
0.0
 11
564.58681706775042
 21
322.11739837369078
 31
0.0
  0
ARC
  5
307D9
  8
0
 10
592.5347921045186
 20
199.6173983736908
 30
0.0
 40
2.5000000000004259
 50
270.0
 51
345.00000000000239
  0
ARC
  5
307DA
  8
0
 10
592.5347921045186
 20
319.61739837369032
 30
0.0
 40
2.5000000000004921
 50
15.00000000000473
 51
90.0
  0
ARC
  5
307DB
  8
0
 10
564.58681735358721
 20
199.6173983736908
 30
0.0
 40
2.5000000000004259
 50
194.99999999999761
 51
270.0
  0
ARC
  5
307DC
  8
0
 10
564.58681735358721
 20
319.61739837369032
 30
0.0
 40
2.5000000000004259
 50
90.0
 51
164.9999999999952
  0
LINE
  5
307DD
  8
0
 10
594.9496065868816
 20
198.97035031756511
 30
0.0
 11
596.06080480355831
 21
203.11739935716739
 31
0.0
  0
LINE
  5
307DE
  8
0
 10
596.06080480355831
 20
316.11739739021408
 30
0.0
 11
594.9496065868816
 21
320.26444642981642
 31
0.0
  0
LINE
  5
307DF
  8
0
 10
562.17200287122432
 20
320.26444642981642
 30
0.0
 11
561.0608046545475
 21
316.11739739021408
 31
0.0
  0
LINE
  5
307E0
  8
0
 10
561.0608046545475
 20
203.11739935716739
 30
0.0
 11
562.17200287122432
 21
198.97035031756511
 31
0.0
  0
LINE
  5
307E1
  8
0
 10
561.0608046545475
 20
279.11739877602213
 30
0.0
 11
558.56080517608825
 21
278.98637845358007
 31
0.0
  0
LINE
  5
307E2
  8
0
 10
558.56080517608825
 20
240.24841829380151
 30
0.0
 11
561.0608046545475
 21
240.1173979713594
 31
0.0
  0
LINE
  5
307E3
  8
0
 10
596.06080480355831
 20
240.1173979713594
 30
0.0
 11
598.56080428201756
 21
240.24841829380151
 31
0.0
  0
LINE
  5
307E4
  8
0
 10
598.56080428201756
 20
278.98637845358007
 30
0.0
 11
596.06080480355831
 21
279.11739877602213
 31
0.0
  0
LINE
  5
307E5
  8
0
 10
621.06080517608734
 20
354.11739616831892
 30
0.0
 11
621.06080517608734
 21
358.11739682397001
 31
0.0
  0
LINE
  5
307EC
  8
0
 10
536.06080428201756
 20
354.11739616831892
 30
0.0
 11
536.06080428201756
 21
358.11739682397001
 31
0.0
  0
LINE
  5
307ED
  8
0
 10
536.06080428201756
 20
358.11739682397001
 30
0.0
 11
621.06080517608734
 21
358.11739682397001
 31
0.0
  0
LINE
  5
307EE
  8
0
 10
536.06080428201756
 20
354.11739616831892
 30
0.0
 11
621.06080517608734
 21
354.11739616831892
 31
0.0
  0
POLYLINE
  5
307EF
  8
0
 10
604.76080473963293
 20
262.84810846862086
 30
0.0
 66
     1
 70
     8
  0
VERTEX
  8
0
  5
30C2C
 10
604.761
 20
262.848
 30
0.000000
  70
    32
  0
VERTEX
  8
0
  5
30C2D
 10
605.210
 20
263.386
 30
0.000000
  70
    32
  0
VERTEX
  8
0
  5
30C2E
 10
605.653
 20
263.933
 30
0.000000
  70
    32
  0
VERTEX
  8
0
  5
30C2F
 10
606.088
 20
264.488
 30
0.000000
  70
    32
  0
VERTEX
  8
0
  5
30C30
 10
606.516
 20
265.053
 30
0.000000
  70
    32
  0
VERTEX
  8
0
  5
30C31
 10
606.937
 20
265.626
 30
0.000000
  70
    32
  0
VERTEX
  8
0
  5
30C32
 10
607.350
 20
266.208
 30
0.000000
  70
    32
  0
VERTEX
  8
0
  5
30C33
 10
607.755
 20
266.797
 30
0.000000
  70
    32
  0
VERTEX
  8
0
  5
30C34
 10
608.153
 20
267.396
 30
0.000000
  70
    32
  0
VERTEX
  8
0
  5
30C35
 10
608.543
 20
268.002
 30
0.000000
  70
    32
  0
VERTEX
  8
0
  5
30C36
 10
608.925
 20
268.616
 30
0.000000
  70
    32
  0
VERTEX
  8
0
  5
30C37
 10
609.298
 20
269.237
 30
0.000000
  70
    32
  0
VERTEX
  8
0
  5
30C38
 10
609.664
 20
269.867
 30
0.000000
  70
    32
  0
VERTEX
  8
0
  5
30C39
 10
610.021
 20
270.503
 30
0.000000
  70
    32
  0
VERTEX
  8
0
  5
30C3A
 10
610.370
 20
271.147
 30
0.000000
  70
    32
  0
VERTEX
  8
0
  5
30C3B
 10
610.711
 20
271.797
 30
0.000000
  70
    32
  0
VERTEX
  8
0
  5
30C3C
 10
611.043
 20
272.455
 30
0.000000
  70
    32
  0
VERTEX
  8
0
  5
30C3D
 10
611.366
 20
273.119
 30
0.000000
  70
    32
  0
VERTEX
  8
0
  5
30C3E
 10
611.681
 20
273.790
 30
0.000000
  70
    32
  0
VERTEX
  8
0
  5
30C3F
 10
611.987
 20
274.467
 30
0.000000
  70
    32
  0
VERTEX
  8
0
  5
30C40
 10
612.284
 20
275.150
 30
0.000000
  70
    32
  0
VERTEX
  8
0
  5
30C41
 10
612.572
 20
275.839
 30
0.000000
  70
    32
  0
VERTEX
  8
0
  5
30C42
 10
612.851
 20
276.534
 30
0.000000
  70
    32
  0
VERTEX
  8
0
  5
30C43
 10
613.120
 20
277.235
 30
0.000000
  70
    32
  0
VERTEX
  8
0
  5
30C44
 10
613.381
 20
277.941
 30
0.000000
  70
    32
  0
VERTEX
  8
0
  5
30C45
 10
613.633
 20
278.652
 30
0.000000
  70
    32
  0
VERTEX
  8
0
  5
30C46
 10
613.875
 20
279.368
 30
0.000000
  70
    32
  0
VERTEX
  8
0
  5
30C47
 10
614.107
 20
280.089
 30
0.000000
  70
    32
  0
VERTEX
  8
0
  5
30C48
 10
614.331
 20
280.814
 30
0.000000
  70
    32
  0
VERTEX
  8
0
  5
30C49
 10
614.544
 20
281.544
 30
0.000000
  70
    32
  0
VERTEX
  8
0
  5
30C4A
 10
614.749
 20
282.279
 30
0.000000
  70
    32
  0
VERTEX
  8
0
  5
30C4B
 10
614.943
 20
283.017
 30
0.000000
  70
    32
  0
VERTEX
  8
0
  5
30C4C
 10
615.128
 20
283.759
 30
0.000000
  70
    32
  0
VERTEX
  8
0
  5
30C4D
 10
615.303
 20
284.505
 30
0.000000
  70
    32
  0
VERTEX
  8
0
  5
30C4E
 10
615.469
 20
285.255
 30
0.000000
  70
    32
  0
VERTEX
  8
0
  5
30C4F
 10
615.624
 20
286.007
 30
0.000000
  70
    32
  0
VERTEX
  8
0
  5
30C50
 10
615.770
 20
286.763
 30
0.000000
  70
    32
  0
VERTEX
  8
0
  5
30C51
 10
615.906
 20
287.521
 30
0.000000
  70
    32
  0
VERTEX
  8
0
  5
30C52
 10
616.032
 20
288.283
 30
0.000000
  70
    32
  0
VERTEX
  8
0
  5
30C53
 10
616.148
 20
289.046
 30
0.000000
  70
    32
  0
VERTEX
  8
0
  5
30C54
 10
616.254
 20
289.812
 30
0.000000
  70
    32
  0
VERTEX
  8
0
  5
30C55
 10
616.350
 20
290.580
 30
0.000000
  70
    32
  0
VERTEX
  8
0
  5
30C56
 10
616.436
 20
291.350
 30
0.000000
  70
    32
  0
VERTEX
  8
0
  5
30C57
 10
616.512
 20
292.121
 30
0.000000
  70
    32
  0
VERTEX
  8
0
  5
30C58
 10
616.578
 20
292.894
 30
0.000000
  70
    32
  0
VERTEX
  8
0
  5
30C59
 10
616.634
 20
293.668
 30
0.000000
  70
    32
  0
VERTEX
  8
0
  5
30C5A
 10
616.680
 20
294.444
 30
0.000000
  70
    32
  0
VERTEX
  8
0
  5
30C5B
 10
616.715
 20
295.220
 30
0.000000
  70
    32
  0
VERTEX
  8
0
  5
30C5C
 10
616.740
 20
295.996
 30
0.000000
  70
    32
  0
VERTEX
  8
0
  5
30C5D
 10
616.756
 20
296.773
 30
0.000000
  70
    32
  0
VERTEX
  8
0
  5
30C5E
 10
616.761
 20
297.551
 30
0.000000
  70
    32
  0
VERTEX
  8
0
  5
30C5F
 10
616.756
 20
298.328
 30
0.000000
  70
    32
  0
VERTEX
  8
0
  5
30C60
 10
616.741
 20
299.105
 30
0.000000
  70
    32
  0
VERTEX
  8
0
  5
30C61
 10
616.715
 20
299.882
 30
0.000000
  70
    32
  0
VERTEX
  8
0
  5
30C62
 10
616.680
 20
300.658
 30
0.000000
  70
    32
  0
VERTEX
  8
0
  5
30C63
 10
616.634
 20
301.433
 30
0.000000
  70
    32
  0
VERTEX
  8
0
  5
30C64
 10
616.578
 20
302.207
 30
0.000000
  70
    32
  0
VERTEX
  8
0
  5
30C65
 10
616.513
 20
302.980
 30
0.000000
  70
    32
  0
VERTEX
  8
0
  5
30C66
 10
616.437
 20
303.751
 30
0.000000
  70
    32
  0
VERTEX
  8
0
  5
30C67
 10
616.351
 20
304.521
 30
0.000000
  70
    32
  0
VERTEX
  8
0
  5
30C68
 10
616.255
 20
305.289
 30
0.000000
  70
    32
  0
VERTEX
  8
0
  5
30C69
 10
616.149
 20
306.055
 30
0.000000
  70
    32
  0
VERTEX
  8
0
  5
30C6A
 10
616.033
 20
306.819
 30
0.000000
  70
    32
  0
VERTEX
  8
0
  5
30C6B
 10
615.907
 20
307.580
 30
0.000000
  70
    32
  0
VERTEX
  8
0
  5
30C6C
 10
615.771
 20
308.339
 30
0.000000
  70
    32
  0
VERTEX
  8
0
  5
30C6D
 10
615.625
 20
309.094
 30
0.000000
  70
    32
  0
VERTEX
  8
0
  5
30C6E
 10
615.469
 20
309.847
 30
0.000000
  70
    32
  0
VERTEX
  8
0
  5
30C6F
 10
615.304
 20
310.596
 30
0.000000
  70
    32
  0
VERTEX
  8
0
  5
30C70
 10
615.129
 20
311.342
 30
0.000000
  70
    32
  0
VERTEX
  8
0
  5
30C71
 10
614.944
 20
312.084
 30
0.000000
  70
    32
  0
VERTEX
  8
0
  5
30C72
 10
614.749
 20
312.823
 30
0.000000
  70
    32
  0
VERTEX
  8
0
  5
30C73
 10
614.545
 20
313.557
 30
0.000000
  70
    32
  0
VERTEX
  8
0
  5
30C74
 10
614.331
 20
314.287
 30
0.000000
  70
    32
  0
VERTEX
  8
0
  5
30C75
 10
614.108
 20
315.013
 30
0.000000
  70
    32
  0
VERTEX
  8
0
  5
30C76
 10
613.875
 20
315.734
 30
0.000000
  70
    32
  0
VERTEX
  8
0
  5
30C77
 10
613.633
 20
316.450
 30
0.000000
  70
    32
  0
VERTEX
  8
0
  5
30C78
 10
613.382
 20
317.161
 30
0.000000
  70
    32
  0
VERTEX
  8
0
  5
30C79
 10
613.121
 20
317.867
 30
0.000000
  70
    32
  0
VERTEX
  8
0
  5
30C7A
 10
612.851
 20
318.567
 30
0.000000
  70
    32
  0
VERTEX
  8
0
  5
30C7B
 10
612.573
 20
319.262
 30
0.000000
  70
    32
  0
VERTEX
  8
0
  5
30C7C
 10
612.285
 20
319.951
 30
0.000000
  70
    32
  0
VERTEX
  8
0
  5
30C7D
 10
611.988
 20
320.634
 30
0.000000
  70
    32
  0
VERTEX
  8
0
  5
30C7E
 10
611.682
 20
321.312
 30
0.000000
  70
    32
  0
VERTEX
  8
0
  5
30C7F
 10
611.367
 20
321.982
 30
0.000000
  70
    32
  0
VERTEX
  8
0
  5
30C80
 10
611.044
 20
322.647
 30
0.000000
  70
    32
  0
VERTEX
  8
0
  5
30C81
 10
610.712
 20
323.304
 30
0.000000
  70
    32
  0
VERTEX
  8
0
  5
30C82
 10
610.371
 20
323.955
 30
0.000000
  70
    32
  0
VERTEX
  8
0
  5
30C83
 10
610.023
 20
324.599
 30
0.000000
  70
    32
  0
VERTEX
  8
0
  5
30C84
 10
609.665
 20
325.235
 30
0.000000
  70
    32
  0
VERTEX
  8
0
  5
30C85
 10
609.300
 20
325.864
 30
0.000000
  70
    32
  0
VERTEX
  8
0
  5
30C86
 10
608.926
 20
326.486
 30
0.000000
  70
    32
  0
VERTEX
  8
0
  5
30C87
 10
608.544
 20
327.100
 30
0.000000
  70
    32
  0
VERTEX
  8
0
  5
30C88
 10
608.154
 20
327.706
 30
0.000000
  70
    32
  0
VERTEX
  8
0
  5
30C89
 10
607.757
 20
328.304
 30
0.000000
  70
    32
  0
VERTEX
  8
0
  5
30C8A
 10
607.351
 20
328.894
 30
0.000000
  70
    32
  0
VERTEX
  8
0
  5
30C8B
 10
606.938
 20
329.476
 30
0.000000
  70
    32
  0
VERTEX
  8
0
  5
30C8C
 10
606.518
 20
330.049
 30
0.000000
  70
    32
  0
VERTEX
  8
0
  5
30C8D
 10
606.090
 20
330.614
 30
0.000000
  70
    32
  0
VERTEX
  8
0
  5
30C8E
 10
605.654
 20
331.169
 30
0.000000
  70
    32
  0
VERTEX
  8
0
  5
30C8F
 10
605.212
 20
331.716
 30
0.000000
  70
    32
  0
VERTEX
  8
0
  5
30C90
 10
604.762
 20
332.254
 30
0.000000
  70
    32
  0
VERTEX
  8
0
  5
30C91
 10
604.306
 20
332.782
 30
0.000000
  70
    32
  0
VERTEX
  8
0
  5
30C92
 10
603.842
 20
333.302
 30
0.000000
  70
    32
  0
VERTEX
  8
0
  5
30C93
 10
603.372
 20
333.811
 30
0.000000
  70
    32
  0
VERTEX
  8
0
  5
30C94
 10
602.896
 20
334.311
 30
0.000000
  70
    32
  0
VERTEX
  8
0
  5
30C95
 10
602.412
 20
334.802
 30
0.000000
  70
    32
  0
VERTEX
  8
0
  5
30C96
 10
601.923
 20
335.282
 30
0.000000
  70
    32
  0
VERTEX
  8
0
  5
30C97
 10
601.427
 20
335.752
 30
0.000000
  70
    32
  0
VERTEX
  8
0
  5
30C98
 10
600.925
 20
336.212
 30
0.000000
  70
    32
  0
VERTEX
  8
0
  5
30C99
 10
600.418
 20
336.662
 30
0.000000
  70
    32
  0
VERTEX
  8
0
  5
30C9A
 10
599.904
 20
337.102
 30
0.000000
  70
    32
  0
VERTEX
  8
0
  5
30C9B
 10
599.385
 20
337.531
 30
0.000000
  70
    32
  0
VERTEX
  8
0
  5
30C9C
 10
598.860
 20
337.949
 30
0.000000
  70
    32
  0
VERTEX
  8
0
  5
30C9D
 10
598.330
 20
338.357
 30
0.000000
  70
    32
  0
VERTEX
  8
0
  5
30C9E
 10
597.795
 20
338.754
 30
0.000000
  70
    32
  0
VERTEX
  8
0
  5
30C9F
 10
597.254
 20
339.140
 30
0.000000
  70
    32
  0
VERTEX
  8
0
  5
30CA0
 10
596.709
 20
339.514
 30
0.000000
  70
    32
  0
VERTEX
  8
0
  5
30CA1
 10
596.158
 20
339.878
 30
0.000000
  70
    32
  0
VERTEX
  8
0
  5
30CA2
 10
595.603
 20
340.231
 30
0.000000
  70
    32
  0
VERTEX
  8
0
  5
30CA3
 10
595.044
 20
340.572
 30
0.000000
  70
    32
  0
VERTEX
  8
0
  5
30CA4
 10
594.480
 20
340.901
 30
0.000000
  70
    32
  0
VERTEX
  8
0
  5
30CA5
 10
593.912
 20
341.220
 30
0.000000
  70
    32
  0
VERTEX
  8
0
  5
30CA6
 10
593.340
 20
341.526
 30
0.000000
  70
    32
  0
VERTEX
  8
0
  5
30CA7
 10
592.764
 20
341.821
 30
0.000000
  70
    32
  0
VERTEX
  8
0
  5
30CA8
 10
592.184
 20
342.104
 30
0.000000
  70
    32
  0
VERTEX
  8
0
  5
30CA9
 10
591.600
 20
342.375
 30
0.000000
  70
    32
  0
VERTEX
  8
0
  5
30CAA
 10
591.013
 20
342.635
 30
0.000000
  70
    32
  0
VERTEX
  8
0
  5
30CAB
 10
590.423
 20
342.882
 30
0.000000
  70
    32
  0
VERTEX
  8
0
  5
30CAC
 10
589.830
 20
343.117
 30
0.000000
  70
    32
  0
SEQEND
  8
0
  5
30CAD
  0
LINE
  5
307F0
  8
0
 10
589.82978832412573
 20
343.11739622792362
 30
0.0
 11
567.29182113397917
 21
343.11739622792362
 31
0.0
  0
POLYLINE
  5
307F1
  8
0
 10
567.2918207570367
 20
343.117398373691
 30
0.0
 66
     1
 70
     8
  0
VERTEX
  8
0
  5
30CAE
 10
567.292
 20
343.117
 30
0.000000
  70
    32
  0
VERTEX
  8
0
  5
30CAF
 10
566.698
 20
342.882
 30
0.000000
  70
    32
  0
VERTEX
  8
0
  5
30CB0
 10
566.108
 20
342.635
 30
0.000000
  70
    32
  0
VERTEX
  8
0
  5
30CB1
 10
565.521
 20
342.375
 30
0.000000
  70
    32
  0
VERTEX
  8
0
  5
30CB2
 10
564.938
 20
342.104
 30
0.000000
  70
    32
  0
VERTEX
  8
0
  5
30CB3
 10
564.358
 20
341.821
 30
0.000000
  70
    32
  0
VERTEX
  8
0
  5
30CB4
 10
563.782
 20
341.526
 30
0.000000
  70
    32
  0
VERTEX
  8
0
  5
30CB5
 10
563.210
 20
341.220
 30
0.000000
  70
    32
  0
VERTEX
  8
0
  5
30CB6
 10
562.641
 20
340.901
 30
0.000000
  70
    32
  0
VERTEX
  8
0
  5
30CB7
 10
562.078
 20
340.572
 30
0.000000
  70
    32
  0
VERTEX
  8
0
  5
30CB8
 10
561.518
 20
340.231
 30
0.000000
  70
    32
  0
VERTEX
  8
0
  5
30CB9
 10
560.963
 20
339.878
 30
0.000000
  70
    32
  0
VERTEX
  8
0
  5
30CBA
 10
560.413
 20
339.514
 30
0.000000
  70
    32
  0
VERTEX
  8
0
  5
30CBB
 10
559.867
 20
339.140
 30
0.000000
  70
    32
  0
VERTEX
  8
0
  5
30CBC
 10
559.327
 20
338.754
 30
0.000000
  70
    32
  0
VERTEX
  8
0
  5
30CBD
 10
558.792
 20
338.357
 30
0.000000
  70
    32
  0
VERTEX
  8
0
  5
30CBE
 10
558.261
 20
337.949
 30
0.000000
  70
    32
  0
VERTEX
  8
0
  5
30CBF
 10
557.737
 20
337.531
 30
0.000000
  70
    32
  0
VERTEX
  8
0
  5
30CC0
 10
557.218
 20
337.102
 30
0.000000
  70
    32
  0
VERTEX
  8
0
  5
30CC1
 10
556.704
 20
336.662
 30
0.000000
  70
    32
  0
VERTEX
  8
0
  5
30CC2
 10
556.196
 20
336.212
 30
0.000000
  70
    32
  0
VERTEX
  8
0
  5
30CC3
 10
555.694
 20
335.752
 30
0.000000
  70
    32
  0
VERTEX
  8
0
  5
30CC4
 10
555.199
 20
335.282
 30
0.000000
  70
    32
  0
VERTEX
  8
0
  5
30CC5
 10
554.709
 20
334.802
 30
0.000000
  70
    32
  0
VERTEX
  8
0
  5
30CC6
 10
554.226
 20
334.311
 30
0.000000
  70
    32
  0
VERTEX
  8
0
  5
30CC7
 10
553.749
 20
333.811
 30
0.000000
  70
    32
  0
VERTEX
  8
0
  5
30CC8
 10
553.279
 20
333.302
 30
0.000000
  70
    32
  0
VERTEX
  8
0
  5
30CC9
 10
552.816
 20
332.782
 30
0.000000
  70
    32
  0
VERTEX
  8
0
  5
30CCA
 10
552.359
 20
332.254
 30
0.000000
  70
    32
  0
VERTEX
  8
0
  5
30CCB
 10
551.910
 20
331.716
 30
0.000000
  70
    32
  0
VERTEX
  8
0
  5
30CCC
 10
551.467
 20
331.169
 30
0.000000
  70
    32
  0
VERTEX
  8
0
  5
30CCD
 10
551.032
 20
330.614
 30
0.000000
  70
    32
  0
VERTEX
  8
0
  5
30CCE
 10
550.604
 20
330.049
 30
0.000000
  70
    32
  0
VERTEX
  8
0
  5
30CCF
 10
550.183
 20
329.476
 30
0.000000
  70
    32
  0
VERTEX
  8
0
  5
30CD0
 10
549.770
 20
328.894
 30
0.000000
  70
    32
  0
VERTEX
  8
0
  5
30CD1
 10
549.365
 20
328.304
 30
0.000000
  70
    32
  0
VERTEX
  8
0
  5
30CD2
 10
548.967
 20
327.706
 30
0.000000
  70
    32
  0
VERTEX
  8
0
  5
30CD3
 10
548.578
 20
327.100
 30
0.000000
  70
    32
  0
VERTEX
  8
0
  5
30CD4
 10
548.196
 20
326.486
 30
0.000000
  70
    32
  0
VERTEX
  8
0
  5
30CD5
 10
547.822
 20
325.864
 30
0.000000
  70
    32
  0
VERTEX
  8
0
  5
30CD6
 10
547.456
 20
325.235
 30
0.000000
  70
    32
  0
VERTEX
  8
0
  5
30CD7
 10
547.099
 20
324.599
 30
0.000000
  70
    32
  0
VERTEX
  8
0
  5
30CD8
 10
546.750
 20
323.955
 30
0.000000
  70
    32
  0
VERTEX
  8
0
  5
30CD9
 10
546.410
 20
323.304
 30
0.000000
  70
    32
  0
VERTEX
  8
0
  5
30CDA
 10
546.078
 20
322.647
 30
0.000000
  70
    32
  0
VERTEX
  8
0
  5
30CDB
 10
545.754
 20
321.982
 30
0.000000
  70
    32
  0
VERTEX
  8
0
  5
30CDC
 10
545.440
 20
321.312
 30
0.000000
  70
    32
  0
VERTEX
  8
0
  5
30CDD
 10
545.134
 20
320.634
 30
0.000000
  70
    32
  0
VERTEX
  8
0
  5
30CDE
 10
544.837
 20
319.951
 30
0.000000
  70
    32
  0
VERTEX
  8
0
  5
30CDF
 10
544.549
 20
319.262
 30
0.000000
  70
    32
  0
VERTEX
  8
0
  5
30CE0
 10
544.270
 20
318.567
 30
0.000000
  70
    32
  0
VERTEX
  8
0
  5
30CE1
 10
544.000
 20
317.867
 30
0.000000
  70
    32
  0
VERTEX
  8
0
  5
30CE2
 10
543.740
 20
317.161
 30
0.000000
  70
    32
  0
VERTEX
  8
0
  5
30CE3
 10
543.488
 20
316.450
 30
0.000000
  70
    32
  0
VERTEX
  8
0
  5
30CE4
 10
543.246
 20
315.734
 30
0.000000
  70
    32
  0
VERTEX
  8
0
  5
30CE5
 10
543.014
 20
315.013
 30
0.000000
  70
    32
  0
VERTEX
  8
0
  5
30CE6
 10
542.790
 20
314.287
 30
0.000000
  70
    32
  0
VERTEX
  8
0
  5
30CE7
 10
542.577
 20
313.557
 30
0.000000
  70
    32
  0
VERTEX
  8
0
  5
30CE8
 10
542.372
 20
312.823
 30
0.000000
  70
    32
  0
VERTEX
  8
0
  5
30CE9
 10
542.178
 20
312.084
 30
0.000000
  70
    32
  0
VERTEX
  8
0
  5
30CEA
 10
541.993
 20
311.342
 30
0.000000
  70
    32
  0
VERTEX
  8
0
  5
30CEB
 10
541.818
 20
310.596
 30
0.000000
  70
    32
  0
VERTEX
  8
0
  5
30CEC
 10
541.652
 20
309.847
 30
0.000000
  70
    32
  0
VERTEX
  8
0
  5
30CED
 10
541.497
 20
309.094
 30
0.000000
  70
    32
  0
VERTEX
  8
0
  5
30CEE
 10
541.351
 20
308.339
 30
0.000000
  70
    32
  0
VERTEX
  8
0
  5
30CEF
 10
541.215
 20
307.580
 30
0.000000
  70
    32
  0
VERTEX
  8
0
  5
30CF0
 10
541.089
 20
306.819
 30
0.000000
  70
    32
  0
VERTEX
  8
0
  5
30CF1
 10
540.973
 20
306.055
 30
0.000000
  70
    32
  0
VERTEX
  8
0
  5
30CF2
 10
540.867
 20
305.289
 30
0.000000
  70
    32
  0
VERTEX
  8
0
  5
30CF3
 10
540.771
 20
304.521
 30
0.000000
  70
    32
  0
VERTEX
  8
0
  5
30CF4
 10
540.685
 20
303.751
 30
0.000000
  70
    32
  0
VERTEX
  8
0
  5
30CF5
 10
540.609
 20
302.980
 30
0.000000
  70
    32
  0
VERTEX
  8
0
  5
30CF6
 10
540.543
 20
302.207
 30
0.000000
  70
    32
  0
VERTEX
  8
0
  5
30CF7
 10
540.488
 20
301.433
 30
0.000000
  70
    32
  0
VERTEX
  8
0
  5
30CF8
 10
540.442
 20
300.658
 30
0.000000
  70
    32
  0
VERTEX
  8
0
  5
30CF9
 10
540.406
 20
299.882
 30
0.000000
  70
    32
  0
VERTEX
  8
0
  5
30CFA
 10
540.381
 20
299.105
 30
0.000000
  70
    32
  0
VERTEX
  8
0
  5
30CFB
 10
540.366
 20
298.328
 30
0.000000
  70
    32
  0
VERTEX
  8
0
  5
30CFC
 10
540.361
 20
297.551
 30
0.000000
  70
    32
  0
VERTEX
  8
0
  5
30CFD
 10
540.366
 20
296.773
 30
0.000000
  70
    32
  0
VERTEX
  8
0
  5
30CFE
 10
540.381
 20
295.996
 30
0.000000
  70
    32
  0
VERTEX
  8
0
  5
30CFF
 10
540.407
 20
295.220
 30
0.000000
  70
    32
  0
VERTEX
  8
0
  5
30D00
 10
540.442
 20
294.444
 30
0.000000
  70
    32
  0
VERTEX
  8
0
  5
30D01
 10
540.488
 20
293.668
 30
0.000000
  70
    32
  0
VERTEX
  8
0
  5
30D02
 10
540.543
 20
292.894
 30
0.000000
  70
    32
  0
VERTEX
  8
0
  5
30D03
 10
540.609
 20
292.121
 30
0.000000
  70
    32
  0
VERTEX
  8
0
  5
30D04
 10
540.685
 20
291.350
 30
0.000000
  70
    32
  0
VERTEX
  8
0
  5
30D05
 10
540.771
 20
290.580
 30
0.000000
  70
    32
  0
VERTEX
  8
0
  5
30D06
 10
540.867
 20
289.812
 30
0.000000
  70
    32
  0
VERTEX
  8
0
  5
30D07
 10
540.973
 20
289.046
 30
0.000000
  70
    32
  0
VERTEX
  8
0
  5
30D08
 10
541.089
 20
288.283
 30
0.000000
  70
    32
  0
VERTEX
  8
0
  5
30D09
 10
541.215
 20
287.521
 30
0.000000
  70
    32
  0
VERTEX
  8
0
  5
30D0A
 10
541.351
 20
286.763
 30
0.000000
  70
    32
  0
VERTEX
  8
0
  5
30D0B
 10
541.497
 20
286.007
 30
0.000000
  70
    32
  0
VERTEX
  8
0
  5
30D0C
 10
541.653
 20
285.255
 30
0.000000
  70
    32
  0
VERTEX
  8
0
  5
30D0D
 10
541.818
 20
284.505
 30
0.000000
  70
    32
  0
VERTEX
  8
0
  5
30D0E
 10
541.993
 20
283.759
 30
0.000000
  70
    32
  0
VERTEX
  8
0
  5
30D0F
 10
542.178
 20
283.017
 30
0.000000
  70
    32
  0
VERTEX
  8
0
  5
30D10
 10
542.373
 20
282.279
 30
0.000000
  70
    32
  0
VERTEX
  8
0
  5
30D11
 10
542.577
 20
281.544
 30
0.000000
  70
    32
  0
VERTEX
  8
0
  5
30D12
 10
542.791
 20
280.814
 30
0.000000
  70
    32
  0
VERTEX
  8
0
  5
30D13
 10
543.014
 20
280.089
 30
0.000000
  70
    32
  0
VERTEX
  8
0
  5
30D14
 10
543.247
 20
279.368
 30
0.000000
  70
    32
  0
VERTEX
  8
0
  5
30D15
 10
543.489
 20
278.652
 30
0.000000
  70
    32
  0
VERTEX
  8
0
  5
30D16
 10
543.741
 20
277.941
 30
0.000000
  70
    32
  0
VERTEX
  8
0
  5
30D17
 10
544.001
 20
277.235
 30
0.000000
  70
    32
  0
VERTEX
  8
0
  5
30D18
 10
544.271
 20
276.534
 30
0.000000
  70
    32
  0
VERTEX
  8
0
  5
30D19
 10
544.550
 20
275.839
 30
0.000000
  70
    32
  0
VERTEX
  8
0
  5
30D1A
 10
544.838
 20
275.150
 30
0.000000
  70
    32
  0
VERTEX
  8
0
  5
30D1B
 10
545.135
 20
274.467
 30
0.000000
  70
    32
  0
VERTEX
  8
0
  5
30D1C
 10
545.441
 20
273.790
 30
0.000000
  70
    32
  0
VERTEX
  8
0
  5
30D1D
 10
545.755
 20
273.119
 30
0.000000
  70
    32
  0
VERTEX
  8
0
  5
30D1E
 10
546.079
 20
272.455
 30
0.000000
  70
    32
  0
VERTEX
  8
0
  5
30D1F
 10
546.411
 20
271.797
 30
0.000000
  70
    32
  0
VERTEX
  8
0
  5
30D20
 10
546.751
 20
271.147
 30
0.000000
  70
    32
  0
VERTEX
  8
0
  5
30D21
 10
547.100
 20
270.503
 30
0.000000
  70
    32
  0
VERTEX
  8
0
  5
30D22
 10
547.458
 20
269.867
 30
0.000000
  70
    32
  0
VERTEX
  8
0
  5
30D23
 10
547.823
 20
269.237
 30
0.000000
  70
    32
  0
VERTEX
  8
0
  5
30D24
 10
548.197
 20
268.616
 30
0.000000
  70
    32
  0
VERTEX
  8
0
  5
30D25
 10
548.579
 20
268.002
 30
0.000000
  70
    32
  0
VERTEX
  8
0
  5
30D26
 10
548.969
 20
267.396
 30
0.000000
  70
    32
  0
VERTEX
  8
0
  5
30D27
 10
549.366
 20
266.797
 30
0.000000
  70
    32
  0
VERTEX
  8
0
  5
30D28
 10
549.772
 20
266.208
 30
0.000000
  70
    32
  0
VERTEX
  8
0
  5
30D29
 10
550.185
 20
265.626
 30
0.000000
  70
    32
  0
VERTEX
  8
0
  5
30D2A
 10
550.605
 20
265.053
 30
0.000000
  70
    32
  0
VERTEX
  8
0
  5
30D2B
 10
551.033
 20
264.488
 30
0.000000
  70
    32
  0
VERTEX
  8
0
  5
30D2C
 10
551.469
 20
263.933
 30
0.000000
  70
    32
  0
VERTEX
  8
0
  5
30D2D
 10
551.911
 20
263.386
 30
0.000000
  70
    32
  0
VERTEX
  8
0
  5
30D2E
 10
552.361
 20
262.848
 30
0.000000
  70
    32
  0
SEQEND
  8
0
  5
30D2F
  0
LINE
  5
307F2
  8
0
 10
540.3608062906942
 20
347.11739688357471
 30
0.0
 11
616.76080316741081
 21
347.11739688357471
 31
0.0
  0
LINE
  5
307F3
  8
0
 10
552.36080453235706
 20
253.36547789340969
 30
0.0
 11
555.56080468434902
 21
253.36547789340969
 31
0.0
  0
LINE
  5
307F4
  8
0
 10
552.36080453235706
 20
249.61739859720819
 30
0.0
 11
552.36080453235706
 21
262.84810842191928
 31
0.0
  0
LINE
  5
307F5
  8
0
 10
604.76080492574783
 20
253.36547789340969
 30
0.0
 11
604.76080492574783
 21
262.84810842191928
 31
0.0
  0
LINE
  5
307F6
  8
0
 10
601.56080477375588
 20
253.36547789340969
 30
0.0
 11
604.76080492574783
 21
253.36547789340969
 31
0.0
  0
LINE
  5
307F7
  8
0
 10
601.56080477375588
 20
264.61763388654339
 30
0.0
 11
601.56080477375588
 21
253.36547789340969
 31
0.0
  0
POLYLINE
  5
307F8
  8
0
 10
601.560804739633
 20
264.61763374123547
 30
0.0
 66
     1
 70
     8
  0
VERTEX
  8
0
  5
30D30
 10
601.561
 20
264.618
 30
0.000000
  70
    32
  0
VERTEX
  8
0
  5
30D31
 10
602.544
 20
265.729
 30
0.000000
  70
    32
  0
VERTEX
  8
0
  5
30D32
 10
603.492
 20
266.886
 30
0.000000
  70
    32
  0
VERTEX
  8
0
  5
30D33
 10
604.404
 20
268.086
 30
0.000000
  70
    32
  0
VERTEX
  8
0
  5
30D34
 10
605.280
 20
269.329
 30
0.000000
  70
    32
  0
VERTEX
  8
0
  5
30D35
 10
606.117
 20
270.613
 30
0.000000
  70
    32
  0
VERTEX
  8
0
  5
30D36
 10
606.914
 20
271.935
 30
0.000000
  70
    32
  0
VERTEX
  8
0
  5
30D37
 10
607.671
 20
273.294
 30
0.000000
  70
    32
  0
VERTEX
  8
0
  5
30D38
 10
608.386
 20
274.688
 30
0.000000
  70
    32
  0
VERTEX
  8
0
  5
30D39
 10
609.059
 20
276.115
 30
0.000000
  70
    32
  0
VERTEX
  8
0
  5
30D3A
 10
609.687
 20
277.572
 30
0.000000
  70
    32
  0
VERTEX
  8
0
  5
30D3B
 10
610.271
 20
279.058
 30
0.000000
  70
    32
  0
VERTEX
  8
0
  5
30D3C
 10
610.809
 20
280.571
 30
0.000000
  70
    32
  0
VERTEX
  8
0
  5
30D3D
 10
611.301
 20
282.108
 30
0.000000
  70
    32
  0
VERTEX
  8
0
  5
30D3E
 10
611.746
 20
283.667
 30
0.000000
  70
    32
  0
VERTEX
  8
0
  5
30D3F
 10
612.144
 20
285.246
 30
0.000000
  70
    32
  0
VERTEX
  8
0
  5
30D40
 10
612.493
 20
286.842
 30
0.000000
  70
    32
  0
VERTEX
  8
0
  5
30D41
 10
612.794
 20
288.454
 30
0.000000
  70
    32
  0
VERTEX
  8
0
  5
30D42
 10
613.045
 20
290.080
 30
0.000000
  70
    32
  0
VERTEX
  8
0
  5
30D43
 10
613.247
 20
291.715
 30
0.000000
  70
    32
  0
VERTEX
  8
0
  5
30D44
 10
613.399
 20
293.360
 30
0.000000
  70
    32
  0
VERTEX
  8
0
  5
30D45
 10
613.502
 20
295.010
 30
0.000000
  70
    32
  0
VERTEX
  8
0
  5
30D46
 10
613.554
 20
296.664
 30
0.000000
  70
    32
  0
VERTEX
  8
0
  5
30D47
 10
613.555
 20
298.319
 30
0.000000
  70
    32
  0
VERTEX
  8
0
  5
30D48
 10
613.507
 20
299.973
 30
0.000000
  70
    32
  0
VERTEX
  8
0
  5
30D49
 10
613.409
 20
301.624
 30
0.000000
  70
    32
  0
VERTEX
  8
0
  5
30D4A
 10
613.260
 20
303.268
 30
0.000000
  70
    32
  0
VERTEX
  8
0
  5
30D4B
 10
613.062
 20
304.905
 30
0.000000
  70
    32
  0
VERTEX
  8
0
  5
30D4C
 10
612.814
 20
306.531
 30
0.000000
  70
    32
  0
VERTEX
  8
0
  5
30D4D
 10
612.517
 20
308.144
 30
0.000000
  70
    32
  0
VERTEX
  8
0
  5
30D4E
 10
612.171
 20
309.742
 30
0.000000
  70
    32
  0
VERTEX
  8
0
  5
30D4F
 10
611.777
 20
311.322
 30
0.000000
  70
    32
  0
VERTEX
  8
0
  5
30D50
 10
611.336
 20
312.883
 30
0.000000
  70
    32
  0
VERTEX
  8
0
  5
30D51
 10
610.847
 20
314.422
 30
0.000000
  70
    32
  0
VERTEX
  8
0
  5
30D52
 10
610.312
 20
315.936
 30
0.000000
  70
    32
  0
VERTEX
  8
0
  5
30D53
 10
609.731
 20
317.424
 30
0.000000
  70
    32
  0
VERTEX
  8
0
  5
30D54
 10
609.106
 20
318.884
 30
0.000000
  70
    32
  0
VERTEX
  8
0
  5
30D55
 10
608.437
 20
320.313
 30
0.000000
  70
    32
  0
VERTEX
  8
0
  5
30D56
 10
607.725
 20
321.709
 30
0.000000
  70
    32
  0
VERTEX
  8
0
  5
30D57
 10
606.971
 20
323.070
 30
0.000000
  70
    32
  0
VERTEX
  8
0
  5
30D58
 10
606.177
 20
324.395
 30
0.000000
  70
    32
  0
VERTEX
  8
0
  5
30D59
 10
605.342
 20
325.682
 30
0.000000
  70
    32
  0
VERTEX
  8
0
  5
30D5A
 10
604.470
 20
326.928
 30
0.000000
  70
    32
  0
VERTEX
  8
0
  5
30D5B
 10
603.560
 20
328.132
 30
0.000000
  70
    32
  0
VERTEX
  8
0
  5
30D5C
 10
602.614
 20
329.292
 30
0.000000
  70
    32
  0
VERTEX
  8
0
  5
30D5D
 10
601.634
 20
330.406
 30
0.000000
  70
    32
  0
VERTEX
  8
0
  5
30D5E
 10
600.621
 20
331.474
 30
0.000000
  70
    32
  0
VERTEX
  8
0
  5
30D5F
 10
599.576
 20
332.492
 30
0.000000
  70
    32
  0
VERTEX
  8
0
  5
30D60
 10
598.500
 20
333.461
 30
0.000000
  70
    32
  0
VERTEX
  8
0
  5
30D61
 10
597.397
 20
334.378
 30
0.000000
  70
    32
  0
VERTEX
  8
0
  5
30D62
 10
596.266
 20
335.242
 30
0.000000
  70
    32
  0
VERTEX
  8
0
  5
30D63
 10
595.110
 20
336.052
 30
0.000000
  70
    32
  0
VERTEX
  8
0
  5
30D64
 10
593.930
 20
336.807
 30
0.000000
  70
    32
  0
VERTEX
  8
0
  5
30D65
 10
592.728
 20
337.506
 30
0.000000
  70
    32
  0
VERTEX
  8
0
  5
30D66
 10
591.505
 20
338.147
 30
0.000000
  70
    32
  0
VERTEX
  8
0
  5
30D67
 10
590.264
 20
338.730
 30
0.000000
  70
    32
  0
VERTEX
  8
0
  5
30D68
 10
589.007
 20
339.254
 30
0.000000
  70
    32
  0
VERTEX
  8
0
  5
30D69
 10
587.734
 20
339.717
 30
0.000000
  70
    32
  0
VERTEX
  8
0
  5
30D6A
 10
586.448
 20
340.121
 30
0.000000
  70
    32
  0
VERTEX
  8
0
  5
30D6B
 10
585.151
 20
340.463
 30
0.000000
  70
    32
  0
VERTEX
  8
0
  5
30D6C
 10
583.844
 20
340.744
 30
0.000000
  70
    32
  0
VERTEX
  8
0
  5
30D6D
 10
582.530
 20
340.963
 30
0.000000
  70
    32
  0
VERTEX
  8
0
  5
30D6E
 10
581.210
 20
341.119
 30
0.000000
  70
    32
  0
VERTEX
  8
0
  5
30D6F
 10
579.886
 20
341.213
 30
0.000000
  70
    32
  0
VERTEX
  8
0
  5
30D70
 10
578.561
 20
341.245
 30
0.000000
  70
    32
  0
VERTEX
  8
0
  5
30D71
 10
577.235
 20
341.213
 30
0.000000
  70
    32
  0
VERTEX
  8
0
  5
30D72
 10
575.911
 20
341.119
 30
0.000000
  70
    32
  0
VERTEX
  8
0
  5
30D73
 10
574.592
 20
340.963
 30
0.000000
  70
    32
  0
VERTEX
  8
0
  5
30D74
 10
573.277
 20
340.744
 30
0.000000
  70
    32
  0
VERTEX
  8
0
  5
30D75
 10
571.971
 20
340.463
 30
0.000000
  70
    32
  0
VERTEX
  8
0
  5
30D76
 10
570.674
 20
340.121
 30
0.000000
  70
    32
  0
VERTEX
  8
0
  5
30D77
 10
569.388
 20
339.717
 30
0.000000
  70
    32
  0
VERTEX
  8
0
  5
30D78
 10
568.115
 20
339.254
 30
0.000000
  70
    32
  0
VERTEX
  8
0
  5
30D79
 10
566.857
 20
338.730
 30
0.000000
  70
    32
  0
VERTEX
  8
0
  5
30D7A
 10
565.616
 20
338.147
 30
0.000000
  70
    32
  0
VERTEX
  8
0
  5
30D7B
 10
564.394
 20
337.506
 30
0.000000
  70
    32
  0
VERTEX
  8
0
  5
30D7C
 10
563.192
 20
336.807
 30
0.000000
  70
    32
  0
VERTEX
  8
0
  5
30D7D
 10
562.012
 20
336.052
 30
0.000000
  70
    32
  0
VERTEX
  8
0
  5
30D7E
 10
560.856
 20
335.242
 30
0.000000
  70
    32
  0
VERTEX
  8
0
  5
30D7F
 10
559.725
 20
334.378
 30
0.000000
  70
    32
  0
VERTEX
  8
0
  5
30D80
 10
558.621
 20
333.461
 30
0.000000
  70
    32
  0
VERTEX
  8
0
  5
30D81
 10
557.546
 20
332.492
 30
0.000000
  70
    32
  0
VERTEX
  8
0
  5
30D82
 10
556.501
 20
331.474
 30
0.000000
  70
    32
  0
VERTEX
  8
0
  5
30D83
 10
555.488
 20
330.406
 30
0.000000
  70
    32
  0
VERTEX
  8
0
  5
30D84
 10
554.508
 20
329.292
 30
0.000000
  70
    32
  0
VERTEX
  8
0
  5
30D85
 10
553.562
 20
328.132
 30
0.000000
  70
    32
  0
VERTEX
  8
0
  5
30D86
 10
552.652
 20
326.928
 30
0.000000
  70
    32
  0
VERTEX
  8
0
  5
30D87
 10
551.779
 20
325.682
 30
0.000000
  70
    32
  0
VERTEX
  8
0
  5
30D88
 10
550.945
 20
324.395
 30
0.000000
  70
    32
  0
VERTEX
  8
0
  5
30D89
 10
550.150
 20
323.070
 30
0.000000
  70
    32
  0
VERTEX
  8
0
  5
30D8A
 10
549.397
 20
321.709
 30
0.000000
  70
    32
  0
VERTEX
  8
0
  5
30D8B
 10
548.685
 20
320.313
 30
0.000000
  70
    32
  0
VERTEX
  8
0
  5
30D8C
 10
548.016
 20
318.884
 30
0.000000
  70
    32
  0
VERTEX
  8
0
  5
30D8D
 10
547.390
 20
317.424
 30
0.000000
  70
    32
  0
VERTEX
  8
0
  5
30D8E
 10
546.810
 20
315.936
 30
0.000000
  70
    32
  0
VERTEX
  8
0
  5
30D8F
 10
546.275
 20
314.422
 30
0.000000
  70
    32
  0
VERTEX
  8
0
  5
30D90
 10
545.786
 20
312.883
 30
0.000000
  70
    32
  0
VERTEX
  8
0
  5
30D91
 10
545.344
 20
311.322
 30
0.000000
  70
    32
  0
VERTEX
  8
0
  5
30D92
 10
544.951
 20
309.742
 30
0.000000
  70
    32
  0
VERTEX
  8
0
  5
30D93
 10
544.605
 20
308.144
 30
0.000000
  70
    32
  0
VERTEX
  8
0
  5
30D94
 10
544.308
 20
306.531
 30
0.000000
  70
    32
  0
VERTEX
  8
0
  5
30D95
 10
544.060
 20
304.905
 30
0.000000
  70
    32
  0
VERTEX
  8
0
  5
30D96
 10
543.862
 20
303.268
 30
0.000000
  70
    32
  0
VERTEX
  8
0
  5
30D97
 10
543.713
 20
301.624
 30
0.000000
  70
    32
  0
VERTEX
  8
0
  5
30D98
 10
543.615
 20
299.973
 30
0.000000
  70
    32
  0
VERTEX
  8
0
  5
30D99
 10
543.566
 20
298.319
 30
0.000000
  70
    32
  0
VERTEX
  8
0
  5
30D9A
 10
543.568
 20
296.664
 30
0.000000
  70
    32
  0
VERTEX
  8
0
  5
30D9B
 10
543.620
 20
295.010
 30
0.000000
  70
    32
  0
VERTEX
  8
0
  5
30D9C
 10
543.722
 20
293.360
 30
0.000000
  70
    32
  0
VERTEX
  8
0
  5
30D9D
 10
543.874
 20
291.715
 30
0.000000
  70
    32
  0
VERTEX
  8
0
  5
30D9E
 10
544.076
 20
290.080
 30
0.000000
  70
    32
  0
VERTEX
  8
0
  5
30D9F
 10
544.328
 20
288.454
 30
0.000000
  70
    32
  0
VERTEX
  8
0
  5
30DA0
 10
544.628
 20
286.842
 30
0.000000
  70
    32
  0
VERTEX
  8
0
  5
30DA1
 10
544.978
 20
285.246
 30
0.000000
  70
    32
  0
VERTEX
  8
0
  5
30DA2
 10
545.375
 20
283.667
 30
0.000000
  70
    32
  0
VERTEX
  8
0
  5
30DA3
 10
545.820
 20
282.108
 30
0.000000
  70
    32
  0
VERTEX
  8
0
  5
30DA4
 10
546.312
 20
280.571
 30
0.000000
  70
    32
  0
VERTEX
  8
0
  5
30DA5
 10
546.851
 20
279.058
 30
0.000000
  70
    32
  0
VERTEX
  8
0
  5
30DA6
 10
547.435
 20
277.572
 30
0.000000
  70
    32
  0
VERTEX
  8
0
  5
30DA7
 10
548.063
 20
276.115
 30
0.000000
  70
    32
  0
VERTEX
  8
0
  5
30DA8
 10
548.735
 20
274.688
 30
0.000000
  70
    32
  0
VERTEX
  8
0
  5
30DA9
 10
549.450
 20
273.294
 30
0.000000
  70
    32
  0
VERTEX
  8
0
  5
30DAA
 10
550.207
 20
271.935
 30
0.000000
  70
    32
  0
VERTEX
  8
0
  5
30DAB
 10
551.005
 20
270.613
 30
0.000000
  70
    32
  0
VERTEX
  8
0
  5
30DAC
 10
551.842
 20
269.329
 30
0.000000
  70
    32
  0
VERTEX
  8
0
  5
30DAD
 10
552.717
 20
268.086
 30
0.000000
  70
    32
  0
VERTEX
  8
0
  5
30DAE
 10
553.630
 20
266.886
 30
0.000000
  70
    32
  0
VERTEX
  8
0
  5
30DAF
 10
554.578
 20
265.729
 30
0.000000
  70
    32
  0
VERTEX
  8
0
  5
30DB0
 10
555.561
 20
264.618
 30
0.000000
  70
    32
  0
SEQEND
  8
0
  5
30DB1
  0
LINE
  5
307FA
  8
0
 10
601.56080477375588
 20
330.48615872105711
 30
0.0
 11
601.56080477375588
 21
264.61763388654339
 31
0.0
  0
LINE
  5
307FB
  8
0
 10
569.99907061893555
 20
339.91740166386722
 30
0.0
 11
587.12253883916935
 21
339.91740166386722
 31
0.0
  0
LINE
  5
307FC
  8
0
 10
555.56080468434902
 20
330.48615872105711
 30
0.0
 11
555.56080468434902
 21
249.61739859720819
 31
0.0
  0
LINE
  5
307FD
  8
0
 10
601.56080477375588
 20
249.61739859720819
 30
0.0
 11
604.76080492574874
 21
249.61739859720819
 31
0.0
  0
LINE
  5
307FE
  8
0
 10
604.76080492574874
 20
249.61739859720819
 30
0.0
 11
604.76080492574783
 21
253.36547789340969
 31
0.0
  0
LINE
  5
307FF
  8
0
 10
601.56080477375588
 20
253.36547789340969
 30
0.0
 11
601.56080477375588
 21
249.61739859720819
 31
0.0
  0
LINE
  5
30800
  8
0
 10
552.36080453235706
 20
249.61739859720819
 30
0.0
 11
555.56080468434902
 21
249.61739859720819
 31
0.0
  0
LINE
  5
30803
  8
0
 10
601.56080477375588
 20
251.61739799371119
 30
0.0
 11
601.56080477375588
 21
267.61739875367039
 31
0.0
  0
LINE
  5
30804
  8
0
 10
609.78375167090496
 20
259.61739837369078
 30
0.0
 11
604.76080492574874
 21
259.61739837369078
 31
0.0
  0
POLYLINE
  5
30805
  8
0
 66
     1
 10
0.0
 20
0.0
 30
0.0
 70
   128
  0
VERTEX
  5
30BF0
  8
0
 10
609.78375167090496
 20
259.61739837369078
 30
0.0
  0
VERTEX
  5
30BF1
  8
0
 10
610.04205957491013
 20
256.68579816995322
 30
0.0
  0
VERTEX
  5
30BF2
  8
0
 10
610.04317343671016
 20
256.48823182275652
 30
0.0
  0
SEQEND
  5
30BF3
  8
0
  0
LINE
  5
30806
  8
0
 10
610.04317343671016
 20
256.48823182275652
 30
0.0
 11
609.78375167090496
 21
253.35906527182209
 31
0.0
  0
LINE
  5
30807
  8
0
 10
610.04317343671016
 20
253.35906527182209
 30
0.0
 11
604.76080492574874
 21
253.35906527182209
 31
0.0
  0
LINE
  5
30809
  8
0
 10
610.04317343671016
 20
262.74656492462509
 30
0.0
 11
609.78375167090496
 21
259.61739837369078
 31
0.0
  0
LINE
  5
3080A
  8
0
 10
610.04317343671016
 20
265.87573147555941
 30
0.0
 11
607.11599864501648
 21
265.87573147555941
 31
0.0
  0
POLYLINE
  5
3080B
  8
0
 66
     1
 10
0.0
 20
0.0
 30
0.0
 70
   128
  0
VERTEX
  5
30BF4
  8
0
 10
609.78375167090496
 20
265.87573147555941
 30
0.0
  0
VERTEX
  5
30BF5
  8
0
 10
609.91528049547276
 20
264.90329473456489
 30
0.0
  0
VERTEX
  5
30BF6
  8
0
 10
610.04317343671016
 20
262.74656492462509
 30
0.0
  0
SEQEND
  5
30BF7
  8
0
  0
LINE
  5
3080C
  8
0
 10
546.90259114343735
 20
253.35906527182209
 30
0.0
 11
546.64317310292336
 21
256.48823182275652
 31
0.0
  0
POLYLINE
  5
3080D
  8
0
 66
     1
 10
0.0
 20
0.0
 30
0.0
 70
   128
  0
VERTEX
  5
30BF8
  8
0
 10
546.64317310292336
 20
256.48823182275652
 30
0.0
  0
VERTEX
  5
30BF9
  8
0
 10
546.64428323943309
 20
256.68551970450329
 30
0.0
  0
VERTEX
  5
30BFA
  8
0
 10
546.90259114343735
 20
259.61739837369078
 30
0.0
  0
SEQEND
  5
30BFB
  8
0
  0
LINE
  5
3080E
  8
0
 10
551.64317205984196
 20
259.61739837369078
 30
0.0
 11
546.90259114343735
 21
259.61739837369078
 31
0.0
  0
LINE
  5
3080F
  8
0
 10
551.64317205984196
 20
259.61739837369078
 30
0.0
 11
551.64317205984196
 21
253.35906527182209
 31
0.0
  0
LINE
  5
30810
  8
0
 10
551.64317205984196
 20
253.35906527182209
 30
0.0
 11
546.64317310292336
 21
253.35906527182209
 31
0.0
  0
LINE
  5
30811
  8
0
 10
546.90259114343735
 20
259.61739837369078
 30
0.0
 11
546.64317310292336
 21
262.74656492462509
 31
0.0
  0
POLYLINE
  5
30812
  8
0
 66
     1
 10
0.0
 20
0.0
 30
0.0
 70
   128
  0
VERTEX
  5
30BFC
  8
0
 10
546.64317310292336
 20
262.74656492462509
 30
0.0
  0
VERTEX
  5
30BFD
  8
0
 10
546.77081458706471
 20
264.90111823370808
 30
0.0
  0
VERTEX
  5
30BFE
  8
0
 10
546.90259114343735
 20
265.87573147555941
 30
0.0
  0
SEQEND
  5
30BFF
  8
0
  0
LINE
  5
30813
  8
0
 10
550.00561081308933
 20
265.87573147555941
 30
0.0
 11
546.64317310292336
 21
265.87573147555941
 31
0.0
  0
LINE
  5
30814
  8
0
 10
551.64317205984196
 20
263.71482654651749
 30
0.0
 11
551.64317205984196
 21
259.61739837369078
 31
0.0
  0
LINE
  5
30815
  8
0
 10
546.64317310292336
 20
256.48823182275652
 30
0.0
 11
546.64317310292336
 21
262.74656492462509
 31
0.0
  0
LINE
  5
30819
  8
0
 10
610.04317343671016
 20
253.35906527182209
 30
0.0
 11
610.04317343671016
 21
265.87573147555941
 31
0.0
  0
LINE
  5
3081B
  8
0
 10
546.64317310292336
 20
262.74656492462509
 30
0.0
 11
546.64317310292336
 21
265.87573147555941
 31
0.0
  0
LINE
  5
3081D
  8
0
 10
546.64317310292336
 20
253.35906527182209
 30
0.0
 11
546.64317310292336
 21
256.48823182275652
 31
0.0
  0
LINE
  5
3081F
  8
0
 10
596.06080480355831
 20
203.1173993571673
 30
0.0
 11
596.06080480355831
 21
316.11739739021408
 31
0.0
  0
LINE
  5
30821
  8
0
 10
561.06080465454579
 20
203.1173993571748
 30
0.0
 11
561.0608046545475
 21
316.11739739021408
 31
0.0
  0
LINE
  5
30823
  8
0
 10
558.56080517608825
 20
278.98637845358007
 30
0.0
 11
558.56080517608825
 21
240.24841829380151
 31
0.0
  0
LINE
  5
30824
  8
0
 10
598.56080428201756
 20
240.24841829380151
 30
0.0
 11
598.56080428201756
 21
278.98637845358007
 31
0.0
  0
LINE
  5
30826
  8
0
 10
592.53479239035426
 20
197.1173983736908
 30
0.0
 11
592.5347923903546
 21
322.11739837369078
 31
0.0
  0
LINE
  5
30828
  8
0
 10
564.58681706775042
 20
197.1173983736908
 30
0.0
 11
564.58681706775042
 21
322.11739837369078
 31
0.0
  0
LINE
  5
3082E
  8
0
 10
110.5690241919292
 20
347.11739688357471
 30
0.0
 11
110.5690241919292
 21
297.5518953724777
 31
0.0
  0
LINE
  5
3082F
  8
0
 10
186.96902106864579
 20
297.5518953724777
 30
0.0
 11
186.96902106864579
 21
347.11739688357471
 31
0.0
  0
LINE
  5
30830
  8
0
 10
112.39245321018819
 20
354.11739616831892
 30
0.0
 11
113.6267387436164
 21
347.11739688357471
 31
0.0
  0
LINE
  5
30831
  8
0
 10
183.9113065169586
 20
347.11739688357471
 30
0.0
 11
185.14559205038671
 21
354.11739616831892
 31
0.0
  0
LINE
  5
30832
  8
0
 10
128.76902307732229
 20
267.61739875367039
 30
0.0
 11
125.769022585584
 21
267.61739875367039
 31
0.0
  0
LINE
  5
30833
  8
0
 10
125.769022585584
 20
251.61739799371119
 30
0.0
 11
128.76902307732229
 21
251.61739799371119
 31
0.0
  0
LINE
  5
30834
  8
0
 10
171.05139020247589
 20
267.61739875367039
 30
0.0
 11
168.76902218325259
 21
267.61739875367039
 31
0.0
  0
LINE
  5
30835
  8
0
 10
168.76902218325259
 20
251.61739799371119
 30
0.0
 11
171.05139020247589
 21
251.61739799371119
 31
0.0
  0
LINE
  5
30838
  8
0
 10
171.76902267499099
 20
263.61739856368058
 30
0.0
 11
171.05139020247589
 21
263.61739856368058
 31
0.0
  0
LINE
  5
30839
  8
0
 10
171.05139020247589
 20
255.617398183701
 30
0.0
 11
171.76902267499099
 21
255.617398183701
 31
0.0
  0
LINE
  5
3083A
  8
0
 10
175.68665529949789
 20
263.61739856368058
 30
0.0
 11
174.96902282698281
 21
263.61739856368058
 31
0.0
  0
LINE
  5
3083B
  8
0
 10
174.96902282698281
 20
255.617398183701
 30
0.0
 11
175.68665529949789
 21
255.617398183701
 31
0.0
  0
ARC
  5
3083C
  8
0
 10
134.79503525482141
 20
319.61739837369032
 30
0.0
 40
2.5000000000004259
 50
90.0
 51
164.9999999999952
  0
ARC
  5
3083D
  8
0
 10
134.79503525482141
 20
199.6173983736908
 30
0.0
 40
2.5000000000004259
 50
194.99999999999761
 51
270.0
  0
LINE
  5
3083E
  8
0
 10
162.7430102915896
 20
322.11739837369078
 30
0.0
 11
134.79503496898539
 21
322.11739837369078
 31
0.0
  0
LINE
  5
3083F
  8
0
 10
134.79503496898539
 20
197.1173983736908
 30
0.0
 11
162.7430102915896
 21
197.1173983736908
 31
0.0
  0
ARC
  5
30840
  8
0
 10
162.7430100057536
 20
319.61739837369032
 30
0.0
 40
2.5000000000005609
 50
15.00000000000473
 51
89.999999999993491
  0
ARC
  5
30841
  8
0
 10
162.7430100057536
 20
199.6173983736908
 30
0.0
 40
2.5000000000004881
 50
270.0
 51
345.00000000000239
  0
LINE
  5
30842
  8
0
 10
132.38022077245839
 20
320.26444642981642
 30
0.0
 11
131.2690225557817
 21
316.11739739021408
 31
0.0
  0
LINE
  5
30843
  8
0
 10
131.2690225557817
 20
203.11739935716739
 30
0.0
 11
132.38022077245839
 21
198.97035031756511
 31
0.0
  0
LINE
  5
30844
  8
0
 10
165.1578244881166
 20
198.97035031756511
 30
0.0
 11
166.26902270479329
 21
203.11739935716739
 31
0.0
  0
LINE
  5
30845
  8
0
 10
166.26902270479329
 20
316.11739739021408
 30
0.0
 11
165.1578244881166
 21
320.26444642981642
 31
0.0
  0
LINE
  5
30846
  8
0
 10
131.2690225557817
 20
279.11739877602213
 30
0.0
 11
128.76902307732229
 21
278.98637845358007
 31
0.0
  0
LINE
  5
30847
  8
0
 10
128.76902307732229
 20
240.24841829380151
 30
0.0
 11
131.2690225557817
 21
240.1173979713594
 31
0.0
  0
LINE
  5
30848
  8
0
 10
166.26902270479329
 20
240.1173979713594
 30
0.0
 11
168.76902218325259
 21
240.24841829380151
 31
0.0
  0
LINE
  5
30849
  8
0
 10
168.76902218325259
 20
278.98637845358007
 30
0.0
 11
166.26902270479329
 21
279.11739877602213
 31
0.0
  0
LINE
  5
3084B
  8
0
 10
125.769022585584
 20
262.01951189143711
 30
0.0
 11
122.5690224335922
 21
262.01951189143711
 31
0.0
  0
LINE
  5
3084D
  8
0
 10
125.769022585584
 20
249.61739859720819
 30
0.0
 11
122.5690224335922
 21
249.61739859720819
 31
0.0
  0
LINE
  5
3084E
  8
0
 10
174.96902282698281
 20
262.01951189143711
 30
0.0
 11
171.76902267499099
 21
262.01951189143711
 31
0.0
  0
LINE
  5
30850
  8
0
 10
174.96902282698281
 20
249.61739859720819
 30
0.0
 11
171.76902267499099
 21
249.61739859720819
 31
0.0
  0
LINE
  5
30852
  8
0
 10
125.769022585584
 20
337.61739998301618
 30
0.0
 11
122.5690224335922
 21
337.61739998301618
 31
0.0
  0
LINE
  5
30853
  8
0
 10
125.769022585584
 20
249.61739859720819
 30
0.0
 11
125.769022585584
 21
339.91740166386722
 31
0.0
  0
LINE
  5
30854
  8
0
 10
122.5690224335922
 20
343.11739622792368
 30
0.0
 11
122.5690224335922
 21
249.61739859720819
 31
0.0
  0
LINE
  5
30855
  8
0
 10
174.96902282698281
 20
337.61739998301618
 30
0.0
 11
171.76902267499099
 21
337.61739998301618
 31
0.0
  0
LINE
  5
30856
  8
0
 10
174.96902282698281
 20
343.11739622792368
 30
0.0
 11
174.96902282698281
 21
249.61739859720819
 31
0.0
  0
LINE
  5
30857
  8
0
 10
171.76902267499099
 20
249.61739859720819
 30
0.0
 11
171.76902267499099
 21
339.91740166386722
 31
0.0
  0
LINE
  5
30859
  8
0
 10
106.2690221832526
 20
354.11739616831892
 30
0.0
 11
191.2690230773224
 21
354.11739616831892
 31
0.0
  0
LINE
  5
3085A
  8
0
 10
106.2690221832526
 20
354.11739616831892
 30
0.0
 11
106.2690221832526
 21
358.11739682397001
 31
0.0
  0
LINE
  5
3085B
  8
0
 10
106.2690221832526
 20
358.11739682397001
 30
0.0
 11
191.2690230773224
 21
358.11739682397001
 31
0.0
  0
LINE
  5
3085F
  8
0
 10
191.26902307732229
 20
354.11739616831892
 30
0.0
 11
191.26902307732229
 21
358.11739682397001
 31
0.0
  0
LINE
  5
30862
  8
0
 10
125.769022585584
 20
339.91740166386722
 30
0.0
 11
171.76902267499099
 21
339.91740166386722
 31
0.0
  0
LINE
  5
30863
  8
0
 10
174.96902282698281
 20
343.11739622792362
 30
0.0
 11
122.5690224335922
 21
343.11739622792362
 31
0.0
  0
POLYLINE
  5
30868
  8
0
 10
110.56902261970838
 20
297.55189506269761
 30
0.0
 66
     1
 70
     8
  0
VERTEX
  8
0
  5
30DB2
 10
110.569
 20
297.552
 30
0.000000
  70
    32
  0
VERTEX
  8
0
  5
30DB3
 10
110.570
 20
297.281
 30
0.000000
  70
    32
  0
VERTEX
  8
0
  5
30DB4
 10
110.571
 20
297.011
 30
0.000000
  70
    32
  0
VERTEX
  8
0
  5
30DB5
 10
110.575
 20
296.740
 30
0.000000
  70
    32
  0
VERTEX
  8
0
  5
30DB6
 10
110.579
 20
296.469
 30
0.000000
  70
    32
  0
VERTEX
  8
0
  5
30DB7
 10
110.584
 20
296.199
 30
0.000000
  70
    32
  0
VERTEX
  8
0
  5
30DB8
 10
110.591
 20
295.928
 30
0.000000
  70
    32
  0
VERTEX
  8
0
  5
30DB9
 10
110.599
 20
295.658
 30
0.000000
  70
    32
  0
VERTEX
  8
0
  5
30DBA
 10
110.608
 20
295.387
 30
0.000000
  70
    32
  0
VERTEX
  8
0
  5
30DBB
 10
110.619
 20
295.117
 30
0.000000
  70
    32
  0
VERTEX
  8
0
  5
30DBC
 10
110.631
 20
294.847
 30
0.000000
  70
    32
  0
VERTEX
  8
0
  5
30DBD
 10
110.643
 20
294.577
 30
0.000000
  70
    32
  0
VERTEX
  8
0
  5
30DBE
 10
110.658
 20
294.307
 30
0.000000
  70
    32
  0
VERTEX
  8
0
  5
30DBF
 10
110.673
 20
294.037
 30
0.000000
  70
    32
  0
VERTEX
  8
0
  5
30DC0
 10
110.690
 20
293.767
 30
0.000000
  70
    32
  0
VERTEX
  8
0
  5
30DC1
 10
110.707
 20
293.497
 30
0.000000
  70
    32
  0
VERTEX
  8
0
  5
30DC2
 10
110.726
 20
293.227
 30
0.000000
  70
    32
  0
VERTEX
  8
0
  5
30DC3
 10
110.747
 20
292.958
 30
0.000000
  70
    32
  0
VERTEX
  8
0
  5
30DC4
 10
110.768
 20
292.689
 30
0.000000
  70
    32
  0
VERTEX
  8
0
  5
30DC5
 10
110.791
 20
292.419
 30
0.000000
  70
    32
  0
VERTEX
  8
0
  5
30DC6
 10
110.815
 20
292.150
 30
0.000000
  70
    32
  0
VERTEX
  8
0
  5
30DC7
 10
110.840
 20
291.882
 30
0.000000
  70
    32
  0
VERTEX
  8
0
  5
30DC8
 10
110.866
 20
291.613
 30
0.000000
  70
    32
  0
VERTEX
  8
0
  5
30DC9
 10
110.894
 20
291.344
 30
0.000000
  70
    32
  0
VERTEX
  8
0
  5
30DCA
 10
110.923
 20
291.076
 30
0.000000
  70
    32
  0
VERTEX
  8
0
  5
30DCB
 10
110.953
 20
290.808
 30
0.000000
  70
    32
  0
VERTEX
  8
0
  5
30DCC
 10
110.984
 20
290.540
 30
0.000000
  70
    32
  0
VERTEX
  8
0
  5
30DCD
 10
111.017
 20
290.273
 30
0.000000
  70
    32
  0
VERTEX
  8
0
  5
30DCE
 10
111.050
 20
290.005
 30
0.000000
  70
    32
  0
VERTEX
  8
0
  5
30DCF
 10
111.085
 20
289.738
 30
0.000000
  70
    32
  0
VERTEX
  8
0
  5
30DD0
 10
111.121
 20
289.471
 30
0.000000
  70
    32
  0
VERTEX
  8
0
  5
30DD1
 10
111.159
 20
289.205
 30
0.000000
  70
    32
  0
VERTEX
  8
0
  5
30DD2
 10
111.197
 20
288.938
 30
0.000000
  70
    32
  0
VERTEX
  8
0
  5
30DD3
 10
111.237
 20
288.672
 30
0.000000
  70
    32
  0
VERTEX
  8
0
  5
30DD4
 10
111.278
 20
288.407
 30
0.000000
  70
    32
  0
VERTEX
  8
0
  5
30DD5
 10
111.320
 20
288.141
 30
0.000000
  70
    32
  0
VERTEX
  8
0
  5
30DD6
 10
111.364
 20
287.876
 30
0.000000
  70
    32
  0
VERTEX
  8
0
  5
30DD7
 10
111.408
 20
287.611
 30
0.000000
  70
    32
  0
VERTEX
  8
0
  5
30DD8
 10
111.454
 20
287.346
 30
0.000000
  70
    32
  0
VERTEX
  8
0
  5
30DD9
 10
111.501
 20
287.082
 30
0.000000
  70
    32
  0
VERTEX
  8
0
  5
30DDA
 10
111.549
 20
286.818
 30
0.000000
  70
    32
  0
VERTEX
  8
0
  5
30DDB
 10
111.599
 20
286.555
 30
0.000000
  70
    32
  0
VERTEX
  8
0
  5
30DDC
 10
111.649
 20
286.292
 30
0.000000
  70
    32
  0
VERTEX
  8
0
  5
30DDD
 10
111.701
 20
286.029
 30
0.000000
  70
    32
  0
VERTEX
  8
0
  5
30DDE
 10
111.754
 20
285.766
 30
0.000000
  70
    32
  0
VERTEX
  8
0
  5
30DDF
 10
111.808
 20
285.504
 30
0.000000
  70
    32
  0
VERTEX
  8
0
  5
30DE0
 10
111.864
 20
285.243
 30
0.000000
  70
    32
  0
VERTEX
  8
0
  5
30DE1
 10
111.920
 20
284.981
 30
0.000000
  70
    32
  0
VERTEX
  8
0
  5
30DE2
 10
111.978
 20
284.720
 30
0.000000
  70
    32
  0
VERTEX
  8
0
  5
30DE3
 10
112.037
 20
284.460
 30
0.000000
  70
    32
  0
VERTEX
  8
0
  5
30DE4
 10
112.097
 20
284.200
 30
0.000000
  70
    32
  0
VERTEX
  8
0
  5
30DE5
 10
112.158
 20
283.940
 30
0.000000
  70
    32
  0
VERTEX
  8
0
  5
30DE6
 10
112.221
 20
283.681
 30
0.000000
  70
    32
  0
VERTEX
  8
0
  5
30DE7
 10
112.284
 20
283.422
 30
0.000000
  70
    32
  0
VERTEX
  8
0
  5
30DE8
 10
112.349
 20
283.164
 30
0.000000
  70
    32
  0
VERTEX
  8
0
  5
30DE9
 10
112.415
 20
282.906
 30
0.000000
  70
    32
  0
VERTEX
  8
0
  5
30DEA
 10
112.482
 20
282.649
 30
0.000000
  70
    32
  0
VERTEX
  8
0
  5
30DEB
 10
112.551
 20
282.392
 30
0.000000
  70
    32
  0
VERTEX
  8
0
  5
30DEC
 10
112.620
 20
282.136
 30
0.000000
  70
    32
  0
VERTEX
  8
0
  5
30DED
 10
112.691
 20
281.880
 30
0.000000
  70
    32
  0
VERTEX
  8
0
  5
30DEE
 10
112.763
 20
281.625
 30
0.000000
  70
    32
  0
VERTEX
  8
0
  5
30DEF
 10
112.836
 20
281.370
 30
0.000000
  70
    32
  0
VERTEX
  8
0
  5
30DF0
 10
112.910
 20
281.115
 30
0.000000
  70
    32
  0
VERTEX
  8
0
  5
30DF1
 10
112.985
 20
280.862
 30
0.000000
  70
    32
  0
VERTEX
  8
0
  5
30DF2
 10
113.062
 20
280.608
 30
0.000000
  70
    32
  0
VERTEX
  8
0
  5
30DF3
 10
113.139
 20
280.356
 30
0.000000
  70
    32
  0
VERTEX
  8
0
  5
30DF4
 10
113.218
 20
280.103
 30
0.000000
  70
    32
  0
VERTEX
  8
0
  5
30DF5
 10
113.298
 20
279.852
 30
0.000000
  70
    32
  0
VERTEX
  8
0
  5
30DF6
 10
113.379
 20
279.601
 30
0.000000
  70
    32
  0
VERTEX
  8
0
  5
30DF7
 10
113.461
 20
279.350
 30
0.000000
  70
    32
  0
VERTEX
  8
0
  5
30DF8
 10
113.544
 20
279.100
 30
0.000000
  70
    32
  0
VERTEX
  8
0
  5
30DF9
 10
113.629
 20
278.851
 30
0.000000
  70
    32
  0
VERTEX
  8
0
  5
30DFA
 10
113.714
 20
278.602
 30
0.000000
  70
    32
  0
VERTEX
  8
0
  5
30DFB
 10
113.801
 20
278.354
 30
0.000000
  70
    32
  0
VERTEX
  8
0
  5
30DFC
 10
113.889
 20
278.107
 30
0.000000
  70
    32
  0
VERTEX
  8
0
  5
30DFD
 10
113.978
 20
277.860
 30
0.000000
  70
    32
  0
VERTEX
  8
0
  5
30DFE
 10
114.068
 20
277.614
 30
0.000000
  70
    32
  0
VERTEX
  8
0
  5
30DFF
 10
114.159
 20
277.368
 30
0.000000
  70
    32
  0
VERTEX
  8
0
  5
30E00
 10
114.252
 20
277.123
 30
0.000000
  70
    32
  0
VERTEX
  8
0
  5
30E01
 10
114.345
 20
276.879
 30
0.000000
  70
    32
  0
VERTEX
  8
0
  5
30E02
 10
114.440
 20
276.636
 30
0.000000
  70
    32
  0
VERTEX
  8
0
  5
30E03
 10
114.535
 20
276.393
 30
0.000000
  70
    32
  0
VERTEX
  8
0
  5
30E04
 10
114.632
 20
276.151
 30
0.000000
  70
    32
  0
VERTEX
  8
0
  5
30E05
 10
114.730
 20
275.909
 30
0.000000
  70
    32
  0
VERTEX
  8
0
  5
30E06
 10
114.829
 20
275.668
 30
0.000000
  70
    32
  0
VERTEX
  8
0
  5
30E07
 10
114.929
 20
275.428
 30
0.000000
  70
    32
  0
VERTEX
  8
0
  5
30E08
 10
115.030
 20
275.189
 30
0.000000
  70
    32
  0
VERTEX
  8
0
  5
30E09
 10
115.132
 20
274.950
 30
0.000000
  70
    32
  0
VERTEX
  8
0
  5
30E0A
 10
115.235
 20
274.712
 30
0.000000
  70
    32
  0
VERTEX
  8
0
  5
30E0B
 10
115.340
 20
274.475
 30
0.000000
  70
    32
  0
VERTEX
  8
0
  5
30E0C
 10
115.445
 20
274.238
 30
0.000000
  70
    32
  0
VERTEX
  8
0
  5
30E0D
 10
115.552
 20
274.003
 30
0.000000
  70
    32
  0
VERTEX
  8
0
  5
30E0E
 10
115.659
 20
273.768
 30
0.000000
  70
    32
  0
VERTEX
  8
0
  5
30E0F
 10
115.768
 20
273.533
 30
0.000000
  70
    32
  0
VERTEX
  8
0
  5
30E10
 10
115.878
 20
273.300
 30
0.000000
  70
    32
  0
VERTEX
  8
0
  5
30E11
 10
115.989
 20
273.067
 30
0.000000
  70
    32
  0
VERTEX
  8
0
  5
30E12
 10
116.100
 20
272.835
 30
0.000000
  70
    32
  0
VERTEX
  8
0
  5
30E13
 10
116.213
 20
272.604
 30
0.000000
  70
    32
  0
VERTEX
  8
0
  5
30E14
 10
116.327
 20
272.374
 30
0.000000
  70
    32
  0
VERTEX
  8
0
  5
30E15
 10
116.442
 20
272.145
 30
0.000000
  70
    32
  0
VERTEX
  8
0
  5
30E16
 10
116.558
 20
271.916
 30
0.000000
  70
    32
  0
VERTEX
  8
0
  5
30E17
 10
116.675
 20
271.688
 30
0.000000
  70
    32
  0
VERTEX
  8
0
  5
30E18
 10
116.793
 20
271.461
 30
0.000000
  70
    32
  0
VERTEX
  8
0
  5
30E19
 10
116.913
 20
271.235
 30
0.000000
  70
    32
  0
VERTEX
  8
0
  5
30E1A
 10
117.033
 20
271.010
 30
0.000000
  70
    32
  0
VERTEX
  8
0
  5
30E1B
 10
117.154
 20
270.785
 30
0.000000
  70
    32
  0
VERTEX
  8
0
  5
30E1C
 10
117.276
 20
270.562
 30
0.000000
  70
    32
  0
VERTEX
  8
0
  5
30E1D
 10
117.399
 20
270.339
 30
0.000000
  70
    32
  0
VERTEX
  8
0
  5
30E1E
 10
117.524
 20
270.117
 30
0.000000
  70
    32
  0
VERTEX
  8
0
  5
30E1F
 10
117.649
 20
269.896
 30
0.000000
  70
    32
  0
VERTEX
  8
0
  5
30E20
 10
117.775
 20
269.676
 30
0.000000
  70
    32
  0
VERTEX
  8
0
  5
30E21
 10
117.902
 20
269.457
 30
0.000000
  70
    32
  0
VERTEX
  8
0
  5
30E22
 10
118.030
 20
269.239
 30
0.000000
  70
    32
  0
VERTEX
  8
0
  5
30E23
 10
118.160
 20
269.022
 30
0.000000
  70
    32
  0
VERTEX
  8
0
  5
30E24
 10
118.290
 20
268.805
 30
0.000000
  70
    32
  0
VERTEX
  8
0
  5
30E25
 10
118.421
 20
268.590
 30
0.000000
  70
    32
  0
VERTEX
  8
0
  5
30E26
 10
118.553
 20
268.375
 30
0.000000
  70
    32
  0
VERTEX
  8
0
  5
30E27
 10
118.686
 20
268.162
 30
0.000000
  70
    32
  0
VERTEX
  8
0
  5
30E28
 10
118.820
 20
267.949
 30
0.000000
  70
    32
  0
VERTEX
  8
0
  5
30E29
 10
118.956
 20
267.737
 30
0.000000
  70
    32
  0
VERTEX
  8
0
  5
30E2A
 10
119.092
 20
267.526
 30
0.000000
  70
    32
  0
VERTEX
  8
0
  5
30E2B
 10
119.229
 20
267.317
 30
0.000000
  70
    32
  0
VERTEX
  8
0
  5
30E2C
 10
119.366
 20
267.108
 30
0.000000
  70
    32
  0
VERTEX
  8
0
  5
30E2D
 10
119.505
 20
266.900
 30
0.000000
  70
    32
  0
VERTEX
  8
0
  5
30E2E
 10
119.645
 20
266.693
 30
0.000000
  70
    32
  0
VERTEX
  8
0
  5
30E2F
 10
119.786
 20
266.487
 30
0.000000
  70
    32
  0
VERTEX
  8
0
  5
30E30
 10
119.928
 20
266.282
 30
0.000000
  70
    32
  0
VERTEX
  8
0
  5
30E31
 10
120.070
 20
266.079
 30
0.000000
  70
    32
  0
VERTEX
  8
0
  5
30E32
 10
120.214
 20
265.876
 30
0.000000
  70
    32
  0
SEQEND
  8
0
  5
30E33
  0
POLYLINE
  5
30869
  8
0
 10
177.32421728328634
 20
265.87573170702473
 30
0.0
 66
     1
 70
     8
  0
VERTEX
  8
0
  5
30E34
 10
177.324
 20
265.876
 30
0.000000
  70
    32
  0
VERTEX
  8
0
  5
30E35
 10
177.468
 20
266.079
 30
0.000000
  70
    32
  0
VERTEX
  8
0
  5
30E36
 10
177.610
 20
266.282
 30
0.000000
  70
    32
  0
VERTEX
  8
0
  5
30E37
 10
177.752
 20
266.487
 30
0.000000
  70
    32
  0
VERTEX
  8
0
  5
30E38
 10
177.893
 20
266.693
 30
0.000000
  70
    32
  0
VERTEX
  8
0
  5
30E39
 10
178.033
 20
266.900
 30
0.000000
  70
    32
  0
VERTEX
  8
0
  5
30E3A
 10
178.172
 20
267.108
 30
0.000000
  70
    32
  0
VERTEX
  8
0
  5
30E3B
 10
178.310
 20
267.317
 30
0.000000
  70
    32
  0
VERTEX
  8
0
  5
30E3C
 10
178.446
 20
267.526
 30
0.000000
  70
    32
  0
VERTEX
  8
0
  5
30E3D
 10
178.583
 20
267.737
 30
0.000000
  70
    32
  0
VERTEX
  8
0
  5
30E3E
 10
178.718
 20
267.949
 30
0.000000
  70
    32
  0
VERTEX
  8
0
  5
30E3F
 10
178.852
 20
268.162
 30
0.000000
  70
    32
  0
VERTEX
  8
0
  5
30E40
 10
178.985
 20
268.375
 30
0.000000
  70
    32
  0
VERTEX
  8
0
  5
30E41
 10
179.117
 20
268.590
 30
0.000000
  70
    32
  0
VERTEX
  8
0
  5
30E42
 10
179.248
 20
268.805
 30
0.000000
  70
    32
  0
VERTEX
  8
0
  5
30E43
 10
179.378
 20
269.022
 30
0.000000
  70
    32
  0
VERTEX
  8
0
  5
30E44
 10
179.508
 20
269.239
 30
0.000000
  70
    32
  0
VERTEX
  8
0
  5
30E45
 10
179.636
 20
269.457
 30
0.000000
  70
    32
  0
VERTEX
  8
0
  5
30E46
 10
179.763
 20
269.676
 30
0.000000
  70
    32
  0
VERTEX
  8
0
  5
30E47
 10
179.889
 20
269.896
 30
0.000000
  70
    32
  0
VERTEX
  8
0
  5
30E48
 10
180.015
 20
270.117
 30
0.000000
  70
    32
  0
VERTEX
  8
0
  5
30E49
 10
180.139
 20
270.339
 30
0.000000
  70
    32
  0
VERTEX
  8
0
  5
30E4A
 10
180.262
 20
270.562
 30
0.000000
  70
    32
  0
VERTEX
  8
0
  5
30E4B
 10
180.384
 20
270.785
 30
0.000000
  70
    32
  0
VERTEX
  8
0
  5
30E4C
 10
180.505
 20
271.010
 30
0.000000
  70
    32
  0
VERTEX
  8
0
  5
30E4D
 10
180.626
 20
271.235
 30
0.000000
  70
    32
  0
VERTEX
  8
0
  5
30E4E
 10
180.745
 20
271.461
 30
0.000000
  70
    32
  0
VERTEX
  8
0
  5
30E4F
 10
180.863
 20
271.688
 30
0.000000
  70
    32
  0
VERTEX
  8
0
  5
30E50
 10
180.980
 20
271.916
 30
0.000000
  70
    32
  0
VERTEX
  8
0
  5
30E51
 10
181.096
 20
272.145
 30
0.000000
  70
    32
  0
VERTEX
  8
0
  5
30E52
 10
181.211
 20
272.374
 30
0.000000
  70
    32
  0
VERTEX
  8
0
  5
30E53
 10
181.325
 20
272.604
 30
0.000000
  70
    32
  0
VERTEX
  8
0
  5
30E54
 10
181.438
 20
272.835
 30
0.000000
  70
    32
  0
VERTEX
  8
0
  5
30E55
 10
181.550
 20
273.067
 30
0.000000
  70
    32
  0
VERTEX
  8
0
  5
30E56
 10
181.660
 20
273.300
 30
0.000000
  70
    32
  0
VERTEX
  8
0
  5
30E57
 10
181.770
 20
273.533
 30
0.000000
  70
    32
  0
VERTEX
  8
0
  5
30E58
 10
181.879
 20
273.768
 30
0.000000
  70
    32
  0
VERTEX
  8
0
  5
30E59
 10
181.986
 20
274.003
 30
0.000000
  70
    32
  0
VERTEX
  8
0
  5
30E5A
 10
182.093
 20
274.238
 30
0.000000
  70
    32
  0
VERTEX
  8
0
  5
30E5B
 10
182.198
 20
274.475
 30
0.000000
  70
    32
  0
VERTEX
  8
0
  5
30E5C
 10
182.303
 20
274.712
 30
0.000000
  70
    32
  0
VERTEX
  8
0
  5
30E5D
 10
182.406
 20
274.950
 30
0.000000
  70
    32
  0
VERTEX
  8
0
  5
30E5E
 10
182.508
 20
275.189
 30
0.000000
  70
    32
  0
VERTEX
  8
0
  5
30E5F
 10
182.609
 20
275.428
 30
0.000000
  70
    32
  0
VERTEX
  8
0
  5
30E60
 10
182.709
 20
275.668
 30
0.000000
  70
    32
  0
VERTEX
  8
0
  5
30E61
 10
182.808
 20
275.909
 30
0.000000
  70
    32
  0
VERTEX
  8
0
  5
30E62
 10
182.906
 20
276.151
 30
0.000000
  70
    32
  0
VERTEX
  8
0
  5
30E63
 10
183.003
 20
276.393
 30
0.000000
  70
    32
  0
VERTEX
  8
0
  5
30E64
 10
183.099
 20
276.636
 30
0.000000
  70
    32
  0
VERTEX
  8
0
  5
30E65
 10
183.193
 20
276.879
 30
0.000000
  70
    32
  0
VERTEX
  8
0
  5
30E66
 10
183.287
 20
277.123
 30
0.000000
  70
    32
  0
VERTEX
  8
0
  5
30E67
 10
183.379
 20
277.368
 30
0.000000
  70
    32
  0
VERTEX
  8
0
  5
30E68
 10
183.470
 20
277.614
 30
0.000000
  70
    32
  0
VERTEX
  8
0
  5
30E69
 10
183.560
 20
277.860
 30
0.000000
  70
    32
  0
VERTEX
  8
0
  5
30E6A
 10
183.649
 20
278.107
 30
0.000000
  70
    32
  0
VERTEX
  8
0
  5
30E6B
 10
183.737
 20
278.354
 30
0.000000
  70
    32
  0
VERTEX
  8
0
  5
30E6C
 10
183.824
 20
278.602
 30
0.000000
  70
    32
  0
VERTEX
  8
0
  5
30E6D
 10
183.909
 20
278.851
 30
0.000000
  70
    32
  0
VERTEX
  8
0
  5
30E6E
 10
183.994
 20
279.100
 30
0.000000
  70
    32
  0
VERTEX
  8
0
  5
30E6F
 10
184.077
 20
279.350
 30
0.000000
  70
    32
  0
VERTEX
  8
0
  5
30E70
 10
184.159
 20
279.601
 30
0.000000
  70
    32
  0
VERTEX
  8
0
  5
30E71
 10
184.240
 20
279.852
 30
0.000000
  70
    32
  0
VERTEX
  8
0
  5
30E72
 10
184.320
 20
280.103
 30
0.000000
  70
    32
  0
VERTEX
  8
0
  5
30E73
 10
184.399
 20
280.356
 30
0.000000
  70
    32
  0
VERTEX
  8
0
  5
30E74
 10
184.477
 20
280.608
 30
0.000000
  70
    32
  0
VERTEX
  8
0
  5
30E75
 10
184.553
 20
280.862
 30
0.000000
  70
    32
  0
VERTEX
  8
0
  5
30E76
 10
184.628
 20
281.115
 30
0.000000
  70
    32
  0
VERTEX
  8
0
  5
30E77
 10
184.702
 20
281.370
 30
0.000000
  70
    32
  0
VERTEX
  8
0
  5
30E78
 10
184.775
 20
281.625
 30
0.000000
  70
    32
  0
VERTEX
  8
0
  5
30E79
 10
184.847
 20
281.880
 30
0.000000
  70
    32
  0
VERTEX
  8
0
  5
30E7A
 10
184.918
 20
282.136
 30
0.000000
  70
    32
  0
VERTEX
  8
0
  5
30E7B
 10
184.987
 20
282.392
 30
0.000000
  70
    32
  0
VERTEX
  8
0
  5
30E7C
 10
185.056
 20
282.649
 30
0.000000
  70
    32
  0
VERTEX
  8
0
  5
30E7D
 10
185.123
 20
282.906
 30
0.000000
  70
    32
  0
VERTEX
  8
0
  5
30E7E
 10
185.189
 20
283.164
 30
0.000000
  70
    32
  0
VERTEX
  8
0
  5
30E7F
 10
185.254
 20
283.422
 30
0.000000
  70
    32
  0
VERTEX
  8
0
  5
30E80
 10
185.317
 20
283.681
 30
0.000000
  70
    32
  0
VERTEX
  8
0
  5
30E81
 10
185.380
 20
283.940
 30
0.000000
  70
    32
  0
VERTEX
  8
0
  5
30E82
 10
185.441
 20
284.200
 30
0.000000
  70
    32
  0
VERTEX
  8
0
  5
30E83
 10
185.501
 20
284.460
 30
0.000000
  70
    32
  0
VERTEX
  8
0
  5
30E84
 10
185.560
 20
284.720
 30
0.000000
  70
    32
  0
VERTEX
  8
0
  5
30E85
 10
185.618
 20
284.981
 30
0.000000
  70
    32
  0
VERTEX
  8
0
  5
30E86
 10
185.675
 20
285.243
 30
0.000000
  70
    32
  0
VERTEX
  8
0
  5
30E87
 10
185.730
 20
285.504
 30
0.000000
  70
    32
  0
VERTEX
  8
0
  5
30E88
 10
185.784
 20
285.766
 30
0.000000
  70
    32
  0
VERTEX
  8
0
  5
30E89
 10
185.837
 20
286.029
 30
0.000000
  70
    32
  0
VERTEX
  8
0
  5
30E8A
 10
185.889
 20
286.292
 30
0.000000
  70
    32
  0
VERTEX
  8
0
  5
30E8B
 10
185.939
 20
286.555
 30
0.000000
  70
    32
  0
VERTEX
  8
0
  5
30E8C
 10
185.989
 20
286.818
 30
0.000000
  70
    32
  0
VERTEX
  8
0
  5
30E8D
 10
186.037
 20
287.082
 30
0.000000
  70
    32
  0
VERTEX
  8
0
  5
30E8E
 10
186.084
 20
287.346
 30
0.000000
  70
    32
  0
VERTEX
  8
0
  5
30E8F
 10
186.130
 20
287.611
 30
0.000000
  70
    32
  0
VERTEX
  8
0
  5
30E90
 10
186.174
 20
287.876
 30
0.000000
  70
    32
  0
VERTEX
  8
0
  5
30E91
 10
186.218
 20
288.141
 30
0.000000
  70
    32
  0
VERTEX
  8
0
  5
30E92
 10
186.260
 20
288.407
 30
0.000000
  70
    32
  0
VERTEX
  8
0
  5
30E93
 10
186.301
 20
288.672
 30
0.000000
  70
    32
  0
VERTEX
  8
0
  5
30E94
 10
186.341
 20
288.938
 30
0.000000
  70
    32
  0
VERTEX
  8
0
  5
30E95
 10
186.379
 20
289.205
 30
0.000000
  70
    32
  0
VERTEX
  8
0
  5
30E96
 10
186.417
 20
289.471
 30
0.000000
  70
    32
  0
VERTEX
  8
0
  5
30E97
 10
186.453
 20
289.738
 30
0.000000
  70
    32
  0
VERTEX
  8
0
  5
30E98
 10
186.488
 20
290.005
 30
0.000000
  70
    32
  0
VERTEX
  8
0
  5
30E99
 10
186.521
 20
290.273
 30
0.000000
  70
    32
  0
VERTEX
  8
0
  5
30E9A
 10
186.554
 20
290.540
 30
0.000000
  70
    32
  0
VERTEX
  8
0
  5
30E9B
 10
186.585
 20
290.808
 30
0.000000
  70
    32
  0
VERTEX
  8
0
  5
30E9C
 10
186.615
 20
291.076
 30
0.000000
  70
    32
  0
VERTEX
  8
0
  5
30E9D
 10
186.644
 20
291.344
 30
0.000000
  70
    32
  0
VERTEX
  8
0
  5
30E9E
 10
186.672
 20
291.613
 30
0.000000
  70
    32
  0
VERTEX
  8
0
  5
30E9F
 10
186.698
 20
291.882
 30
0.000000
  70
    32
  0
VERTEX
  8
0
  5
30EA0
 10
186.723
 20
292.150
 30
0.000000
  70
    32
  0
VERTEX
  8
0
  5
30EA1
 10
186.747
 20
292.419
 30
0.000000
  70
    32
  0
VERTEX
  8
0
  5
30EA2
 10
186.770
 20
292.689
 30
0.000000
  70
    32
  0
VERTEX
  8
0
  5
30EA3
 10
186.791
 20
292.958
 30
0.000000
  70
    32
  0
VERTEX
  8
0
  5
30EA4
 10
186.812
 20
293.227
 30
0.000000
  70
    32
  0
VERTEX
  8
0
  5
30EA5
 10
186.831
 20
293.497
 30
0.000000
  70
    32
  0
VERTEX
  8
0
  5
30EA6
 10
186.848
 20
293.767
 30
0.000000
  70
    32
  0
VERTEX
  8
0
  5
30EA7
 10
186.865
 20
294.037
 30
0.000000
  70
    32
  0
VERTEX
  8
0
  5
30EA8
 10
186.880
 20
294.307
 30
0.000000
  70
    32
  0
VERTEX
  8
0
  5
30EA9
 10
186.895
 20
294.577
 30
0.000000
  70
    32
  0
VERTEX
  8
0
  5
30EAA
 10
186.908
 20
294.847
 30
0.000000
  70
    32
  0
VERTEX
  8
0
  5
30EAB
 10
186.919
 20
295.117
 30
0.000000
  70
    32
  0
VERTEX
  8
0
  5
30EAC
 10
186.930
 20
295.387
 30
0.000000
  70
    32
  0
VERTEX
  8
0
  5
30EAD
 10
186.939
 20
295.658
 30
0.000000
  70
    32
  0
VERTEX
  8
0
  5
30EAE
 10
186.947
 20
295.928
 30
0.000000
  70
    32
  0
VERTEX
  8
0
  5
30EAF
 10
186.954
 20
296.199
 30
0.000000
  70
    32
  0
VERTEX
  8
0
  5
30EB0
 10
186.959
 20
296.469
 30
0.000000
  70
    32
  0
VERTEX
  8
0
  5
30EB1
 10
186.963
 20
296.740
 30
0.000000
  70
    32
  0
VERTEX
  8
0
  5
30EB2
 10
186.967
 20
297.011
 30
0.000000
  70
    32
  0
VERTEX
  8
0
  5
30EB3
 10
186.968
 20
297.281
 30
0.000000
  70
    32
  0
VERTEX
  8
0
  5
30EB4
 10
186.969
 20
297.552
 30
0.000000
  70
    32
  0
SEQEND
  8
0
  5
30EB5
  0
POLYLINE
  5
3086A
  8
0
 10
175.60783894802367
 20
263.6173983736914
 30
0.0
 66
     1
 70
     8
  0
VERTEX
  8
0
  5
30EB6
 10
175.608
 20
263.617
 30
0.000000
  70
    32
  0
VERTEX
  8
0
  5
30EB7
 10
175.608
 20
263.618
 30
0.000000
  70
    32
  0
VERTEX
  8
0
  5
30EB8
 10
175.609
 20
263.619
 30
0.000000
  70
    32
  0
VERTEX
  8
0
  5
30EB9
 10
175.610
 20
263.620
 30
0.000000
  70
    32
  0
VERTEX
  8
0
  5
30EBA
 10
175.610
 20
263.620
 30
0.000000
  70
    32
  0
VERTEX
  8
0
  5
30EBB
 10
175.611
 20
263.621
 30
0.000000
  70
    32
  0
VERTEX
  8
0
  5
30EBC
 10
175.612
 20
263.622
 30
0.000000
  70
    32
  0
VERTEX
  8
0
  5
30EBD
 10
175.612
 20
263.623
 30
0.000000
  70
    32
  0
VERTEX
  8
0
  5
30EBE
 10
175.613
 20
263.623
 30
0.000000
  70
    32
  0
VERTEX
  8
0
  5
30EBF
 10
175.613
 20
263.624
 30
0.000000
  70
    32
  0
VERTEX
  8
0
  5
30EC0
 10
175.614
 20
263.625
 30
0.000000
  70
    32
  0
VERTEX
  8
0
  5
30EC1
 10
175.615
 20
263.626
 30
0.000000
  70
    32
  0
VERTEX
  8
0
  5
30EC2
 10
175.615
 20
263.627
 30
0.000000
  70
    32
  0
VERTEX
  8
0
  5
30EC3
 10
175.616
 20
263.627
 30
0.000000
  70
    32
  0
VERTEX
  8
0
  5
30EC4
 10
175.616
 20
263.628
 30
0.000000
  70
    32
  0
VERTEX
  8
0
  5
30EC5
 10
175.617
 20
263.629
 30
0.000000
  70
    32
  0
VERTEX
  8
0
  5
30EC6
 10
175.618
 20
263.630
 30
0.000000
  70
    32
  0
VERTEX
  8
0
  5
30EC7
 10
175.618
 20
263.630
 30
0.000000
  70
    32
  0
VERTEX
  8
0
  5
30EC8
 10
175.619
 20
263.631
 30
0.000000
  70
    32
  0
VERTEX
  8
0
  5
30EC9
 10
175.620
 20
263.632
 30
0.000000
  70
    32
  0
VERTEX
  8
0
  5
30ECA
 10
175.620
 20
263.633
 30
0.000000
  70
    32
  0
VERTEX
  8
0
  5
30ECB
 10
175.621
 20
263.633
 30
0.000000
  70
    32
  0
VERTEX
  8
0
  5
30ECC
 10
175.621
 20
263.634
 30
0.000000
  70
    32
  0
VERTEX
  8
0
  5
30ECD
 10
175.622
 20
263.635
 30
0.000000
  70
    32
  0
VERTEX
  8
0
  5
30ECE
 10
175.623
 20
263.636
 30
0.000000
  70
    32
  0
VERTEX
  8
0
  5
30ECF
 10
175.623
 20
263.636
 30
0.000000
  70
    32
  0
VERTEX
  8
0
  5
30ED0
 10
175.624
 20
263.637
 30
0.000000
  70
    32
  0
VERTEX
  8
0
  5
30ED1
 10
175.624
 20
263.638
 30
0.000000
  70
    32
  0
VERTEX
  8
0
  5
30ED2
 10
175.625
 20
263.639
 30
0.000000
  70
    32
  0
VERTEX
  8
0
  5
30ED3
 10
175.626
 20
263.639
 30
0.000000
  70
    32
  0
VERTEX
  8
0
  5
30ED4
 10
175.626
 20
263.640
 30
0.000000
  70
    32
  0
VERTEX
  8
0
  5
30ED5
 10
175.627
 20
263.641
 30
0.000000
  70
    32
  0
VERTEX
  8
0
  5
30ED6
 10
175.628
 20
263.642
 30
0.000000
  70
    32
  0
VERTEX
  8
0
  5
30ED7
 10
175.628
 20
263.642
 30
0.000000
  70
    32
  0
VERTEX
  8
0
  5
30ED8
 10
175.629
 20
263.643
 30
0.000000
  70
    32
  0
VERTEX
  8
0
  5
30ED9
 10
175.629
 20
263.644
 30
0.000000
  70
    32
  0
VERTEX
  8
0
  5
30EDA
 10
175.630
 20
263.645
 30
0.000000
  70
    32
  0
VERTEX
  8
0
  5
30EDB
 10
175.631
 20
263.646
 30
0.000000
  70
    32
  0
VERTEX
  8
0
  5
30EDC
 10
175.631
 20
263.646
 30
0.000000
  70
    32
  0
VERTEX
  8
0
  5
30EDD
 10
175.632
 20
263.647
 30
0.000000
  70
    32
  0
VERTEX
  8
0
  5
30EDE
 10
175.632
 20
263.648
 30
0.000000
  70
    32
  0
VERTEX
  8
0
  5
30EDF
 10
175.633
 20
263.649
 30
0.000000
  70
    32
  0
VERTEX
  8
0
  5
30EE0
 10
175.634
 20
263.649
 30
0.000000
  70
    32
  0
VERTEX
  8
0
  5
30EE1
 10
175.634
 20
263.650
 30
0.000000
  70
    32
  0
VERTEX
  8
0
  5
30EE2
 10
175.635
 20
263.651
 30
0.000000
  70
    32
  0
VERTEX
  8
0
  5
30EE3
 10
175.636
 20
263.652
 30
0.000000
  70
    32
  0
VERTEX
  8
0
  5
30EE4
 10
175.636
 20
263.652
 30
0.000000
  70
    32
  0
VERTEX
  8
0
  5
30EE5
 10
175.637
 20
263.653
 30
0.000000
  70
    32
  0
VERTEX
  8
0
  5
30EE6
 10
175.637
 20
263.654
 30
0.000000
  70
    32
  0
VERTEX
  8
0
  5
30EE7
 10
175.638
 20
263.655
 30
0.000000
  70
    32
  0
VERTEX
  8
0
  5
30EE8
 10
175.639
 20
263.655
 30
0.000000
  70
    32
  0
VERTEX
  8
0
  5
30EE9
 10
175.639
 20
263.656
 30
0.000000
  70
    32
  0
VERTEX
  8
0
  5
30EEA
 10
175.640
 20
263.657
 30
0.000000
  70
    32
  0
VERTEX
  8
0
  5
30EEB
 10
175.641
 20
263.658
 30
0.000000
  70
    32
  0
VERTEX
  8
0
  5
30EEC
 10
175.641
 20
263.658
 30
0.000000
  70
    32
  0
VERTEX
  8
0
  5
30EED
 10
175.642
 20
263.659
 30
0.000000
  70
    32
  0
VERTEX
  8
0
  5
30EEE
 10
175.642
 20
263.660
 30
0.000000
  70
    32
  0
VERTEX
  8
0
  5
30EEF
 10
175.643
 20
263.661
 30
0.000000
  70
    32
  0
VERTEX
  8
0
  5
30EF0
 10
175.644
 20
263.662
 30
0.000000
  70
    32
  0
VERTEX
  8
0
  5
30EF1
 10
175.644
 20
263.662
 30
0.000000
  70
    32
  0
VERTEX
  8
0
  5
30EF2
 10
175.645
 20
263.663
 30
0.000000
  70
    32
  0
VERTEX
  8
0
  5
30EF3
 10
175.645
 20
263.664
 30
0.000000
  70
    32
  0
VERTEX
  8
0
  5
30EF4
 10
175.646
 20
263.665
 30
0.000000
  70
    32
  0
VERTEX
  8
0
  5
30EF5
 10
175.647
 20
263.665
 30
0.000000
  70
    32
  0
VERTEX
  8
0
  5
30EF6
 10
175.647
 20
263.666
 30
0.000000
  70
    32
  0
VERTEX
  8
0
  5
30EF7
 10
175.648
 20
263.667
 30
0.000000
  70
    32
  0
VERTEX
  8
0
  5
30EF8
 10
175.649
 20
263.668
 30
0.000000
  70
    32
  0
VERTEX
  8
0
  5
30EF9
 10
175.649
 20
263.668
 30
0.000000
  70
    32
  0
VERTEX
  8
0
  5
30EFA
 10
175.650
 20
263.669
 30
0.000000
  70
    32
  0
VERTEX
  8
0
  5
30EFB
 10
175.650
 20
263.670
 30
0.000000
  70
    32
  0
VERTEX
  8
0
  5
30EFC
 10
175.651
 20
263.671
 30
0.000000
  70
    32
  0
VERTEX
  8
0
  5
30EFD
 10
175.652
 20
263.671
 30
0.000000
  70
    32
  0
VERTEX
  8
0
  5
30EFE
 10
175.652
 20
263.672
 30
0.000000
  70
    32
  0
VERTEX
  8
0
  5
30EFF
 10
175.653
 20
263.673
 30
0.000000
  70
    32
  0
VERTEX
  8
0
  5
30F00
 10
175.653
 20
263.674
 30
0.000000
  70
    32
  0
VERTEX
  8
0
  5
30F01
 10
175.654
 20
263.674
 30
0.000000
  70
    32
  0
VERTEX
  8
0
  5
30F02
 10
175.655
 20
263.675
 30
0.000000
  70
    32
  0
VERTEX
  8
0
  5
30F03
 10
175.655
 20
263.676
 30
0.000000
  70
    32
  0
VERTEX
  8
0
  5
30F04
 10
175.656
 20
263.677
 30
0.000000
  70
    32
  0
VERTEX
  8
0
  5
30F05
 10
175.657
 20
263.677
 30
0.000000
  70
    32
  0
VERTEX
  8
0
  5
30F06
 10
175.657
 20
263.678
 30
0.000000
  70
    32
  0
VERTEX
  8
0
  5
30F07
 10
175.658
 20
263.679
 30
0.000000
  70
    32
  0
VERTEX
  8
0
  5
30F08
 10
175.658
 20
263.680
 30
0.000000
  70
    32
  0
VERTEX
  8
0
  5
30F09
 10
175.659
 20
263.681
 30
0.000000
  70
    32
  0
VERTEX
  8
0
  5
30F0A
 10
175.660
 20
263.681
 30
0.000000
  70
    32
  0
VERTEX
  8
0
  5
30F0B
 10
175.660
 20
263.682
 30
0.000000
  70
    32
  0
VERTEX
  8
0
  5
30F0C
 10
175.661
 20
263.683
 30
0.000000
  70
    32
  0
VERTEX
  8
0
  5
30F0D
 10
175.661
 20
263.684
 30
0.000000
  70
    32
  0
VERTEX
  8
0
  5
30F0E
 10
175.662
 20
263.684
 30
0.000000
  70
    32
  0
VERTEX
  8
0
  5
30F0F
 10
175.663
 20
263.685
 30
0.000000
  70
    32
  0
VERTEX
  8
0
  5
30F10
 10
175.663
 20
263.686
 30
0.000000
  70
    32
  0
VERTEX
  8
0
  5
30F11
 10
175.664
 20
263.687
 30
0.000000
  70
    32
  0
VERTEX
  8
0
  5
30F12
 10
175.665
 20
263.687
 30
0.000000
  70
    32
  0
VERTEX
  8
0
  5
30F13
 10
175.665
 20
263.688
 30
0.000000
  70
    32
  0
VERTEX
  8
0
  5
30F14
 10
175.666
 20
263.689
 30
0.000000
  70
    32
  0
VERTEX
  8
0
  5
30F15
 10
175.666
 20
263.690
 30
0.000000
  70
    32
  0
VERTEX
  8
0
  5
30F16
 10
175.667
 20
263.690
 30
0.000000
  70
    32
  0
VERTEX
  8
0
  5
30F17
 10
175.668
 20
263.691
 30
0.000000
  70
    32
  0
VERTEX
  8
0
  5
30F18
 10
175.668
 20
263.692
 30
0.000000
  70
    32
  0
VERTEX
  8
0
  5
30F19
 10
175.669
 20
263.693
 30
0.000000
  70
    32
  0
VERTEX
  8
0
  5
30F1A
 10
175.669
 20
263.693
 30
0.000000
  70
    32
  0
VERTEX
  8
0
  5
30F1B
 10
175.670
 20
263.694
 30
0.000000
  70
    32
  0
VERTEX
  8
0
  5
30F1C
 10
175.671
 20
263.695
 30
0.000000
  70
    32
  0
VERTEX
  8
0
  5
30F1D
 10
175.671
 20
263.696
 30
0.000000
  70
    32
  0
VERTEX
  8
0
  5
30F1E
 10
175.672
 20
263.697
 30
0.000000
  70
    32
  0
VERTEX
  8
0
  5
30F1F
 10
175.673
 20
263.697
 30
0.000000
  70
    32
  0
VERTEX
  8
0
  5
30F20
 10
175.673
 20
263.698
 30
0.000000
  70
    32
  0
VERTEX
  8
0
  5
30F21
 10
175.674
 20
263.699
 30
0.000000
  70
    32
  0
VERTEX
  8
0
  5
30F22
 10
175.674
 20
263.700
 30
0.000000
  70
    32
  0
VERTEX
  8
0
  5
30F23
 10
175.675
 20
263.700
 30
0.000000
  70
    32
  0
VERTEX
  8
0
  5
30F24
 10
175.676
 20
263.701
 30
0.000000
  70
    32
  0
VERTEX
  8
0
  5
30F25
 10
175.676
 20
263.702
 30
0.000000
  70
    32
  0
VERTEX
  8
0
  5
30F26
 10
175.677
 20
263.703
 30
0.000000
  70
    32
  0
VERTEX
  8
0
  5
30F27
 10
175.677
 20
263.703
 30
0.000000
  70
    32
  0
VERTEX
  8
0
  5
30F28
 10
175.678
 20
263.704
 30
0.000000
  70
    32
  0
VERTEX
  8
0
  5
30F29
 10
175.679
 20
263.705
 30
0.000000
  70
    32
  0
VERTEX
  8
0
  5
30F2A
 10
175.679
 20
263.706
 30
0.000000
  70
    32
  0
VERTEX
  8
0
  5
30F2B
 10
175.680
 20
263.706
 30
0.000000
  70
    32
  0
VERTEX
  8
0
  5
30F2C
 10
175.681
 20
263.707
 30
0.000000
  70
    32
  0
VERTEX
  8
0
  5
30F2D
 10
175.681
 20
263.708
 30
0.000000
  70
    32
  0
VERTEX
  8
0
  5
30F2E
 10
175.682
 20
263.709
 30
0.000000
  70
    32
  0
VERTEX
  8
0
  5
30F2F
 10
175.682
 20
263.709
 30
0.000000
  70
    32
  0
VERTEX
  8
0
  5
30F30
 10
175.683
 20
263.710
 30
0.000000
  70
    32
  0
VERTEX
  8
0
  5
30F31
 10
175.684
 20
263.711
 30
0.000000
  70
    32
  0
VERTEX
  8
0
  5
30F32
 10
175.684
 20
263.712
 30
0.000000
  70
    32
  0
VERTEX
  8
0
  5
30F33
 10
175.685
 20
263.713
 30
0.000000
  70
    32
  0
VERTEX
  8
0
  5
30F34
 10
175.685
 20
263.713
 30
0.000000
  70
    32
  0
VERTEX
  8
0
  5
30F35
 10
175.686
 20
263.714
 30
0.000000
  70
    32
  0
VERTEX
  8
0
  5
30F36
 10
175.687
 20
263.715
 30
0.000000
  70
    32
  0
SEQEND
  8
0
  5
30F37
  0
LINE
  5
3086B
  8
0
 10
110.5690241919292
 20
347.11739688357471
 30
0.0
 11
186.96902106864579
 21
347.11739688357471
 31
0.0
  0
POLYLINE
  5
3086C
  8
0
 10
171.76902261970821
 20
330.48615638415998
 30
0.0
 66
     1
 70
     8
  0
VERTEX
  8
0
  5
30F38
 10
171.769
 20
330.486
 30
0.000000
  70
    32
  0
VERTEX
  8
0
  5
30F39
 10
171.672
 20
330.591
 30
0.000000
  70
    32
  0
VERTEX
  8
0
  5
30F3A
 10
171.575
 20
330.696
 30
0.000000
  70
    32
  0
VERTEX
  8
0
  5
30F3B
 10
171.477
 20
330.800
 30
0.000000
  70
    32
  0
VERTEX
  8
0
  5
30F3C
 10
171.379
 20
330.904
 30
0.000000
  70
    32
  0
VERTEX
  8
0
  5
30F3D
 10
171.281
 20
331.008
 30
0.000000
  70
    32
  0
VERTEX
  8
0
  5
30F3E
 10
171.182
 20
331.111
 30
0.000000
  70
    32
  0
VERTEX
  8
0
  5
30F3F
 10
171.084
 20
331.213
 30
0.000000
  70
    32
  0
VERTEX
  8
0
  5
30F40
 10
170.984
 20
331.315
 30
0.000000
  70
    32
  0
VERTEX
  8
0
  5
30F41
 10
170.885
 20
331.417
 30
0.000000
  70
    32
  0
VERTEX
  8
0
  5
30F42
 10
170.785
 20
331.518
 30
0.000000
  70
    32
  0
VERTEX
  8
0
  5
30F43
 10
170.685
 20
331.618
 30
0.000000
  70
    32
  0
VERTEX
  8
0
  5
30F44
 10
170.585
 20
331.719
 30
0.000000
  70
    32
  0
VERTEX
  8
0
  5
30F45
 10
170.484
 20
331.818
 30
0.000000
  70
    32
  0
VERTEX
  8
0
  5
30F46
 10
170.383
 20
331.918
 30
0.000000
  70
    32
  0
VERTEX
  8
0
  5
30F47
 10
170.282
 20
332.017
 30
0.000000
  70
    32
  0
VERTEX
  8
0
  5
30F48
 10
170.181
 20
332.115
 30
0.000000
  70
    32
  0
VERTEX
  8
0
  5
30F49
 10
170.079
 20
332.213
 30
0.000000
  70
    32
  0
VERTEX
  8
0
  5
30F4A
 10
169.977
 20
332.310
 30
0.000000
  70
    32
  0
VERTEX
  8
0
  5
30F4B
 10
169.874
 20
332.407
 30
0.000000
  70
    32
  0
VERTEX
  8
0
  5
30F4C
 10
169.772
 20
332.504
 30
0.000000
  70
    32
  0
VERTEX
  8
0
  5
30F4D
 10
169.669
 20
332.600
 30
0.000000
  70
    32
  0
VERTEX
  8
0
  5
30F4E
 10
169.566
 20
332.695
 30
0.000000
  70
    32
  0
VERTEX
  8
0
  5
30F4F
 10
169.462
 20
332.790
 30
0.000000
  70
    32
  0
VERTEX
  8
0
  5
30F50
 10
169.358
 20
332.885
 30
0.000000
  70
    32
  0
VERTEX
  8
0
  5
30F51
 10
169.254
 20
332.979
 30
0.000000
  70
    32
  0
VERTEX
  8
0
  5
30F52
 10
169.150
 20
333.073
 30
0.000000
  70
    32
  0
VERTEX
  8
0
  5
30F53
 10
169.045
 20
333.166
 30
0.000000
  70
    32
  0
VERTEX
  8
0
  5
30F54
 10
168.941
 20
333.258
 30
0.000000
  70
    32
  0
VERTEX
  8
0
  5
30F55
 10
168.835
 20
333.351
 30
0.000000
  70
    32
  0
VERTEX
  8
0
  5
30F56
 10
168.730
 20
333.442
 30
0.000000
  70
    32
  0
VERTEX
  8
0
  5
30F57
 10
168.624
 20
333.534
 30
0.000000
  70
    32
  0
VERTEX
  8
0
  5
30F58
 10
168.518
 20
333.624
 30
0.000000
  70
    32
  0
VERTEX
  8
0
  5
30F59
 10
168.412
 20
333.715
 30
0.000000
  70
    32
  0
VERTEX
  8
0
  5
30F5A
 10
168.306
 20
333.804
 30
0.000000
  70
    32
  0
VERTEX
  8
0
  5
30F5B
 10
168.199
 20
333.894
 30
0.000000
  70
    32
  0
VERTEX
  8
0
  5
30F5C
 10
168.092
 20
333.983
 30
0.000000
  70
    32
  0
VERTEX
  8
0
  5
30F5D
 10
167.985
 20
334.071
 30
0.000000
  70
    32
  0
VERTEX
  8
0
  5
30F5E
 10
167.877
 20
334.159
 30
0.000000
  70
    32
  0
VERTEX
  8
0
  5
30F5F
 10
167.769
 20
334.246
 30
0.000000
  70
    32
  0
VERTEX
  8
0
  5
30F60
 10
167.661
 20
334.333
 30
0.000000
  70
    32
  0
VERTEX
  8
0
  5
30F61
 10
167.553
 20
334.419
 30
0.000000
  70
    32
  0
VERTEX
  8
0
  5
30F62
 10
167.445
 20
334.505
 30
0.000000
  70
    32
  0
VERTEX
  8
0
  5
30F63
 10
167.336
 20
334.590
 30
0.000000
  70
    32
  0
VERTEX
  8
0
  5
30F64
 10
167.227
 20
334.675
 30
0.000000
  70
    32
  0
VERTEX
  8
0
  5
30F65
 10
167.118
 20
334.759
 30
0.000000
  70
    32
  0
VERTEX
  8
0
  5
30F66
 10
167.008
 20
334.843
 30
0.000000
  70
    32
  0
VERTEX
  8
0
  5
30F67
 10
166.898
 20
334.927
 30
0.000000
  70
    32
  0
VERTEX
  8
0
  5
30F68
 10
166.788
 20
335.009
 30
0.000000
  70
    32
  0
VERTEX
  8
0
  5
30F69
 10
166.678
 20
335.092
 30
0.000000
  70
    32
  0
VERTEX
  8
0
  5
30F6A
 10
166.567
 20
335.174
 30
0.000000
  70
    32
  0
VERTEX
  8
0
  5
30F6B
 10
166.457
 20
335.255
 30
0.000000
  70
    32
  0
VERTEX
  8
0
  5
30F6C
 10
166.346
 20
335.336
 30
0.000000
  70
    32
  0
VERTEX
  8
0
  5
30F6D
 10
166.234
 20
335.416
 30
0.000000
  70
    32
  0
VERTEX
  8
0
  5
30F6E
 10
166.123
 20
335.496
 30
0.000000
  70
    32
  0
VERTEX
  8
0
  5
30F6F
 10
166.011
 20
335.575
 30
0.000000
  70
    32
  0
VERTEX
  8
0
  5
30F70
 10
165.899
 20
335.654
 30
0.000000
  70
    32
  0
VERTEX
  8
0
  5
30F71
 10
165.787
 20
335.732
 30
0.000000
  70
    32
  0
VERTEX
  8
0
  5
30F72
 10
165.675
 20
335.810
 30
0.000000
  70
    32
  0
VERTEX
  8
0
  5
30F73
 10
165.562
 20
335.887
 30
0.000000
  70
    32
  0
VERTEX
  8
0
  5
30F74
 10
165.449
 20
335.964
 30
0.000000
  70
    32
  0
VERTEX
  8
0
  5
30F75
 10
165.336
 20
336.040
 30
0.000000
  70
    32
  0
VERTEX
  8
0
  5
30F76
 10
165.223
 20
336.116
 30
0.000000
  70
    32
  0
VERTEX
  8
0
  5
30F77
 10
165.109
 20
336.191
 30
0.000000
  70
    32
  0
VERTEX
  8
0
  5
30F78
 10
164.996
 20
336.265
 30
0.000000
  70
    32
  0
VERTEX
  8
0
  5
30F79
 10
164.882
 20
336.339
 30
0.000000
  70
    32
  0
VERTEX
  8
0
  5
30F7A
 10
164.768
 20
336.413
 30
0.000000
  70
    32
  0
VERTEX
  8
0
  5
30F7B
 10
164.653
 20
336.486
 30
0.000000
  70
    32
  0
VERTEX
  8
0
  5
30F7C
 10
164.539
 20
336.559
 30
0.000000
  70
    32
  0
VERTEX
  8
0
  5
30F7D
 10
164.424
 20
336.631
 30
0.000000
  70
    32
  0
VERTEX
  8
0
  5
30F7E
 10
164.309
 20
336.702
 30
0.000000
  70
    32
  0
VERTEX
  8
0
  5
30F7F
 10
164.194
 20
336.773
 30
0.000000
  70
    32
  0
VERTEX
  8
0
  5
30F80
 10
164.078
 20
336.843
 30
0.000000
  70
    32
  0
VERTEX
  8
0
  5
30F81
 10
163.962
 20
336.913
 30
0.000000
  70
    32
  0
VERTEX
  8
0
  5
30F82
 10
163.847
 20
336.983
 30
0.000000
  70
    32
  0
VERTEX
  8
0
  5
30F83
 10
163.731
 20
337.052
 30
0.000000
  70
    32
  0
VERTEX
  8
0
  5
30F84
 10
163.614
 20
337.120
 30
0.000000
  70
    32
  0
VERTEX
  8
0
  5
30F85
 10
163.498
 20
337.188
 30
0.000000
  70
    32
  0
VERTEX
  8
0
  5
30F86
 10
163.381
 20
337.255
 30
0.000000
  70
    32
  0
VERTEX
  8
0
  5
30F87
 10
163.264
 20
337.322
 30
0.000000
  70
    32
  0
VERTEX
  8
0
  5
30F88
 10
163.147
 20
337.388
 30
0.000000
  70
    32
  0
VERTEX
  8
0
  5
30F89
 10
163.030
 20
337.453
 30
0.000000
  70
    32
  0
VERTEX
  8
0
  5
30F8A
 10
162.913
 20
337.518
 30
0.000000
  70
    32
  0
VERTEX
  8
0
  5
30F8B
 10
162.795
 20
337.583
 30
0.000000
  70
    32
  0
VERTEX
  8
0
  5
30F8C
 10
162.677
 20
337.647
 30
0.000000
  70
    32
  0
VERTEX
  8
0
  5
30F8D
 10
162.559
 20
337.710
 30
0.000000
  70
    32
  0
VERTEX
  8
0
  5
30F8E
 10
162.441
 20
337.773
 30
0.000000
  70
    32
  0
VERTEX
  8
0
  5
30F8F
 10
162.323
 20
337.836
 30
0.000000
  70
    32
  0
VERTEX
  8
0
  5
30F90
 10
162.204
 20
337.898
 30
0.000000
  70
    32
  0
VERTEX
  8
0
  5
30F91
 10
162.085
 20
337.959
 30
0.000000
  70
    32
  0
VERTEX
  8
0
  5
30F92
 10
161.966
 20
338.020
 30
0.000000
  70
    32
  0
VERTEX
  8
0
  5
30F93
 10
161.847
 20
338.080
 30
0.000000
  70
    32
  0
VERTEX
  8
0
  5
30F94
 10
161.728
 20
338.140
 30
0.000000
  70
    32
  0
VERTEX
  8
0
  5
30F95
 10
161.609
 20
338.199
 30
0.000000
  70
    32
  0
VERTEX
  8
0
  5
30F96
 10
161.489
 20
338.257
 30
0.000000
  70
    32
  0
VERTEX
  8
0
  5
30F97
 10
161.369
 20
338.315
 30
0.000000
  70
    32
  0
VERTEX
  8
0
  5
30F98
 10
161.249
 20
338.373
 30
0.000000
  70
    32
  0
VERTEX
  8
0
  5
30F99
 10
161.129
 20
338.430
 30
0.000000
  70
    32
  0
VERTEX
  8
0
  5
30F9A
 10
161.009
 20
338.486
 30
0.000000
  70
    32
  0
VERTEX
  8
0
  5
30F9B
 10
160.888
 20
338.542
 30
0.000000
  70
    32
  0
VERTEX
  8
0
  5
30F9C
 10
160.768
 20
338.597
 30
0.000000
  70
    32
  0
VERTEX
  8
0
  5
30F9D
 10
160.647
 20
338.652
 30
0.000000
  70
    32
  0
VERTEX
  8
0
  5
30F9E
 10
160.526
 20
338.706
 30
0.000000
  70
    32
  0
VERTEX
  8
0
  5
30F9F
 10
160.405
 20
338.760
 30
0.000000
  70
    32
  0
VERTEX
  8
0
  5
30FA0
 10
160.284
 20
338.813
 30
0.000000
  70
    32
  0
VERTEX
  8
0
  5
30FA1
 10
160.162
 20
338.865
 30
0.000000
  70
    32
  0
VERTEX
  8
0
  5
30FA2
 10
160.041
 20
338.917
 30
0.000000
  70
    32
  0
VERTEX
  8
0
  5
30FA3
 10
159.919
 20
338.968
 30
0.000000
  70
    32
  0
VERTEX
  8
0
  5
30FA4
 10
159.797
 20
339.019
 30
0.000000
  70
    32
  0
VERTEX
  8
0
  5
30FA5
 10
159.675
 20
339.069
 30
0.000000
  70
    32
  0
VERTEX
  8
0
  5
30FA6
 10
159.553
 20
339.119
 30
0.000000
  70
    32
  0
VERTEX
  8
0
  5
30FA7
 10
159.431
 20
339.168
 30
0.000000
  70
    32
  0
VERTEX
  8
0
  5
30FA8
 10
159.308
 20
339.217
 30
0.000000
  70
    32
  0
VERTEX
  8
0
  5
30FA9
 10
159.186
 20
339.265
 30
0.000000
  70
    32
  0
VERTEX
  8
0
  5
30FAA
 10
159.063
 20
339.312
 30
0.000000
  70
    32
  0
VERTEX
  8
0
  5
30FAB
 10
158.940
 20
339.359
 30
0.000000
  70
    32
  0
VERTEX
  8
0
  5
30FAC
 10
158.817
 20
339.406
 30
0.000000
  70
    32
  0
VERTEX
  8
0
  5
30FAD
 10
158.694
 20
339.451
 30
0.000000
  70
    32
  0
VERTEX
  8
0
  5
30FAE
 10
158.571
 20
339.497
 30
0.000000
  70
    32
  0
VERTEX
  8
0
  5
30FAF
 10
158.447
 20
339.541
 30
0.000000
  70
    32
  0
VERTEX
  8
0
  5
30FB0
 10
158.324
 20
339.585
 30
0.000000
  70
    32
  0
VERTEX
  8
0
  5
30FB1
 10
158.200
 20
339.629
 30
0.000000
  70
    32
  0
VERTEX
  8
0
  5
30FB2
 10
158.076
 20
339.672
 30
0.000000
  70
    32
  0
VERTEX
  8
0
  5
30FB3
 10
157.952
 20
339.714
 30
0.000000
  70
    32
  0
VERTEX
  8
0
  5
30FB4
 10
157.828
 20
339.756
 30
0.000000
  70
    32
  0
VERTEX
  8
0
  5
30FB5
 10
157.704
 20
339.797
 30
0.000000
  70
    32
  0
VERTEX
  8
0
  5
30FB6
 10
157.580
 20
339.838
 30
0.000000
  70
    32
  0
VERTEX
  8
0
  5
30FB7
 10
157.455
 20
339.878
 30
0.000000
  70
    32
  0
VERTEX
  8
0
  5
30FB8
 10
157.331
 20
339.917
 30
0.000000
  70
    32
  0
SEQEND
  8
0
  5
30FB9
  0
POLYLINE
  5
3086D
  8
0
 10
140.20728851502895
 20
339.91739837369096
 30
0.0
 66
     1
 70
     8
  0
VERTEX
  8
0
  5
30FBA
 10
140.207
 20
339.917
 30
0.000000
  70
    32
  0
VERTEX
  8
0
  5
30FBB
 10
140.083
 20
339.878
 30
0.000000
  70
    32
  0
VERTEX
  8
0
  5
30FBC
 10
139.958
 20
339.838
 30
0.000000
  70
    32
  0
VERTEX
  8
0
  5
30FBD
 10
139.834
 20
339.797
 30
0.000000
  70
    32
  0
VERTEX
  8
0
  5
30FBE
 10
139.710
 20
339.756
 30
0.000000
  70
    32
  0
VERTEX
  8
0
  5
30FBF
 10
139.586
 20
339.714
 30
0.000000
  70
    32
  0
VERTEX
  8
0
  5
30FC0
 10
139.462
 20
339.672
 30
0.000000
  70
    32
  0
VERTEX
  8
0
  5
30FC1
 10
139.338
 20
339.629
 30
0.000000
  70
    32
  0
VERTEX
  8
0
  5
30FC2
 10
139.214
 20
339.585
 30
0.000000
  70
    32
  0
VERTEX
  8
0
  5
30FC3
 10
139.091
 20
339.541
 30
0.000000
  70
    32
  0
VERTEX
  8
0
  5
30FC4
 10
138.968
 20
339.497
 30
0.000000
  70
    32
  0
VERTEX
  8
0
  5
30FC5
 10
138.844
 20
339.451
 30
0.000000
  70
    32
  0
VERTEX
  8
0
  5
30FC6
 10
138.721
 20
339.406
 30
0.000000
  70
    32
  0
VERTEX
  8
0
  5
30FC7
 10
138.598
 20
339.359
 30
0.000000
  70
    32
  0
VERTEX
  8
0
  5
30FC8
 10
138.475
 20
339.312
 30
0.000000
  70
    32
  0
VERTEX
  8
0
  5
30FC9
 10
138.352
 20
339.265
 30
0.000000
  70
    32
  0
VERTEX
  8
0
  5
30FCA
 10
138.230
 20
339.217
 30
0.000000
  70
    32
  0
VERTEX
  8
0
  5
30FCB
 10
138.107
 20
339.168
 30
0.000000
  70
    32
  0
VERTEX
  8
0
  5
30FCC
 10
137.985
 20
339.119
 30
0.000000
  70
    32
  0
VERTEX
  8
0
  5
30FCD
 10
137.863
 20
339.069
 30
0.000000
  70
    32
  0
VERTEX
  8
0
  5
30FCE
 10
137.741
 20
339.019
 30
0.000000
  70
    32
  0
VERTEX
  8
0
  5
30FCF
 10
137.619
 20
338.968
 30
0.000000
  70
    32
  0
VERTEX
  8
0
  5
30FD0
 10
137.497
 20
338.917
 30
0.000000
  70
    32
  0
VERTEX
  8
0
  5
30FD1
 10
137.376
 20
338.865
 30
0.000000
  70
    32
  0
VERTEX
  8
0
  5
30FD2
 10
137.254
 20
338.813
 30
0.000000
  70
    32
  0
VERTEX
  8
0
  5
30FD3
 10
137.133
 20
338.760
 30
0.000000
  70
    32
  0
VERTEX
  8
0
  5
30FD4
 10
137.012
 20
338.706
 30
0.000000
  70
    32
  0
VERTEX
  8
0
  5
30FD5
 10
136.891
 20
338.652
 30
0.000000
  70
    32
  0
VERTEX
  8
0
  5
30FD6
 10
136.770
 20
338.597
 30
0.000000
  70
    32
  0
VERTEX
  8
0
  5
30FD7
 10
136.650
 20
338.542
 30
0.000000
  70
    32
  0
VERTEX
  8
0
  5
30FD8
 10
136.529
 20
338.486
 30
0.000000
  70
    32
  0
VERTEX
  8
0
  5
30FD9
 10
136.409
 20
338.430
 30
0.000000
  70
    32
  0
VERTEX
  8
0
  5
30FDA
 10
136.289
 20
338.373
 30
0.000000
  70
    32
  0
VERTEX
  8
0
  5
30FDB
 10
136.169
 20
338.315
 30
0.000000
  70
    32
  0
VERTEX
  8
0
  5
30FDC
 10
136.049
 20
338.257
 30
0.000000
  70
    32
  0
VERTEX
  8
0
  5
30FDD
 10
135.929
 20
338.199
 30
0.000000
  70
    32
  0
VERTEX
  8
0
  5
30FDE
 10
135.810
 20
338.140
 30
0.000000
  70
    32
  0
VERTEX
  8
0
  5
30FDF
 10
135.691
 20
338.080
 30
0.000000
  70
    32
  0
VERTEX
  8
0
  5
30FE0
 10
135.572
 20
338.020
 30
0.000000
  70
    32
  0
VERTEX
  8
0
  5
30FE1
 10
135.453
 20
337.959
 30
0.000000
  70
    32
  0
VERTEX
  8
0
  5
30FE2
 10
135.334
 20
337.898
 30
0.000000
  70
    32
  0
VERTEX
  8
0
  5
30FE3
 10
135.215
 20
337.836
 30
0.000000
  70
    32
  0
VERTEX
  8
0
  5
30FE4
 10
135.097
 20
337.773
 30
0.000000
  70
    32
  0
VERTEX
  8
0
  5
30FE5
 10
134.979
 20
337.710
 30
0.000000
  70
    32
  0
VERTEX
  8
0
  5
30FE6
 10
134.861
 20
337.647
 30
0.000000
  70
    32
  0
VERTEX
  8
0
  5
30FE7
 10
134.743
 20
337.583
 30
0.000000
  70
    32
  0
VERTEX
  8
0
  5
30FE8
 10
134.625
 20
337.518
 30
0.000000
  70
    32
  0
VERTEX
  8
0
  5
30FE9
 10
134.508
 20
337.453
 30
0.000000
  70
    32
  0
VERTEX
  8
0
  5
30FEA
 10
134.391
 20
337.388
 30
0.000000
  70
    32
  0
VERTEX
  8
0
  5
30FEB
 10
134.274
 20
337.322
 30
0.000000
  70
    32
  0
VERTEX
  8
0
  5
30FEC
 10
134.157
 20
337.255
 30
0.000000
  70
    32
  0
VERTEX
  8
0
  5
30FED
 10
134.040
 20
337.188
 30
0.000000
  70
    32
  0
VERTEX
  8
0
  5
30FEE
 10
133.924
 20
337.120
 30
0.000000
  70
    32
  0
VERTEX
  8
0
  5
30FEF
 10
133.808
 20
337.052
 30
0.000000
  70
    32
  0
VERTEX
  8
0
  5
30FF0
 10
133.691
 20
336.983
 30
0.000000
  70
    32
  0
VERTEX
  8
0
  5
30FF1
 10
133.576
 20
336.913
 30
0.000000
  70
    32
  0
VERTEX
  8
0
  5
30FF2
 10
133.460
 20
336.843
 30
0.000000
  70
    32
  0
VERTEX
  8
0
  5
30FF3
 10
133.345
 20
336.773
 30
0.000000
  70
    32
  0
VERTEX
  8
0
  5
30FF4
 10
133.229
 20
336.702
 30
0.000000
  70
    32
  0
VERTEX
  8
0
  5
30FF5
 10
133.114
 20
336.631
 30
0.000000
  70
    32
  0
VERTEX
  8
0
  5
30FF6
 10
132.999
 20
336.559
 30
0.000000
  70
    32
  0
VERTEX
  8
0
  5
30FF7
 10
132.885
 20
336.486
 30
0.000000
  70
    32
  0
VERTEX
  8
0
  5
30FF8
 10
132.770
 20
336.413
 30
0.000000
  70
    32
  0
VERTEX
  8
0
  5
30FF9
 10
132.656
 20
336.339
 30
0.000000
  70
    32
  0
VERTEX
  8
0
  5
30FFA
 10
132.542
 20
336.265
 30
0.000000
  70
    32
  0
VERTEX
  8
0
  5
30FFB
 10
132.429
 20
336.191
 30
0.000000
  70
    32
  0
VERTEX
  8
0
  5
30FFC
 10
132.315
 20
336.116
 30
0.000000
  70
    32
  0
VERTEX
  8
0
  5
30FFD
 10
132.202
 20
336.040
 30
0.000000
  70
    32
  0
VERTEX
  8
0
  5
30FFE
 10
132.089
 20
335.964
 30
0.000000
  70
    32
  0
VERTEX
  8
0
  5
30FFF
 10
131.976
 20
335.887
 30
0.000000
  70
    32
  0
VERTEX
  8
0
  5
31000
 10
131.863
 20
335.810
 30
0.000000
  70
    32
  0
VERTEX
  8
0
  5
31001
 10
131.751
 20
335.732
 30
0.000000
  70
    32
  0
VERTEX
  8
0
  5
31002
 10
131.639
 20
335.654
 30
0.000000
  70
    32
  0
VERTEX
  8
0
  5
31003
 10
131.527
 20
335.575
 30
0.000000
  70
    32
  0
VERTEX
  8
0
  5
31004
 10
131.415
 20
335.496
 30
0.000000
  70
    32
  0
VERTEX
  8
0
  5
31005
 10
131.304
 20
335.416
 30
0.000000
  70
    32
  0
VERTEX
  8
0
  5
31006
 10
131.192
 20
335.336
 30
0.000000
  70
    32
  0
VERTEX
  8
0
  5
31007
 10
131.081
 20
335.255
 30
0.000000
  70
    32
  0
VERTEX
  8
0
  5
31008
 10
130.971
 20
335.174
 30
0.000000
  70
    32
  0
VERTEX
  8
0
  5
31009
 10
130.860
 20
335.092
 30
0.000000
  70
    32
  0
VERTEX
  8
0
  5
3100A
 10
130.750
 20
335.009
 30
0.000000
  70
    32
  0
VERTEX
  8
0
  5
3100B
 10
130.640
 20
334.927
 30
0.000000
  70
    32
  0
VERTEX
  8
0
  5
3100C
 10
130.530
 20
334.843
 30
0.000000
  70
    32
  0
VERTEX
  8
0
  5
3100D
 10
130.421
 20
334.759
 30
0.000000
  70
    32
  0
VERTEX
  8
0
  5
3100E
 10
130.311
 20
334.675
 30
0.000000
  70
    32
  0
VERTEX
  8
0
  5
3100F
 10
130.202
 20
334.590
 30
0.000000
  70
    32
  0
VERTEX
  8
0
  5
31010
 10
130.093
 20
334.505
 30
0.000000
  70
    32
  0
VERTEX
  8
0
  5
31011
 10
129.985
 20
334.419
 30
0.000000
  70
    32
  0
VERTEX
  8
0
  5
31012
 10
129.877
 20
334.333
 30
0.000000
  70
    32
  0
VERTEX
  8
0
  5
31013
 10
129.769
 20
334.246
 30
0.000000
  70
    32
  0
VERTEX
  8
0
  5
31014
 10
129.661
 20
334.159
 30
0.000000
  70
    32
  0
VERTEX
  8
0
  5
31015
 10
129.553
 20
334.071
 30
0.000000
  70
    32
  0
VERTEX
  8
0
  5
31016
 10
129.446
 20
333.983
 30
0.000000
  70
    32
  0
VERTEX
  8
0
  5
31017
 10
129.339
 20
333.894
 30
0.000000
  70
    32
  0
VERTEX
  8
0
  5
31018
 10
129.232
 20
333.804
 30
0.000000
  70
    32
  0
VERTEX
  8
0
  5
31019
 10
129.126
 20
333.715
 30
0.000000
  70
    32
  0
VERTEX
  8
0
  5
3101A
 10
129.020
 20
333.624
 30
0.000000
  70
    32
  0
VERTEX
  8
0
  5
3101B
 10
128.914
 20
333.534
 30
0.000000
  70
    32
  0
VERTEX
  8
0
  5
3101C
 10
128.808
 20
333.442
 30
0.000000
  70
    32
  0
VERTEX
  8
0
  5
3101D
 10
128.703
 20
333.351
 30
0.000000
  70
    32
  0
VERTEX
  8
0
  5
3101E
 10
128.597
 20
333.258
 30
0.000000
  70
    32
  0
VERTEX
  8
0
  5
3101F
 10
128.493
 20
333.166
 30
0.000000
  70
    32
  0
VERTEX
  8
0
  5
31020
 10
128.388
 20
333.073
 30
0.000000
  70
    32
  0
VERTEX
  8
0
  5
31021
 10
128.284
 20
332.979
 30
0.000000
  70
    32
  0
VERTEX
  8
0
  5
31022
 10
128.180
 20
332.885
 30
0.000000
  70
    32
  0
VERTEX
  8
0
  5
31023
 10
128.076
 20
332.790
 30
0.000000
  70
    32
  0
VERTEX
  8
0
  5
31024
 10
127.972
 20
332.695
 30
0.000000
  70
    32
  0
VERTEX
  8
0
  5
31025
 10
127.869
 20
332.600
 30
0.000000
  70
    32
  0
VERTEX
  8
0
  5
31026
 10
127.766
 20
332.504
 30
0.000000
  70
    32
  0
VERTEX
  8
0
  5
31027
 10
127.664
 20
332.407
 30
0.000000
  70
    32
  0
VERTEX
  8
0
  5
31028
 10
127.561
 20
332.310
 30
0.000000
  70
    32
  0
VERTEX
  8
0
  5
31029
 10
127.459
 20
332.213
 30
0.000000
  70
    32
  0
VERTEX
  8
0
  5
3102A
 10
127.357
 20
332.115
 30
0.000000
  70
    32
  0
VERTEX
  8
0
  5
3102B
 10
127.256
 20
332.017
 30
0.000000
  70
    32
  0
VERTEX
  8
0
  5
3102C
 10
127.155
 20
331.918
 30
0.000000
  70
    32
  0
VERTEX
  8
0
  5
3102D
 10
127.054
 20
331.818
 30
0.000000
  70
    32
  0
VERTEX
  8
0
  5
3102E
 10
126.953
 20
331.719
 30
0.000000
  70
    32
  0
VERTEX
  8
0
  5
3102F
 10
126.853
 20
331.618
 30
0.000000
  70
    32
  0
VERTEX
  8
0
  5
31030
 10
126.753
 20
331.518
 30
0.000000
  70
    32
  0
VERTEX
  8
0
  5
31031
 10
126.653
 20
331.417
 30
0.000000
  70
    32
  0
VERTEX
  8
0
  5
31032
 10
126.554
 20
331.315
 30
0.000000
  70
    32
  0
VERTEX
  8
0
  5
31033
 10
126.454
 20
331.213
 30
0.000000
  70
    32
  0
VERTEX
  8
0
  5
31034
 10
126.356
 20
331.111
 30
0.000000
  70
    32
  0
VERTEX
  8
0
  5
31035
 10
126.257
 20
331.008
 30
0.000000
  70
    32
  0
VERTEX
  8
0
  5
31036
 10
126.159
 20
330.904
 30
0.000000
  70
    32
  0
VERTEX
  8
0
  5
31037
 10
126.061
 20
330.800
 30
0.000000
  70
    32
  0
VERTEX
  8
0
  5
31038
 10
125.963
 20
330.696
 30
0.000000
  70
    32
  0
VERTEX
  8
0
  5
31039
 10
125.866
 20
330.591
 30
0.000000
  70
    32
  0
VERTEX
  8
0
  5
3103A
 10
125.769
 20
330.486
 30
0.000000
  70
    32
  0
SEQEND
  8
0
  5
3103B
  0
LINE
  5
3086E
  8
0
 10
125.769022585584
 20
267.61739875367039
 30
0.0
 11
125.769022585584
 21
251.61739799371119
 31
0.0
  0
LINE
  5
3086F
  8
0
 10
117.5460756884349
 20
259.61739837369078
 30
0.0
 11
117.28665392263061
 21
262.74656492462509
 31
0.0
  0
POLYLINE
  5
30870
  8
0
 66
     1
 10
0.0
 20
0.0
 30
0.0
 70
   128
  0
VERTEX
  5
30C00
  8
0
 10
117.28665392263061
 20
256.48823182275652
 30
0.0
  0
VERTEX
  5
30C01
  8
0
 10
117.4146176443828
 20
258.64557706229522
 30
0.0
  0
VERTEX
  5
30C02
  8
0
 10
117.5460756884349
 20
259.61739837369078
 30
0.0
  0
SEQEND
  5
30C03
  8
0
  0
LINE
  5
30872
  8
0
 10
117.5460756884349
 20
259.61739837369078
 30
0.0
 11
122.5690224335922
 21
259.61739837369078
 31
0.0
  0
POLYLINE
  5
30873
  8
0
 66
     1
 10
0.0
 20
0.0
 30
0.0
 70
   128
  0
VERTEX
  5
30C04
  8
0
 10
117.28665392263061
 20
262.74656492462509
 30
0.0
  0
VERTEX
  5
30C05
  8
0
 10
117.28776033384931
 20
262.94350262908392
 30
0.0
  0
VERTEX
  5
30C06
  8
0
 10
117.5460756884349
 20
265.87573147555941
 30
0.0
  0
SEQEND
  5
30C07
  8
0
  0
LINE
  5
30874
  8
0
 10
117.28665392263061
 20
265.87573147555941
 30
0.0
 11
122.5690224335922
 21
265.87573147555941
 31
0.0
  0
LINE
  5
30875
  8
0
 10
117.28665392263061
 20
253.35906527182209
 30
0.0
 11
122.5690224335922
 21
253.35906527182209
 31
0.0
  0
LINE
  5
30876
  8
0
 10
117.5460756884349
 20
253.35906527182209
 30
0.0
 11
117.28665392263061
 21
256.48823182275652
 31
0.0
  0
POLYLINE
  5
30877
  8
0
 66
     1
 10
0.0
 20
0.0
 30
0.0
 70
   128
  0
VERTEX
  5
30C08
  8
0
 10
180.42723621590261
 20
259.61739837369078
 30
0.0
  0
VERTEX
  5
30C09
  8
0
 10
180.55896993143691
 20
258.64315498331689
 30
0.0
  0
VERTEX
  5
30C0A
  8
0
 10
180.6866542564166
 20
256.48823182275652
 30
0.0
  0
SEQEND
  5
30C0B
  8
0
  0
LINE
  5
30878
  8
0
 10
180.6866542564166
 20
256.48823182275652
 30
0.0
 11
180.42723621590261
 21
253.35906527182209
 31
0.0
  0
LINE
  5
30879
  8
0
 10
175.68665529949789
 20
253.35906527182209
 30
0.0
 11
180.6866542564166
 21
253.35906527182209
 31
0.0
  0
LINE
  5
3087A
  8
0
 10
175.68665529949789
 20
253.35906527182209
 30
0.0
 11
175.68665529949789
 21
259.61739837369078
 31
0.0
  0
LINE
  5
3087B
  8
0
 10
175.68665529949789
 20
259.61739837369078
 30
0.0
 11
180.42723621590261
 21
259.61739837369078
 31
0.0
  0
POLYLINE
  5
3087C
  8
0
 66
     1
 10
0.0
 20
0.0
 30
0.0
 70
   128
  0
VERTEX
  5
30C0C
  8
0
 10
180.42723621590261
 20
265.87573147555941
 30
0.0
  0
VERTEX
  5
30C0D
  8
0
 10
180.68554970784311
 20
262.94331194078683
 30
0.0
  0
VERTEX
  5
30C0E
  8
0
 10
180.6866542564166
 20
262.74656492462509
 30
0.0
  0
SEQEND
  5
30C0F
  8
0
  0
LINE
  5
3087D
  8
0
 10
180.6866542564166
 20
262.74656492462509
 30
0.0
 11
180.42723621590261
 21
259.61739837369078
 31
0.0
  0
LINE
  5
3087E
  8
0
 10
175.68665529949789
 20
259.61739837369078
 30
0.0
 11
175.68665529949789
 21
265.87573147555941
 31
0.0
  0
LINE
  5
3087F
  8
0
 10
175.68665529949789
 20
265.87573147555941
 30
0.0
 11
180.6866542564166
 21
265.87573147555941
 31
0.0
  0
LINE
  5
30882
  8
0
 10
117.28665392263061
 20
265.87573147555941
 30
0.0
 11
117.28665392263061
 21
253.35906527182209
 31
0.0
  0
LINE
  5
30886
  8
0
 10
180.6866542564166
 20
265.87573147555941
 30
0.0
 11
180.6866542564166
 21
253.35906527182209
 31
0.0
  0
LINE
  5
3088A
  8
0
 10
131.2690225557817
 20
316.11739739021408
 30
0.0
 11
131.2690225557817
 21
203.11739935716739
 31
0.0
  0
LINE
  5
3088B
  8
0
 10
166.26902270479329
 20
316.11739739021408
 30
0.0
 11
166.26902270479329
 21
203.11739935716739
 31
0.0
  0
LINE
  5
3088C
  8
0
 10
128.76902307732229
 20
278.98637845358007
 30
0.0
 11
128.76902307732229
 21
240.24841829380151
 31
0.0
  0
LINE
  5
3088D
  8
0
 10
168.76902218325259
 20
240.24841829380151
 30
0.0
 11
168.76902218325259
 21
278.98637845358007
 31
0.0
  0
LINE
  5
30890
  8
0
 10
134.79503496898539
 20
322.11739837369078
 30
0.0
 11
134.79503496898539
 21
197.1173983736908
 31
0.0
  0
LINE
  5
30891
  8
0
 10
162.7430102915896
 20
322.11739837369078
 30
0.0
 11
162.7430102915896
 21
197.1173983736908
 31
0.0
  0
LINE
  5
30894
  8
0
 10
348.8649136751996
 20
536.54102672903855
 30
0.0
 11
348.8649136751996
 21
533.34102657704716
 31
0.0
  0
LINE
  5
30895
  8
0
 10
348.8649136751996
 20
487.34102648764019
 30
0.0
 11
348.8649136751996
 21
484.14102633564829
 31
0.0
  0
LINE
  5
30896
  8
0
 10
355.6649132996904
 20
532.62339410453205
 30
0.0
 11
355.6649132996904
 21
529.62339361279373
 31
0.0
  0
LINE
  5
30897
  8
0
 10
355.6649132996904
 20
489.62339450686341
 30
0.0
 11
355.6649132996904
 21
487.34102648764019
 31
0.0
  0
LINE
  5
30898
  8
0
 10
367.66491386965981
 20
541.82339524000054
 30
0.0
 11
367.66491386965981
 21
542.4025810238636
 31
0.0
  0
LINE
  5
3089A
  8
0
 10
359.6649134896802
 20
533.34102657704716
 30
0.0
 11
359.6649134896802
 21
532.62339410453205
 31
0.0
  0
LINE
  5
3089B
  8
0
 10
359.6649134896802
 20
484.14102633564829
 30
0.0
 11
359.6649134896802
 21
483.42339386313319
 31
0.0
  0
LINE
  5
3089C
  8
0
 10
357.40658057780138
 20
541.82339524000054
 30
0.0
 11
356.43841301948891
 21
541.56397347419625
 31
0.0
  0
LINE
  5
3089D
  8
0
 10
370.891414339851
 20
541.56397347419625
 30
0.0
 11
369.92324678153858
 21
541.82339524000054
 31
0.0
  0
LINE
  5
3089E
  8
0
 10
356.43841301948891
 20
478.68281294672852
 30
0.0
 11
357.40658057780138
 21
478.42339490621453
 31
0.0
  0
LINE
  5
3089F
  8
0
 10
369.92324678153858
 20
478.42339490621453
 30
0.0
 11
370.891414339851
 21
478.68281294672852
 31
0.0
  0
LINE
  5
308A0
  8
0
 10
301.16491367967001
 20
523.59738172113066
 30
0.0
 11
301.16491367967001
 21
495.64940639852648
 31
0.0
  0
ARC
  5
308A1
  8
0
 10
303.66491367967001
 20
523.5973814352941
 30
0.0
 40
2.5000000000004259
 50
104.9999999999976
 51
180.0
  0
ARC
  5
308A2
  8
0
 10
303.66491367967001
 20
495.64940668436248
 30
0.0
 40
2.5000000000004259
 50
180.0
 51
255.00000000000239
  0
LINE
  5
308A3
  8
0
 10
307.16491466314659
 20
527.12339413433438
 30
0.0
 11
303.01786562354442
 21
526.01219591765766
 31
0.0
  0
LINE
  5
308A4
  8
0
 10
303.01786562354442
 20
493.23459220199948
 30
0.0
 11
307.16491466314659
 21
492.12339398532282
 31
0.0
  0
LINE
  5
308A5
  8
0
 10
344.29593359978071
 20
529.62339361279373
 30
0.0
 11
344.1649132773386
 21
527.12339413433438
 31
0.0
  0
LINE
  5
308A6
  8
0
 10
344.1649132773386
 20
492.12339398532282
 30
0.0
 11
344.29593359978071
 21
489.62339450686341
 31
0.0
  0
LINE
  5
308A8
  8
0
 10
452.66491522939077
 20
552.84102697937794
 30
0.0
 11
370.66491389573679
 21
552.84102697937794
 31
0.0
  0
LINE
  5
308A9
  8
0
 10
461.66491111667028
 20
476.84102569787808
 30
0.0
 11
461.66491111667028
 21
543.84102736680825
 31
0.0
  0
ARC
  5
308AA
  8
0
 10
452.66491367967001
 20
476.84102654292292
 30
0.0
 40
8.9999999999998437
 50
270.0
 51
0.0
  0
LINE
  5
308AB
  8
0
 10
370.66491389573679
 20
467.84102608530827
 30
0.0
 11
452.66491522939077
 21
467.84102608530827
 31
0.0
  0
ARC
  5
308AC
  8
0
 10
370.6649136796691
 20
476.84102654292292
 30
0.0
 40
8.9999999999999858
 50
180.0
 51
270.0
  0
LINE
  5
308AD
  8
0
 10
361.66491358467511
 20
543.84102736680825
 30
0.0
 11
361.66491358467511
 21
476.84102569787808
 31
0.0
  0
LINE
  5
308AE
  8
0
 10
444.89583721310959
 20
486.41800199716403
 30
0.0
 11
447.39584227950439
 21
478.9180016991408
 31
0.0
  0
ARC
  5
308AF
  8
0
 10
451.66491367967001
 20
480.34102654292292
 30
0.0
 40
4.4999999999997398
 50
198.4349488229312
 51
18.434948822931279
  0
LINE
  5
308B0
  8
0
 10
455.93399157674179
 20
481.76405084400488
 30
0.0
 11
453.43398651034698
 21
489.26405114202811
 31
0.0
  0
ARC
  5
308B1
  8
0
 10
449.16491367966989
 20
487.84102654292292
 30
0.0
 40
4.4999999999997176
 50
18.434948822931279
 51
198.4349488229312
  0
LINE
  5
308B2
  8
0
 10
453.43398651034698
 20
531.41800192265816
 30
0.0
 11
455.93399157674179
 21
538.91800222068139
 31
0.0
  0
ARC
  5
308B3
  8
0
 10
451.66491367967001
 20
540.3410265429228
 30
0.0
 40
4.4999999999996962
 50
341.56505117706871
 51
161.56505117706871
  0
LINE
  5
308B4
  8
0
 10
447.39584227950439
 20
541.76405136554547
 30
0.0
 11
444.89583721310959
 21
534.26405106752225
 31
0.0
  0
ARC
  5
308B5
  8
0
 10
449.16491367966989
 20
532.84102654292292
 30
0.0
 40
4.4999999999997398
 50
161.56505117706871
 51
341.56505117706871
  0
LINE
  5
308B6
  8
0
 10
375.93398870826832
 20
478.9180016991408
 30
0.0
 11
378.43398818672767
 21
486.41800199716403
 31
0.0
  0
ARC
  5
308B7
  8
0
 10
374.16491367967001
 20
487.84102654292292
 30
0.0
 40
4.5000000000000098
 50
341.565051177079
 51
161.56505117706871
  0
LINE
  5
308B8
  8
0
 10
369.89583888949028
 20
489.26405114202811
 30
0.0
 11
367.39583894536958
 21
481.76405084400488
 31
0.0
  0
ARC
  5
308B9
  8
0
 10
371.66491367967001
 20
480.34102654292292
 30
0.0
 40
4.5000000000000551
 50
161.565051177079
 51
341.56505117706871
  0
LINE
  5
308BA
  8
0
 10
367.39583894536958
 20
538.91800222068139
 30
0.0
 11
369.89583888949028
 21
531.41800192265816
 31
0.0
  0
ARC
  5
308BB
  8
0
 10
374.16491367967001
 20
532.84102654292292
 30
0.0
 40
4.5000000000000098
 50
198.4349488229312
 51
18.434948822931279
  0
LINE
  5
308BC
  8
0
 10
378.43398818672767
 20
534.26405106752225
 30
0.0
 11
375.93398870826832
 21
541.76405136554547
 31
0.0
  0
ARC
  5
308BD
  8
0
 10
371.66491367967001
 20
540.34102654292235
 30
0.0
 40
4.5000000000000551
 50
18.434948822931279
 51
198.434948822921
  0
ARC
  5
308BE
  8
0
 10
370.6649136796691
 20
543.84102654292292
 30
0.0
 40
9.0000000000000568
 50
90.0
 51
180.0
  0
ARC
  5
308BF
  8
0
 10
452.66491367967001
 20
543.84102654292326
 30
0.0
 40
8.9999999999999147
 50
0.0
 51
90.0
  0
LINE
  5
308CE
  8
0
 10
377.67499660999653
 20
484.14102633564778
 30
0.0
 11
368.18816395403019
 21
484.14102633564778
 31
0.0
  0
LINE
  5
308CF
  8
0
 10
377.67499660999653
 20
536.54102672903855
 30
0.0
 11
368.18816395403019
 21
536.54102672903855
 31
0.0
  0
LINE
  5
308D1
  8
0
 10
348.8649136751996
 20
533.34102657704716
 30
0.0
 11
361.66491358467511
 21
533.34102657704659
 31
0.0
  0
LINE
  5
308D2
  8
0
 10
361.66491358467511
 20
536.54102672903855
 30
0.0
 11
348.8649136751996
 21
536.54102672903855
 31
0.0
  0
LINE
  5
308D4
  8
0
 10
348.86491367519938
 20
487.34102648763991
 30
0.0
 11
361.66491358467511
 21
487.34102648763968
 31
0.0
  0
LINE
  5
308D5
  8
0
 10
361.66491358467511
 20
484.14102633564778
 30
0.0
 11
348.86491367519938
 21
484.14102633564829
 31
0.0
  0
LINE
  5
308DA
  8
0
 10
361.66491358467511
 20
532.62339410453205
 30
0.0
 11
355.6649132996904
 21
532.62339410453205
 31
0.0
  0
LINE
  5
308DB
  8
0
 10
360.05166334957948
 20
541.56397347419568
 30
0.0
 11
360.05166334957948
 21
536.54102672903855
 31
0.0
  0
POLYLINE
  5
308DC
  8
0
 66
     1
 10
0.0
 20
0.0
 30
0.0
 70
   128
  0
VERTEX
  5
30C10
  8
0
 10
360.05166334957948
 20
541.56397347419568
 30
0.0
  0
VERTEX
  5
30C11
  8
0
 10
360.95031419695488
 20
541.6724353012354
 30
0.0
  0
VERTEX
  5
30C12
  8
0
 10
361.66491358467511
 20
541.71217669813996
 30
0.0
  0
SEQEND
  5
30C13
  8
0
  0
LINE
  5
308DD
  8
0
 10
367.27816400976047
 20
541.3442372259409
 30
0.0
 11
367.27816400976047
 21
539.33781822293167
 31
0.0
  0
POLYLINE
  5
308DE
  8
0
 66
     1
 10
0.0
 20
0.0
 30
0.0
 70
   128
  0
VERTEX
  5
30C14
  8
0
 10
367.27816400976047
 20
541.56397347419568
 30
0.0
  0
VERTEX
  5
30C15
  8
0
 10
367.83960111365781
 20
541.69550229876404
 30
0.0
  0
VERTEX
  5
30C16
  8
0
 10
369.08478917480579
 20
541.82339524000054
 30
0.0
  0
SEQEND
  5
30C17
  8
0
  0
LINE
  5
308DF
  8
0
 10
369.08478917480579
 20
541.82339524000054
 30
0.0
 11
370.891414339851
 21
541.56397347419625
 31
0.0
  0
LINE
  5
308E0
  8
0
 10
370.891414339851
 20
541.56397347419625
 30
0.0
 11
370.891414339851
 21
536.54102672903855
 31
0.0
  0
LINE
  5
308E1
  8
0
 10
356.43841301948891
 20
541.56397347419625
 30
0.0
 11
356.43841301948891
 21
536.54102672903855
 31
0.0
  0
LINE
  5
308E2
  8
0
 10
356.43841301948891
 20
541.56397347419625
 30
0.0
 11
358.24503818453422
 21
541.82339524000054
 31
0.0
  0
POLYLINE
  5
308E3
  8
0
 66
     1
 10
0.0
 20
0.0
 30
0.0
 70
   128
  0
VERTEX
  5
30C18
  8
0
 10
358.24503818453422
 20
541.82339524000054
 30
0.0
  0
VERTEX
  5
30C19
  8
0
 10
358.35874009804002
 20
541.82228882878189
 30
0.0
  0
VERTEX
  5
30C1A
  8
0
 10
360.05166334957948
 20
541.56397347419568
 30
0.0
  0
SEQEND
  5
30C1B
  8
0
  0
LINE
  5
308E4
  8
0
 10
369.08478917480579
 20
541.82339524000054
 30
0.0
 11
367.41608007737568
 21
541.82339524000054
 31
0.0
  0
LINE
  5
308E5
  8
0
 10
361.66491358467511
 20
541.82339524000054
 30
0.0
 11
358.24503818453422
 21
541.82339524000054
 31
0.0
  0
LINE
  5
308E6
  8
0
 10
370.891414339851
 20
478.68281294672852
 30
0.0
 11
369.08478917480579
 21
478.42339490621453
 31
0.0
  0
POLYLINE
  5
308E7
  8
0
 66
     1
 10
0.0
 20
0.0
 30
0.0
 70
   128
  0
VERTEX
  5
30C1C
  8
0
 10
369.08478917480579
 20
478.42339490621453
 30
0.0
  0
VERTEX
  5
30C1D
  8
0
 10
367.84085746781102
 20
478.55103639035588
 30
0.0
  0
VERTEX
  5
30C1E
  8
0
 10
367.5487139161782
 20
478.61945320933228
 30
0.0
  0
SEQEND
  5
30C1F
  8
0
  0
LINE
  5
308E8
  8
0
 10
367.27816400976047
 20
481.34423484175511
 30
0.0
 11
367.27816400976047
 21
479.33781770139097
 31
0.0
  0
LINE
  5
308E9
  8
0
 10
367.94895281941763
 20
483.42339386313267
 30
0.0
 11
370.891414339851
 21
483.42339386313319
 31
0.0
  0
LINE
  5
308EA
  8
0
 10
370.891414339851
 20
483.42339386313319
 30
0.0
 11
370.891414339851
 21
478.68281294672852
 31
0.0
  0
POLYLINE
  5
308EB
  8
0
 66
     1
 10
0.0
 20
0.0
 30
0.0
 70
   128
  0
VERTEX
  5
30C20
  8
0
 10
361.66491358467511
 20
478.53450541465639
 30
0.0
  0
VERTEX
  5
30C21
  8
0
 10
360.95316171572682
 20
478.57404750852891
 30
0.0
  0
VERTEX
  5
30C22
  8
0
 10
360.05166334957948
 20
478.68281294672801
 30
0.0
  0
SEQEND
  5
30C23
  8
0
  0
LINE
  5
308EC
  8
0
 10
360.05166334957948
 20
483.42339386313267
 30
0.0
 11
360.05166334957948
 21
478.68281294672801
 31
0.0
  0
LINE
  5
308ED
  8
0
 10
360.05166334957948
 20
483.42339386313267
 30
0.0
 11
361.66491358467511
 21
483.42339386313267
 31
0.0
  0
POLYLINE
  5
308EE
  8
0
 66
     1
 10
0.0
 20
0.0
 30
0.0
 70
   128
  0
VERTEX
  5
30C24
  8
0
 10
360.05166334957948
 20
478.68281294672801
 30
0.0
  0
VERTEX
  5
30C25
  8
0
 10
358.35862973631492
 20
478.42449945478802
 30
0.0
  0
VERTEX
  5
30C26
  8
0
 10
358.24503818453422
 20
478.42339490621453
 30
0.0
  0
SEQEND
  5
30C27
  8
0
  0
LINE
  5
308EF
  8
0
 10
358.24503818453422
 20
478.42339490621453
 30
0.0
 11
356.43841301948891
 21
478.68281294672852
 31
0.0
  0
LINE
  5
308F0
  8
0
 10
356.43841301948891
 20
483.42339386313319
 30
0.0
 11
356.43841301948891
 21
478.68281294672852
 31
0.0
  0
LINE
  5
308F1
  8
0
 10
356.43841301948891
 20
483.42339386313319
 30
0.0
 11
360.05166334957948
 21
483.42339386313267
 31
0.0
  0
LINE
  5
308F2
  8
0
 10
369.08478917480579
 20
478.42339490621453
 30
0.0
 11
367.59395733402238
 21
478.42339490621453
 31
0.0
  0
LINE
  5
308F3
  8
0
 10
361.66491358467511
 20
478.42339490621453
 30
0.0
 11
358.24503818453422
 21
478.42339490621453
 31
0.0
  0
LINE
  5
308F5
  8
0
 10
358.24503818453422
 20
541.82339524000054
 30
0.0
 11
357.40658057780138
 21
541.82339524000054
 31
0.0
  0
LINE
  5
308F6
  8
0
 10
369.92324678153858
 20
541.82339524000054
 30
0.0
 11
369.08478917480579
 21
541.82339524000054
 31
0.0
  0
LINE
  5
308F7
  8
0
 10
358.24503818453422
 20
478.42339490621453
 30
0.0
 11
357.40658057780138
 21
478.42339490621453
 31
0.0
  0
LINE
  5
308F8
  8
0
 10
369.92324678153858
 20
478.42339490621453
 30
0.0
 11
369.08478917480579
 21
478.42339490621453
 31
0.0
  0
LINE
  5
308F9
  8
0
 10
361.66491358467511
 20
527.12339413433381
 30
0.0
 11
307.16491466314659
 21
527.12339413433438
 31
0.0
  0
LINE
  5
308FA
  8
0
 10
361.66491358467511
 20
492.1233939853222
 30
0.0
 11
307.16491466314659
 21
492.12339398532282
 31
0.0
  0
LINE
  5
308FB
  8
0
 10
361.66491358467511
 20
529.62339361279317
 30
0.0
 11
344.29593359978071
 21
529.62339361279373
 31
0.0
  0
LINE
  5
308FC
  8
0
 10
344.29593359978071
 20
489.62339450686341
 30
0.0
 11
361.66491358467511
 21
489.62339450686289
 31
0.0
  0
LINE
  5
308FD
  8
0
 10
361.66491358467511
 20
523.59738172113009
 30
0.0
 11
301.16491367967001
 21
523.59738172113066
 31
0.0
  0
LINE
  5
308FE
  8
0
 10
361.66491358467511
 20
495.64940639852591
 30
0.0
 11
301.16491367967001
 21
495.64940639852648
 31
0.0
  0
LINE
  5
30982
  8
0
 10
360.05166334957948
 20
265.87573147555918
 30
0.0
 11
367.27816400976047
 21
265.87573147555918
 31
0.0
  0
LINE
  5
30983
  8
0
 10
367.27816400976047
 20
265.87573147555918
 30
0.0
 11
370.891414339851
 21
259.61739837369078
 31
0.0
  0
LINE
  5
30984
  8
0
 10
370.891414339851
 20
259.61739837369078
 30
0.0
 11
367.27816400976047
 21
253.35906527182209
 31
0.0
  0
LINE
  5
30985
  8
0
 10
360.05166334957948
 20
253.35906527182209
 30
0.0
 11
367.27816400976047
 21
253.35906527182209
 31
0.0
  0
LINE
  5
30986
  8
0
 10
360.0550680979336
 20
265.87769597347472
 30
0.0
 11
356.43841408857929
 21
259.6213292212405
 31
0.0
  0
LINE
  5
30987
  8
0
 10
356.43841408857929
 20
259.6213292212405
 30
0.0
 11
360.0482596703153
 21
253.36103162145639
 31
0.0
  0
CIRCLE
  5
30988
  8
0
 10
363.66491367967001
 20
259.61739837369117
 30
0.0
 40
6.2583331018678896
  0
ARC
  5
3098B
  8
0
 10
363.66491367967001
 20
259.61739837369169
 30
0.0
 40
15.999999999999989
 50
142.48002176124811
 51
352.08341083710519
  0
ARC
  5
3098C
  8
0
 10
363.66491367967001
 20
259.61739837369169
 30
0.0
 40
62.5
 50
89.666162970931964
 51
38.598197508107461
  0
LINE
  5
3098D
  8
0
 10
409.05401301777778
 20
237.47965546084291
 30
0.0
 11
381.19139758250458
 21
251.06916101130631
 31
0.0
  0
ARC
  5
3098E
  8
0
 10
363.66491367967001
 20
259.61739837369169
 30
0.0
 40
19.499999999999989
 50
124.84467009696969
 51
6.479304611288633
  0
LINE
  5
3098F
  8
0
 10
363.66491367967001
 20
240.11739837369171
 30
0.0
 11
363.66491367967001
 21
209.11739837369171
 31
0.0
  0
LINE
  5
30990
  8
0
 10
321.7985162656405
 20
231.37815674841929
 30
0.0
 11
347.49868101484623
 21
248.7131367560132
 31
0.0
  0
ARC
  5
30991
  8
0
 10
363.66491367967001
 20
259.61739837369169
 30
0.0
 40
50.5
 50
92.976083611500115
 51
35.508306000488538
  0
LINE
  5
30992
  8
0
 10
319.93063078855579
 20
284.86739837369169
 30
0.0
 11
346.77741830587411
 21
269.36739837369259
 31
0.0
  0
ARC
  5
30993
  8
0
 10
363.66491367967001
 20
259.61739837369169
 30
0.0
 40
46.439712300844313
 50
150.00000000000389
 51
214.00000000000179
  0
ARC
  5
30994
  8
0
 10
363.66491367967001
 20
259.61739837369169
 30
0.0
 40
46.439712300844363
 50
270.0
 51
334.00000000000068
  0
ARC
  5
30995
  8
0
 10
363.66491367967001
 20
259.61739837369169
 30
0.0
 40
53.515000000000327
 50
91.999350560264034
 51
36.419448581554057
  0
CIRCLE
  5
30996
  8
0
 10
411.66491111667068
 20
510.34102653234311
 30
0.0
 40
31.175000000000001
  0
LINE
  5
30997
  8
0
 10
360.1422117555976
 20
309.99438291181332
 30
0.0
 11
360.33768217248542
 21
307.19902571683798
 31
0.0
  0
LINE
  5
309D7
  8
0
 10
116.4536566601527
 20
263.61739856368058
 30
0.0
 11
115.68665664060239
 21
262.85039831129961
 31
0.0
  0
LINE
  5
309D8
  8
0
 10
115.68665664060239
 20
256.38439843608171
 30
0.0
 11
116.4536566601527
 21
255.617398183701
 31
0.0
  0
LINE
  5
309D9
  8
0
 10
117.28665392263061
 20
263.61739856368058
 30
0.0
 11
116.4536566601527
 21
263.61739856368058
 31
0.0
  0
LINE
  5
309DA
  8
0
 10
116.4536566601527
 20
255.617398183701
 30
0.0
 11
117.28665392263061
 21
255.617398183701
 31
0.0
  0
LINE
  5
309DB
  8
0
 10
115.68665664060239
 20
262.85039831129961
 30
0.0
 11
115.68665664060239
 21
256.38439843608171
 31
0.0
  0
LINE
  5
309DC
  8
0
 10
116.4536566601527
 20
263.61739856368058
 30
0.0
 11
116.4536566601527
 21
255.617398183701
 31
0.0
  0
LINE
  5
309DD
  8
3
 10
115.68665664060239
 20
262.85039831129961
 30
0.0
 11
117.28665392263071
 21
262.85039831129973
 31
0.0
  0
LINE
  5
309DE
  8
3
 10
115.68665664060239
 20
256.38439843608171
 30
0.0
 11
117.28665392263071
 21
256.38439843608171
 31
0.0
  0
LINE
  5
309DF
  8
1
 10
290.04008170313909
 20
510.34102653234311
 30
0.0
 11
472.11304244020761
 21
510.34102653234311
 31
0.0
  0
LINE
  5
309E0
  8
1
 10
411.66491367966989
 20
452.59283910012931
 30
0.0
 11
411.66491367966989
 21
568.08921396455696
 31
0.0
  0
LINE
  5
309E1
  8
1
 10
363.66491367967001
 20
462.49398444837192
 30
0.0
 11
363.66491367967001
 21
558.18806861631435
 31
0.0
  0
LINE
  5
309E2
  8
1
 10
285.9167262474561
 20
259.61739837369117
 30
0.0
 11
441.4131011118838
 21
259.61739837369117
 31
0.0
  0
LINE
  5
309E3
  8
1
 10
363.66491367967001
 20
181.86921094147741
 30
0.0
 11
363.66491367967001
 21
313.13239837369201
 31
0.0
  0
LINE
  5
309E4
  8
1
 10
411.66491367966989
 20
373.36558580590508
 30
0.0
 11
411.66491367966989
 21
317.75717426188248
 31
0.0
  0
LINE
  5
309E5
  8
1
 10
104.00644066474609
 20
259.61739837369117
 30
0.0
 11
193.53160459582881
 21
259.61739837369117
 31
0.0
  0
LINE
  5
309E6
  8
1
 10
148.76902263028751
 20
181.86921094147741
 30
0.0
 11
148.76902263028751
 21
373.36558580590508
 31
0.0
  0
LINE
  5
309E7
  8
1
 10
364.80641839665623
 20
540.34102653234322
 30
0.0
 11
378.5234089626847
 21
540.34102653234322
 31
0.0
  0
LINE
  5
309E8
  8
1
 10
371.66491367967041
 20
533.48253124932899
 30
0.0
 11
371.66491367967041
 21
547.19952181535655
 31
0.0
  0
LINE
  5
309E9
  8
1
 10
367.30641839665623
 20
532.84102653234322
 30
0.0
 11
381.0234089626847
 21
532.84102653234322
 31
0.0
  0
LINE
  5
309EA
  8
1
 10
374.16491367967052
 20
525.98253124932899
 30
0.0
 11
374.16491367967052
 21
539.69952181535655
 31
0.0
  0
LINE
  5
309EB
  8
1
 10
442.30641839665623
 20
532.84102653234322
 30
0.0
 11
456.02340896268458
 21
532.84102653234322
 31
0.0
  0
LINE
  5
309EC
  8
1
 10
449.16491367967041
 20
525.98253124932899
 30
0.0
 11
449.16491367967041
 21
539.69952181535655
 31
0.0
  0
LINE
  5
309ED
  8
1
 10
444.80641839665623
 20
540.34102653234322
 30
0.0
 11
458.5234089626847
 21
540.34102653234322
 31
0.0
  0
LINE
  5
309EE
  8
1
 10
451.66491367967041
 20
533.48253124932899
 30
0.0
 11
451.66491367967041
 21
547.19952181535655
 31
0.0
  0
LINE
  5
309EF
  8
1
 10
442.30641839665623
 20
487.84102653234322
 30
0.0
 11
456.02340896268458
 21
487.84102653234322
 31
0.0
  0
LINE
  5
309F0
  8
1
 10
449.16491367967041
 20
494.6995218153574
 30
0.0
 11
449.16491367967041
 21
480.98253124932978
 31
0.0
  0
LINE
  5
309F1
  8
1
 10
444.80641839665623
 20
480.34102653234322
 30
0.0
 11
458.5234089626847
 21
480.34102653234322
 31
0.0
  0
LINE
  5
309F2
  8
1
 10
451.66491367967041
 20
487.1995218153574
 30
0.0
 11
451.66491367967041
 21
473.48253124932978
 31
0.0
  0
LINE
  5
309F3
  8
1
 10
381.02340896268379
 20
487.84102653234322
 30
0.0
 11
367.30641839665532
 21
487.84102653234322
 31
0.0
  0
LINE
  5
309F4
  8
1
 10
374.1649136796695
 20
494.6995218153574
 30
0.0
 11
374.1649136796695
 21
480.98253124932978
 31
0.0
  0
LINE
  5
309F5
  8
1
 10
378.52340896268379
 20
480.34102653234322
 30
0.0
 11
364.80641839665532
 21
480.34102653234322
 31
0.0
  0
LINE
  5
309F6
  8
1
 10
371.66491367966961
 20
487.1995218153574
 30
0.0
 11
371.66491367966961
 21
473.48253124932978
 31
0.0
  0
LINE
  5
309F7
  8
1
 10
623.32338669459375
 20
259.61739837369117
 30
0.0
 11
533.79822276351115
 21
259.61739837369117
 31
0.0
  0
LINE
  5
309F8
  8
1
 10
578.56080472905251
 20
181.86921094147741
 30
0.0
 11
578.56080472905251
 21
373.36558580590508
 31
0.0
  0
LINE
  5
309F9
  8
1
 10
371.66491367967041
 20
533.48253124932899
 30
0.0
 11
371.66491367967041
 21
547.19952181535655
 31
0.0
  0
LINE
  5
30A39
  8
0
 10
610.87617069918724
 20
263.61739856368058
 30
0.0
 11
611.64317071873745
 21
262.85039831129961
 31
0.0
  0
LINE
  5
30A3A
  8
0
 10
611.64317071873745
 20
256.38439843608171
 30
0.0
 11
610.87617069918724
 21
255.617398183701
 31
0.0
  0
LINE
  5
30A3B
  8
0
 10
610.04317343670925
 20
263.61739856368058
 30
0.0
 11
610.87617069918724
 21
263.61739856368058
 31
0.0
  0
LINE
  5
30A3C
  8
0
 10
610.87617069918724
 20
255.617398183701
 30
0.0
 11
610.04317343670925
 21
255.617398183701
 31
0.0
  0
LINE
  5
30A3D
  8
0
 10
611.64317071873745
 20
262.85039831129961
 30
0.0
 11
611.64317071873745
 21
256.38439843608171
 31
0.0
  0
LINE
  5
30A3E
  8
0
 10
610.87617069918724
 20
263.61739856368058
 30
0.0
 11
610.87617069918724
 21
255.617398183701
 31
0.0
  0
LINE
  5
30A3F
  8
3
 10
611.64317071873745
 20
262.85039831129961
 30
0.0
 11
610.04317343670925
 21
262.85039831129973
 31
0.0
  0
LINE
  5
30A40
  8
3
 10
611.64317071873745
 20
256.38439843608171
 30
0.0
 11
610.04317343670925
 21
256.38439843608171
 31
0.0
  0
LINE
  5
30A41
  8
0
 10
359.6649134896802
 20
542.65639250247841
 30
0.0
 11
360.43191374206123
 21
543.42339252202873
 31
0.0
  0
LINE
  5
30A43
  8
0
 10
359.6649134896802
 20
541.82339524000054
 30
0.0
 11
359.6649134896802
 21
542.65639250247841
 31
0.0
  0
LINE
  5
30A45
  8
0
 10
360.43191374206123
 20
543.42339252202873
 30
0.0
 11
361.66491358467511
 21
543.42339252202873
 31
0.0
  0
LINE
  5
30A46
  8
0
 10
359.6649134896802
 20
542.65639250247841
 30
0.0
 11
361.66491358467511
 21
542.65639250247841
 31
0.0
  0
LINE
  5
30A47
  8
3
 10
360.43191374206123
 20
543.42339252202873
 30
0.0
 11
360.43191374206123
 21
541.82339524000054
 31
0.0
  0
LINE
  5
30AC9
  8
0
 10
171.05139020247589
 20
267.61739875367039
 30
0.0
 11
171.05139020247589
 21
251.61739799371119
 31
0.0
  0
LINE
  5
30B09
  8
0
 10
556.27843715686413
 20
267.61739875367039
 30
0.0
 11
556.27843715686413
 21
251.61739799371119
 31
0.0
  0
TEXT
  5
30B65
  8
0
 62
     3
 10
0.0
 20
0.0
 30
0.0
 40
10.0
  1
CAF5-125SSL-H
  7
STANDARD1
  0
ENDSEC
  0
EOF
