  0
SECTION
  2
HEADER
  9
$ACADVER
  1
AC1009
  9
$INSBASE
 10
0.0
 20
0.0
 30
0.0
  9
$EXTMIN
 10
0.0
 20
-2.960436562073669
 30
0.0
  9
$EXTMAX
 10
553.95761483737806
 20
428.52344153086801
 30
0.0
  9
$LIMMIN
 10
0.0
 20
0.0
  9
$LIMMAX
 10
375.0
 20
270.0
  9
$ORTHOMODE
 70
     1
  9
$REGENMODE
 70
     1
  9
$FILLMODE
 70
     1
  9
$QTEXTMODE
 70
     0
  9
$MIRRTEXT
 70
     1
  9
$DRAGMODE
 70
     2
  9
$LTSCALE
 40
10.0
  9
$OSMODE
 70
    37
  9
$ATTMODE
 70
     1
  9
$TEXTSIZE
 40
5.0
  9
$TRACEWID
 40
0.05
  9
$TEXTSTYLE
  7
STANDARD
  9
$CLAYER
  8
0
  9
$CELTYPE
  6
BYLAYER
  9
$CECOLOR
 62
   256
  9
$DIMSCALE
 40
1.0
  9
$DIMASZ
 40
3.0
  9
$DIMEXO
 40
2.0
  9
$DIMDLI
 40
0.38
  9
$DIMRND
 40
0.0
  9
$DIMDLE
 40
0.0
  9
$DIMEXE
 40
2.0
  9
$DIMTP
 40
0.0
  9
$DIMTM
 40
0.0
  9
$DIMTXT
 40
3.2000000000000002
  9
$DIMCEN
 40
0.0
  9
$DIMTSZ
 40
0.0
  9
$DIMTOL
 70
     0
  9
$DIMLIM
 70
     0
  9
$DIMTIH
 70
     0
  9
$DIMTOH
 70
     0
  9
$DIMSE1
 70
     0
  9
$DIMSE2
 70
     0
  9
$DIMTAD
 70
     1
  9
$DIMZIN
 70
     8
  9
$DIMBLK
  1

  9
$DIMASO
 70
     0
  9
$DIMSHO
 70
     0
  9
$DIMPOST
  1

  9
$DIMAPOST
  1

  9
$DIMALT
 70
     0
  9
$DIMALTD
 70
     2
  9
$DIMALTF
 40
25.399999999999999
  9
$DIMLFAC
 40
1.0
  9
$DIMTOFL
 70
     0
  9
$DIMTVP
 40
1.6000000000000001
  9
$DIMTIX
 70
     1
  9
$DIMSOXD
 70
     0
  9
$DIMSAH
 70
     0
  9
$DIMBLK1
  1

  9
$DIMBLK2
  1

  9
$DIMSTYLE
  2
STANDARD
  9
$DIMCLRD
 70
     0
  9
$DIMCLRE
 70
     0
  9
$DIMCLRT
 70
     0
  9
$DIMTFAC
 40
1.0
  9
$DIMGAP
 40
1.1999999999999991
  9
$LUNITS
 70
     2
  9
$LUPREC
 70
     4
  9
$SKETCHINC
 40
0.1
  9
$FILLETRAD
 40
0.0
  9
$AUNITS
 70
     0
  9
$AUPREC
 70
     4
  9
$MENU
  1
ACAD
  9
$ELEVATION
 40
0.0
  9
$PELEVATION
 40
0.0
  9
$THICKNESS
 40
0.0
  9
$LIMCHECK
 70
     0
  9
$BLIPMODE
 70
     0
  9
$CHAMFERA
 40
0.0
  9
$CHAMFERB
 40
0.0
  9
$SKPOLY
 70
     0
  9
$TDCREATE
 40
2448055.7149187499
  9
$TDUPDATE
 40
2459507.4358641668
  9
$TDINDWG
 40
2.0725006828999999
  9
$TDUSRTIMER
 40
2.0725006828999999
  9
$USRTIMER
 70
     1
  9
$ANGBASE
 50
0.0
  9
$ANGDIR
 70
     0
  9
$PDMODE
 70
     0
  9
$PDSIZE
 40
0.0
  9
$PLINEWID
 40
0.0
  9
$COORDS
 70
     1
  9
$SPLFRAME
 70
     0
  9
$SPLINETYPE
 70
     6
  9
$SPLINESEGS
 70
     8
  9
$ATTDIA
 70
     0
  9
$ATTREQ
 70
     1
  9
$HANDLING
 70
     1
  9
$HANDSEED
  5
146CC
  9
$SURFTAB1
 70
     6
  9
$SURFTAB2
 70
     6
  9
$SURFTYPE
 70
     6
  9
$SURFU
 70
     6
  9
$SURFV
 70
     6
  9
$UCSNAME
  2

  9
$UCSORG
 10
0.0
 20
0.0
 30
0.0
  9
$UCSXDIR
 10
1.0
 20
0.0
 30
0.0
  9
$UCSYDIR
 10
0.0
 20
1.0
 30
0.0
  9
$PUCSNAME
  2

  9
$PUCSORG
 10
0.0
 20
0.0
 30
0.0
  9
$PUCSXDIR
 10
1.0
 20
0.0
 30
0.0
  9
$PUCSYDIR
 10
0.0
 20
1.0
 30
0.0
  9
$USERI1
 70
     0
  9
$USERI2
 70
     0
  9
$USERI3
 70
     0
  9
$USERI4
 70
     0
  9
$USERI5
 70
     0
  9
$USERR1
 40
0.0
  9
$USERR2
 40
0.0
  9
$USERR3
 40
0.0
  9
$USERR4
 40
0.0
  9
$USERR5
 40
0.0
  9
$WORLDVIEW
 70
     1
  9
$SHADEDGE
 70
     3
  9
$SHADEDIF
 70
    70
  9
$TILEMODE
 70
     1
  9
$MAXACTVP
 70
    16
  9
$PLIMCHECK
 70
     0
  9
$PEXTMIN
 10
1.0000000000000000E+020
 20
1.0000000000000000E+020
 30
1.0000000000000000E+020
  9
$PEXTMAX
 10
-1.0000000000000000E+020
 20
-1.0000000000000000E+020
 30
-1.0000000000000000E+020
  9
$PLIMMIN
 10
0.0
 20
0.0
  9
$PLIMMAX
 10
12.0
 20
9.0
  9
$UNITMODE
 70
     0
  9
$VISRETAIN
 70
     0
  9
$PLINEGEN
 70
     1
  9
$PSLTSCALE
 70
     0
  0
ENDSEC
  0
SECTION
  2
TABLES
  0
TABLE
  2
VPORT
 70
     1
  0
VPORT
  2
*ACTIVE
 70
     0
 10
0.0
 20
0.0
 11
1.0
 21
1.0
 12
402.06843404175839
 22
212.79061877554321
 13
0.0
 23
0.0
 14
5.0
 24
5.0
 15
10.0
 25
10.0
 16
0.0
 26
0.0
 36
1.0
 17
0.0
 27
0.0
 37
0.0
 40
435.45894764605822
 41
2.6019575856443709
 42
50.0
 43
0.0
 44
0.0
 50
0.0
 51
0.0
 71
     0
 72
   500
 73
     1
 74
     1
 75
     0
 76
     0
 77
     0
 78
     2
  0
ENDTAB
  0
TABLE
  2
LTYPE
 70
     4
  0
LTYPE
  2
CONTINUOUS
 70
     0
  3
実線
 72
    65
 73
     0
 40
0.0
  0
LTYPE
  2
CENTER
 70
     0
  3
____ _ ____ _ ____ _ ____ _ ____ _ ____ _ ____
 72
    65
 73
     4
 40
2.0
 49
1.25
 49
-0.25
 49
0.25
 49
-0.25
  0
LTYPE
  2
HIDDEN
 70
     0
  3
_ _ _ _ _ _ _ _ _ _ _ _ _ _ _ _ _ _ _ _ _ _ _
 72
    65
 73
     2
 40
0.375
 49
0.25
 49
-0.125
  0
LTYPE
  2
PHANTOM2
 70
     0
  3
___ _ _ ___ _ _ ___ _ _ ___ _ _
 72
    65
 73
     6
 40
1.25
 49
0.625
 49
-0.125
 49
0.125
 49
-0.125
 49
0.125
 49
-0.125
  0
ENDTAB
  0
TABLE
  2
LAYER
 70
     5
  0
LAYER
  2
0
 70
     0
 62
     7
  6
CONTINUOUS
  0
LAYER
  2
1
 70
     0
 62
     1
  6
CENTER
  0
LAYER
  2
2
 70
     0
 62
     2
  6
HIDDEN
  0
LAYER
  2
DEFPOINTS
 70
     0
 62
     7
  6
CONTINUOUS
  0
LAYER
  2
3
 70
     0
 62
     3
  6
CONTINUOUS
  0
ENDTAB
  0
TABLE
  2
STYLE
 70
     3
  0
STYLE
  2
STANDARD
 70
     0
 40
0.0
 41
1.0
 50
0.0
 71
     0
 42
5.0
  3
simplex.shx
  4
bigfont.shx
  0
STYLE
  2
07500
 70
     0
 40
0.0
 41
0.75
 50
0.0
 71
     0
 42
0.2
  3
simplex.shx
  4
bigfont.shx
  0
STYLE
  2
STANDARD1
 70
     0
 40
0.0
 41
1.0
 50
0.0
 71
     0
 42
3.0
  3
txt
  4

  0
ENDTAB
  0
TABLE
  2
VIEW
 70
     2
  0
VIEW
  2
ALL
 70
     0
 40
270.0
 10
220.99159663865549
 20
135.0
 41
0.0
 11
0.0
 21
0.0
 31
1.0
 12
0.0
 22
0.0
 32
0.0
 42
0.0
 43
0.0
 44
0.0
 50
0.0
 71
     0
  0
VIEW
  2
OLE1
 70
     0
 40
168.2487151179721
 10
2892.3009567448912
 20
702.51600084347126
 41
162.5749581879237
 11
0.0
 21
0.0
 31
1.0
 12
0.0
 22
0.0
 32
0.0
 42
50.0
 43
0.0
 44
0.0
 50
0.0
 71
     0
  0
ENDTAB
  0
TABLE
  2
UCS
 70
     0
  0
ENDTAB
  0
TABLE
  2
APPID
 70
    48
  0
APPID
  2
ACAD
 70
     0
  0
APPID
  2
DCO15
 70
     0
  0
APPID
  2
GENIUS_GENOREF_13
 70
     0
  0
APPID
  2
GENIUS_GENOENT_13
 70
     0
  0
APPID
  2
GENIUS_GENBH_13
 70
     0
  0
APPID
  2
GENIUS_GENOBJ_13
 70
     0
  0
APPID
  2
GENIUS_GENODEF_13
 70
     0
  0
APPID
  2
GENIUS_GENOLIS_13
 70
     0
  0
APPID
  2
GENIUS_GENOBJ-NBEHI-BHF_13
 70
     0
  0
APPID
  2
GENIUS_GENOBJ-NBEHI-BHB_13
 70
     0
  0
APPID
  2
GENIUS_GENOBJ-F-PART_13
 70
     0
  0
APPID
  2
GENIUS_GEFSTDP_13
 70
     0
  0
APPID
  2
GENIUS_GENOBJ-N-RSSYM_13
 70
     0
  0
APPID
  2
GENIUS_GENSYMENT_13
 70
     0
  0
APPID
  2
GENIUS_GENOBJ-N-TIT_13
 70
     0
  0
APPID
  2
GENIUS_GENTITLE_13
 70
     0
  0
APPID
  2
GENIUS_GENZVEED_13
 70
     0
  0
APPID
  2
GENIUS_GENOBJ-N-LEADER_13
 70
     0
  0
APPID
  2
GENIUS_GENOBJ-N-FIL_13
 70
     0
  0
APPID
  2
GENIUS_GENOBJ-N-SEC_13
 70
     0
  0
APPID
  2
GENIUS_GENOBJ-N-CRS_13
 70
     0
  0
APPID
  2
GENIUS_GENOBJ-N-ZOO_13
 70
     0
  0
APPID
  2
GENIUS_GENZOO_13
 70
     0
  0
APPID
  2
GENIUS_GENOBJ-F-TOL_13
 70
     0
  0
APPID
  2
GENIUS_GENFIL_13
 70
     0
  0
APPID
  2
GENIUS_GENOBJ-N-CHA_13
 70
     0
  0
APPID
  2
_CALL_MAC$
 70
     0
  0
APPID
  2
ASM_BASE
 70
     0
  0
APPID
  2
ASM_EXPLO_VER_2_00
 70
     0
  0
APPID
  2
ASM_CADM_VER_12_00
 70
     0
  0
APPID
  2
ASM_BASEFORO
 70
     0
  0
APPID
  2
ASM_BASETRAVI
 70
     0
  0
APPID
  2
ASM_BASETRAVI1
 70
     0
  0
APPID
  2
ASM_GRUPPI
 70
     0
  0
APPID
  2
ASM_CADM_ALBERO
 70
     0
  0
APPID
  2
ASM_GOLE
 70
     0
  0
APPID
  2
ACAD_MLEADERVER
 70
     0
  0
APPID
  2
ACAD_DSTYLE_DIMJAG
 70
     0
  0
APPID
  2
ACAD_DSTYLE_DIMTALN
 70
     0
  0
APPID
  2
ACAD_EXEMPT_FROM_CAD_STANDARDS
 70
     0
  0
APPID
  2
ACAD_DSTYLE_DIMRADIAL_EXTENSION
 70
     0
  0
APPID
  2
ACAD_PSEXT
 70
     0
  0
APPID
  2
ACAD_DSTYLE_DIMBREAK
 70
     0
  0
APPID
  2
ACAECLAYERSTANDARD
 70
     0
  0
APPID
  2
ACCMTRANSPARENCY
 70
     0
  0
APPID
  2
GRADIENTCOLOR1ACI
 70
     0
  0
APPID
  2
GRADIENTCOLOR2ACI
 70
     0
  0
APPID
  2
ACAD_NAV_VCDISPLAY
 70
     0
  0
ENDTAB
  0
TABLE
  2
DIMSTYLE
 70
     1
  0
DIMSTYLE
  2
STANDARD
 70
     0
  3

  4

  5

  6

  7

 40
1.0
 41
0.18
 42
0.0625
 43
0.38
 44
0.18
 45
0.0
 46
0.0
 47
0.0
 48
0.0
140
0.18
141
0.09
142
0.0
143
25.399999999999999
144
1.0
145
0.0
146
1.0
147
0.09
 71
     0
 72
     0
 73
     1
 74
     1
 75
     0
 76
     0
 77
     0
 78
     0
170
     0
171
     2
172
     0
173
     0
174
     0
175
     0
176
     0
177
     0
178
     0
  0
ENDTAB
  0
ENDSEC
  0
SECTION
  2
BLOCKS
  0
BLOCK
  8
0
  2
$MODEL_SPACE
 70
     0
 10
0.0
 20
0.0
 30
0.0
  3
$MODEL_SPACE
  1

  0
ENDBLK
  5
36
  8
0
  0
BLOCK
 67
     1
  8
0
  2
$PAPER_SPACE
 70
     0
 10
0.0
 20
0.0
 30
0.0
  3
$PAPER_SPACE
  1

  0
ENDBLK
  5
34
 67
     1
  8
0
  0
ENDSEC
  0
SECTION
  2
ENTITIES
  0
LINE
  5
DEFE
  8
0
 10
368.90231598404807
 20
243.44368873142039
 30
0.0
 11
368.90231598404807
 21
246.74368873142041
 31
0.0
  0
LINE
  5
DEFF
  8
0
 10
346.90231598404807
 20
246.74368873142041
 30
0.0
 11
346.90231598404807
 21
243.44368873142039
 31
0.0
  0
ARC
  5
DF00
  8
0
 10
329.87731598404798
 20
240.44368873142039
 30
0.0
 40
2.9999999999999778
 50
90.0
 51
179.99999914622629
  0
ARC
  5
DF01
  8
0
 10
385.92731598404822
 20
240.44368873142039
 30
0.0
 40
2.9999999999999711
 50
0.0
 51
90.0
  0
LINE
  5
DF02
  8
0
 10
388.92731598404822
 20
239.94368873142039
 30
0.0
 11
388.92731598404822
 21
240.44368873142039
 31
0.0
  0
LINE
  5
DF03
  8
0
 10
326.87731598404798
 20
240.44368873142039
 30
0.0
 11
326.87731598404798
 21
239.94368873142039
 31
0.0
  0
ARC
  5
DF04
  8
0
 10
325.40231598404807
 20
235.94368873142031
 30
0.0
 40
4.0000000000000071
 50
90.0
 51
180.0
  0
ARC
  5
DF05
  8
0
 10
390.40231598404807
 20
235.94368873142031
 30
0.0
 40
4.0
 50
0.0
 51
90.0
  0
LINE
  5
DF06
  8
0
 10
394.40231598404807
 20
234.94368873142039
 30
0.0
 11
394.40231598404807
 21
235.94368873142031
 31
0.0
  0
LINE
  5
DF07
  8
0
 10
321.40231598404807
 20
235.94368873142031
 30
0.0
 11
321.40231598404807
 21
234.94368873142039
 31
0.0
  0
LINE
  5
DF08
  8
0
 10
324.90231598404807
 20
234.94368873142039
 30
0.0
 11
324.90231598404807
 21
232.94368873142039
 31
0.0
  0
LINE
  5
DF09
  8
2
 10
388.40231598404807
 20
232.3588400673261
 30
0.0
 11
388.40231598404807
 21
232.74368873142041
 31
0.0
  0
LINE
  5
DF0B
  8
2
 10
363.90231598404807
 20
232.74368873142041
 30
0.0
 11
363.90231598404807
 21
246.74368873142041
 31
0.0
  0
LINE
  5
DF0C
  8
2
 10
351.90231598404807
 20
246.74368873142041
 30
0.0
 11
351.90231598404807
 21
232.74368873142041
 31
0.0
  0
LINE
  5
DF0D
  8
0
 10
346.90231598404807
 20
246.74368873142041
 30
0.0
 11
368.90231598404807
 21
246.74368873142041
 31
0.0
  0
LINE
  5
DF0E
  8
0
 10
329.87731598404798
 20
243.44368873142039
 30
0.0
 11
385.92731598404822
 21
243.44368873142039
 31
0.0
  0
LINE
  5
DF10
  8
0
 10
325.40231598404807
 20
239.94368873142039
 30
0.0
 11
390.40231598404807
 21
239.94368873142039
 31
0.0
  0
LINE
  5
DF12
  8
0
 10
321.40231598404807
 20
234.94368873142039
 30
0.0
 11
394.40231598404807
 21
234.94368873142039
 31
0.0
  0
LINE
  5
DF13
  8
0
 10
333.76210057490152
 20
232.94368873142039
 30
0.0
 11
318.40231598404807
 21
232.94368873142039
 31
0.0
  0
LINE
  5
DF14
  8
0
 10
333.76210057490152
 20
232.94368873142039
 30
0.0
 11
333.76210057490152
 21
175.8641649448638
 31
0.0
  0
LINE
  5
DF15
  8
0
 10
318.40231598404807
 20
232.94368873142039
 30
0.0
 11
318.40231598404807
 21
229.24368873142041
 31
0.0
  0
LINE
  5
DF16
  8
2
 10
327.40231598404807
 20
232.74368873142041
 30
0.0
 11
388.40231598404807
 21
232.74368873142041
 31
0.0
  0
ARC
  5
DF17
  8
0
 10
314.20231598404831
 20
179.74368873142029
 30
0.0
 40
10.0
 50
163.5373472527929
 51
270.0
  0
LINE
  5
DF18
  8
0
 10
318.40231598404807
 20
229.24368873142041
 30
0.0
 11
304.61226936804002
 21
182.577591676617
 31
0.0
  0
LINE
  5
DF19
  8
0
 10
314.20231598404831
 20
169.74368873142041
 30
0.0
 11
323.60231598404789
 21
169.74368873142041
 31
0.0
  0
ARC
  5
DF1A
  8
0
 10
323.60231598404789
 20
179.74368873142029
 30
0.0
 40
9.9999999999999432
 50
270.0
 51
315.95598109888221
  0
LINE
  5
DF1B
  8
0
 10
330.79037498011172
 20
172.79158057136479
 30
0.0
 11
333.76210057490152
 21
175.8641649448638
 31
0.0
  0
POLYLINE
  5
DF1C
  8
0
 66
     1
 10
0.0
 20
0.0
 30
0.0
  0
VERTEX
  5
1433B
  8
0
 10
333.76210057490152
 20
175.8641649448638
 30
0.0
  0
VERTEX
  5
1433C
  8
0
 10
334.01267357122879
 20
176.12324225478949
 30
0.0
  0
VERTEX
  5
1433D
  8
0
 10
334.52257273547048
 20
176.6504471241949
 30
0.0
  0
VERTEX
  5
1433E
  8
0
 10
335.0439338845859
 20
177.18950299211539
 30
0.0
  0
VERTEX
  5
1433F
  8
0
 10
335.30883304495001
 20
177.4633926884305
 30
0.0
  0
VERTEX
  5
14340
  8
0
 10
335.57650141980457
 20
177.7401455848956
 30
0.0
  0
VERTEX
  5
14341
  8
0
 10
336.12001424839582
 20
178.30210494845619
 30
0.0
  0
VERTEX
  5
14342
  8
0
 10
336.67420591166592
 20
178.87510558063889
 30
0.0
  0
VERTEX
  5
14343
  8
0
 10
337.2388047155946
 20
179.45886656627241
 30
0.0
  0
VERTEX
  5
14344
  8
0
 10
337.81353386402952
 20
180.05310171489191
 30
0.0
  0
VERTEX
  5
14345
  8
0
 10
338.39811159439068
 20
180.65751970104481
 30
0.0
  0
VERTEX
  5
14346
  8
0
 10
338.69400430292347
 20
180.96345484999139
 30
0.0
  0
VERTEX
  5
14347
  8
0
 10
338.99225131580079
 20
181.2718242071137
 30
0.0
  0
VERTEX
  5
14348
  8
0
 10
339.59566174959082
 20
181.89571406858701
 30
0.0
  0
VERTEX
  5
14349
  8
0
 10
340.2080470720993
 20
182.5288834217057
 30
0.0
  0
VERTEX
  5
1434A
  8
0
 10
340.8291070596992
 20
183.17102185341389
 30
0.0
  0
VERTEX
  5
1434B
  8
0
 10
341.4585372359856
 20
183.82181455353989
 30
0.0
  0
VERTEX
  5
1434C
  8
0
 10
342.09602902104461
 20
184.480942469132
 30
0.0
  0
VERTEX
  5
1434D
  8
0
 10
342.4177005007773
 20
184.8135313069975
 30
0.0
  0
VERTEX
  5
1434E
  8
0
 10
342.74126988273571
 20
185.14808246087651
 30
0.0
  0
VERTEX
  5
1434F
  8
0
 10
343.39394348991209
 20
185.822907461516
 30
0.0
  0
VERTEX
  5
14350
  8
0
 10
344.05372986750223
 20
186.50508663619661
 30
0.0
  0
VERTEX
  5
14351
  8
0
 10
344.38618939517579
 20
186.8488296625859
 30
0.0
  0
VERTEX
  5
14352
  8
0
 10
344.72030555337909
 20
187.19428554465929
 30
0.0
  0
VERTEX
  5
14353
  8
0
 10
345.39334375693852
 20
187.8901663052014
 30
0.0
  0
VERTEX
  5
14354
  8
0
 10
346.07251451930819
 20
188.59238776032299
 30
0.0
  0
VERTEX
  5
14355
  8
0
 10
346.41429567135492
 20
188.94576878203509
 30
0.0
  0
VERTEX
  5
14356
  8
0
 10
346.75748487511282
 20
189.30060564398099
 30
0.0
  0
VERTEX
  5
14357
  8
0
 10
347.44791901570852
 20
190.01447275036651
 30
0.0
  0
VERTEX
  5
14358
  8
0
 10
348.14347845381639
 20
190.7336391041232
 30
0.0
  0
VERTEX
  5
14359
  8
0
 10
348.84382218946621
 20
191.4577521319236
 30
0.0
  0
VERTEX
  5
1435A
  8
0
 10
349.54860687717201
 20
192.18645683531969
 30
0.0
  0
VERTEX
  5
1435B
  8
0
 10
350.25748699425873
 20
192.91939596478139
 30
0.0
  0
VERTEX
  5
1435C
  8
0
 10
350.61335430932468
 20
193.2873412263589
 30
0.0
  0
VERTEX
  5
1435D
  8
0
 10
350.97011501025548
 20
193.65621019483959
 30
0.0
  0
VERTEX
  5
1435E
  8
0
 10
351.6861415572734
 20
194.39653830024579
 30
0.0
  0
VERTEX
  5
1435F
  8
0
 10
352.40521560128451
 20
195.14001733306469
 30
0.0
  0
VERTEX
  5
14360
  8
0
 10
353.12698461421678
 20
195.88628280060951
 30
0.0
  0
VERTEX
  5
14361
  8
0
 10
353.8510947467812
 20
196.63496884413621
 30
0.0
  0
VERTEX
  5
14362
  8
0
 10
354.57719100194981
 20
197.3857084182068
 30
0.0
  0
VERTEX
  5
14363
  8
0
 10
354.94087271792341
 20
197.7617332972828
 30
0.0
  0
VERTEX
  5
14364
  8
0
 10
355.30491740899151
 20
198.13813347063379
 30
0.0
  0
VERTEX
  5
14365
  8
0
 10
356.03391719798861
 20
198.89187512291949
 30
0.0
  0
VERTEX
  5
14366
  8
0
 10
356.76383297474467
 20
199.64656385109919
 30
0.0
  0
VERTEX
  5
14367
  8
0
 10
357.4943068959974
 20
200.40182966690159
 30
0.0
  0
VERTEX
  5
14368
  8
0
 10
358.22498084485329
 20
201.1573022991368
 30
0.0
  0
VERTEX
  5
14369
  8
0
 10
358.95549660635328
 20
201.9126113752223
 30
0.0
  0
VERTEX
  5
1436A
  8
0
 10
359.32058324107493
 20
202.29008885523771
 30
0.0
  0
VERTEX
  5
1436B
  8
0
 10
359.68549604309192
 20
202.66738660275959
 30
0.0
  0
VERTEX
  5
1436C
  8
0
 10
360.41462127079188
 20
203.4212579510708
 30
0.0
  0
VERTEX
  5
1436D
  8
0
 10
361.1425148337608
 20
204.17385583260759
 30
0.0
  0
VERTEX
  5
1436E
  8
0
 10
361.86881988013153
 20
204.92481128414229
 30
0.0
  0
VERTEX
  5
1436F
  8
0
 10
362.59318033681302
 20
205.67375614765271
 30
0.0
  0
VERTEX
  5
14370
  8
0
 10
363.31524108405438
 20
206.42032325081371
 30
0.0
  0
VERTEX
  5
14371
  8
0
 10
363.67529839524792
 20
206.79260071474769
 30
0.0
  0
VERTEX
  5
14372
  8
0
 10
364.03464812954422
 20
207.16414658700339
 30
0.0
  0
VERTEX
  5
14373
  8
0
 10
364.75104878195498
 20
207.90486149473949
 30
0.0
  0
VERTEX
  5
14374
  8
0
 10
365.46409182385293
 20
208.6421048364557
 30
0.0
  0
VERTEX
  5
14375
  8
0
 10
366.17342768388062
 20
209.37551517653051
 30
0.0
  0
VERTEX
  5
14376
  8
0
 10
366.87870860813842
 20
210.10473295848209
 30
0.0
  0
VERTEX
  5
14377
  8
0
 10
367.57958883066982
 20
210.8294006812425
 30
0.0
  0
VERTEX
  5
14378
  8
0
 10
367.92827121224258
 20
211.18991715652319
 30
0.0
  0
VERTEX
  5
14379
  8
0
 10
368.2757247429754
 20
211.54916307442281
 30
0.0
  0
VERTEX
  5
1437A
  8
0
 10
368.96677506246579
 20
212.26366727248549
 30
0.0
  0
VERTEX
  5
1437B
  8
0
 10
369.65240099977882
 20
212.9725629877384
 30
0.0
  0
VERTEX
  5
1437C
  8
0
 10
369.9930746760856
 20
213.32479894657561
 30
0.0
  0
VERTEX
  5
1437D
  8
0
 10
370.3322664248708
 20
213.67550268206361
 30
0.0
  0
VERTEX
  5
1437E
  8
0
 10
371.00603803180547
 20
214.3721417372993
 30
0.0
  0
VERTEX
  5
1437F
  8
0
 10
371.67338550215709
 20
215.0621386241896
 30
0.0
  0
VERTEX
  5
14380
  8
0
 10
372.00454781838829
 20
215.40454041247281
 30
0.0
  0
VERTEX
  5
14381
  8
0
 10
372.3339816669527
 20
215.74515506982041
 30
0.0
  0
VERTEX
  5
14382
  8
0
 10
372.98750266706378
 20
216.42085622345849
 30
0.0
  0
VERTEX
  5
14383
  8
0
 10
373.6336281119834
 20
217.08891082071329
 30
0.0
  0
VERTEX
  5
14384
  8
0
 10
374.27204123689398
 20
217.7489913459398
 30
0.0
  0
VERTEX
  5
14385
  8
0
 10
374.90242905796691
 20
218.40077419280419
 30
0.0
  0
VERTEX
  5
14386
  8
0
 10
375.52448252579961
 20
219.0439398229332
 30
0.0
  0
VERTEX
  5
14387
  8
0
 10
375.83228841246
 20
219.3621924769069
 30
0.0
  0
VERTEX
  5
14388
  8
0
 10
376.13789667693032
 20
219.67817292256791
 30
0.0
  0
VERTEX
  5
14389
  8
0
 10
376.74237078334642
 20
220.3031625571476
 30
0.0
  0
VERTEX
  5
1438A
  8
0
 10
377.33760849991768
 20
220.9186023237466
 30
0.0
  0
VERTEX
  5
1438B
  8
0
 10
377.92331800967889
 20
221.52419050128839
 30
0.0
  0
VERTEX
  5
1438C
  8
0
 10
378.499212166897
 20
222.1196301984663
 30
0.0
  0
VERTEX
  5
1438D
  8
0
 10
379.0650086378414
 20
222.70462949929421
 30
0.0
  0
VERTEX
  5
1438E
  8
0
 10
379.34403336156538
 20
222.99312417304091
 30
0.0
  0
VERTEX
  5
1438F
  8
0
 10
379.62043003920098
 20
223.2789016062197
 30
0.0
  0
VERTEX
  5
14390
  8
0
 10
380.16520407407228
 20
223.84216498072769
 30
0.0
  0
VERTEX
  5
14391
  8
0
 10
380.69906366545229
 20
224.39414348136469
 30
0.0
  0
VERTEX
  5
14392
  8
0
 10
381.22174708717512
 20
224.93456649911869
 30
0.0
  0
VERTEX
  5
14393
  8
0
 10
381.73299809222408
 20
225.4631690900855
 30
0.0
  0
VERTEX
  5
14394
  8
0
 10
382.23256603835529
 20
225.9796921053584
 30
0.0
  0
VERTEX
  5
14395
  8
0
 10
382.47789210147857
 20
226.23334440397099
 30
0.0
  0
VERTEX
  5
14396
  8
0
 10
382.72020601097938
 20
226.48388231807661
 30
0.0
  0
VERTEX
  5
14397
  8
0
 10
383.19567894322751
 20
226.97549254757061
 30
0.0
  0
VERTEX
  5
14398
  8
0
 10
383.65875173315823
 20
227.45428178054291
 30
0.0
  0
VERTEX
  5
14399
  8
0
 10
384.10919735803373
 20
227.9200152892256
 30
0.0
  0
VERTEX
  5
1439A
  8
0
 10
384.54679498562018
 20
228.37246474645639
 30
0.0
  0
VERTEX
  5
1439B
  8
0
 10
384.97133008244919
 20
228.81140833761671
 30
0.0
  0
VERTEX
  5
1439C
  8
0
 10
385.17863388838811
 20
229.0257479239535
 30
0.0
  0
VERTEX
  5
1439D
  8
0
 10
385.38259451899688
 20
229.2366308693764
 30
0.0
  0
VERTEX
  5
1439E
  8
0
 10
385.78038667171592
 20
229.64792387519361
 30
0.0
  0
VERTEX
  5
1439F
  8
0
 10
386.16451152188529
 20
230.0450857175158
 30
0.0
  0
VERTEX
  5
143A0
  8
0
 10
386.53478075121672
 20
230.4279216866326
 30
0.0
  0
VERTEX
  5
143A1
  8
0
 10
386.89101283417909
 20
230.7962440961339
 30
0.0
  0
VERTEX
  5
143A2
  8
0
 10
387.23303312699232
 20
231.1498723749225
 30
0.0
  0
VERTEX
  5
143A3
  8
0
 10
387.39866117878051
 20
231.3211217542831
 30
0.0
  0
VERTEX
  5
143A4
  8
0
 10
387.5606739532459
 20
231.48863315574039
 30
0.0
  0
VERTEX
  5
143A5
  8
0
 10
387.87377468610379
 20
231.8123603601621
 30
0.0
  0
VERTEX
  5
143A6
  8
0
 10
388.17218182705068
 20
232.12089528001539
 30
0.0
  0
VERTEX
  5
143A7
  8
0
 10
388.31582930001377
 20
232.2694180714511
 30
0.0
  0
VERTEX
  5
143A8
  8
0
 10
388.45574908114719
 20
232.41408665518799
 30
0.0
  0
VERTEX
  5
143A9
  8
0
 10
388.7243374287491
 20
232.6917907477841
 30
0.0
  0
VERTEX
  5
143AA
  8
0
 10
388.9778151936635
 20
232.95387141259101
 30
0.0
  0
VERTEX
  5
143AB
  8
0
 10
389.0988484827389
 20
233.0790125068217
 30
0.0
  0
VERTEX
  5
143AC
  8
0
 10
389.21605810770421
 20
233.200200163826
 30
0.0
  0
VERTEX
  5
143AD
  8
0
 10
389.43894937161213
 20
233.43065623812609
 30
0.0
  0
VERTEX
  5
143AE
  8
0
 10
389.64637971231792
 20
233.6451266537527
 30
0.0
  0
VERTEX
  5
143AF
  8
0
 10
389.83824743651439
 20
233.8435062659816
 30
0.0
  0
VERTEX
  5
143B0
  8
0
 10
390.01445848051031
 20
234.02569781864989
 30
0.0
  0
VERTEX
  5
143B1
  8
0
 10
390.17492645634502
 20
234.19161199183671
 30
0.0
  0
VERTEX
  5
143B2
  8
0
 10
390.24923190679777
 20
234.26843932957169
 30
0.0
  0
VERTEX
  5
143B3
  8
0
 10
390.31957269414312
 20
234.34116744565191
 30
0.0
  0
VERTEX
  5
143B4
  8
0
 10
390.44832628067888
 20
234.4742908601138
 30
0.0
  0
VERTEX
  5
143B5
  8
0
 10
390.56112409414482
 20
234.590916971094
 30
0.0
  0
VERTEX
  5
143B6
  8
0
 10
390.65791083509612
 20
234.69098860231381
 30
0.0
  0
VERTEX
  5
143B7
  8
0
 10
390.73863905356029
 20
234.7744566933745
 30
0.0
  0
VERTEX
  5
143B8
  8
0
 10
390.80326917230099
 20
234.8412803238096
 30
0.0
  0
VERTEX
  5
143B9
  8
0
 10
390.82953723394439
 20
234.86843990942859
 30
0.0
  0
VERTEX
  5
143BA
  8
0
 10
390.8517695062215
 20
234.8914267331466
 30
0.0
  0
VERTEX
  5
143BB
  8
0
 10
390.88411627789628
 20
234.92487133696719
 30
0.0
  0
VERTEX
  5
143BC
  8
0
 10
390.90029362923002
 20
234.9415977389603
 30
0.0
  0
VERTEX
  5
143BD
  8
0
 10
390.90231598404807
 20
234.94368873142039
 30
0.0
  0
SEQEND
  5
143BE
  8
0
  0
LINE
  5
DF20
  8
0
 10
306.93563698083881
 20
232.74368873142041
 30
0.0
 11
258.41897648244361
 21
219.74368873142041
 31
0.0
  0
LINE
  5
DF21
  8
0
 10
318.40231598404807
 20
232.74368873142041
 30
0.0
 11
306.93563698083881
 21
232.74368873142041
 31
0.0
  0
LINE
  5
DF22
  8
0
 10
261.90231598404807
 20
206.74368873142041
 30
0.0
 11
311.75346235277487
 21
206.74368873142041
 31
0.0
  0
LINE
  5
DF26
  8
0
 10
258.41897648244361
 20
219.74368873142041
 30
0.0
 11
261.90231598404807
 21
206.74368873142041
 31
0.0
  0
ARC
  5
DF46
  8
0
 10
318.90231598404807
 20
179.74368873142029
 30
0.0
 40
40.000000000000021
 50
137.54584979558771
 51
26.416295574367229
  0
ARC
  5
DF48
  8
0
 10
318.90231598404807
 20
179.74368873142029
 30
0.0
 40
30.832662348034852
 50
118.8726961155143
 51
20.240464246315671
  0
ARC
  5
DF51
  8
0
 10
318.90231598404807
 20
179.74368873142029
 30
0.0
 40
17.143250174624502
 50
131.3424954326774
 51
354.65986164095932
  0
ARC
  5
DF57
  8
0
 10
318.90231598404807
 20
179.74368873142029
 30
0.0
 40
14.659727048148721
 50
155.26837636882519
 51
173.80835380091071
  0
ARC
  5
DF5B
  8
0
 10
318.90231598404807
 20
179.74368873142029
 30
0.0
 40
35.707142142714247
 50
130.8739350267754
 51
23.95207529664583
  0
LINE
  5
DF64
  8
0
 10
523.54553995148297
 20
243.44368873142039
 30
0.0
 11
523.54553995148297
 21
246.74368873142041
 31
0.0
  0
LINE
  5
DF65
  8
0
 10
501.54553995148308
 20
246.74368873142029
 30
0.0
 11
501.54553995148308
 21
243.44368873142039
 31
0.0
  0
ARC
  5
DF67
  8
0
 10
484.52053995150072
 20
240.44368873142039
 30
0.0
 40
2.9999999999999778
 50
90.0
 51
180.0
  0
ARC
  5
DF68
  8
0
 10
540.57053995150079
 20
240.44368873142039
 30
0.0
 40
2.999999999999992
 50
0.0
 51
90.0
  0
LINE
  5
DF69
  8
0
 10
543.5705399515009
 20
239.94368873142039
 30
0.0
 11
543.5705399515009
 21
240.44368873142039
 31
0.0
  0
LINE
  5
DF6A
  8
0
 10
481.52053995150072
 20
240.44368873142039
 30
0.0
 11
481.52053995150072
 21
239.94368873142039
 31
0.0
  0
ARC
  5
DF6B
  8
0
 10
480.04553995150081
 20
235.94368873142031
 30
0.0
 40
4.0000000000000142
 50
90.0
 51
180.0
  0
ARC
  5
DF6C
  8
0
 10
545.04553995150081
 20
235.94368873142031
 30
0.0
 40
4.0000000000000142
 50
0.0
 51
90.0
  0
LINE
  5
DF6D
  8
0
 10
549.04553995150081
 20
234.94368873142039
 30
0.0
 11
549.04553995150081
 21
235.94368873142031
 31
0.0
  0
LINE
  5
DF6E
  8
0
 10
476.04553995150081
 20
235.94368873142031
 30
0.0
 11
476.04553995150081
 21
234.94368873142039
 31
0.0
  0
LINE
  5
DF6F
  8
0
 10
545.54553995150081
 20
200.82368636537601
 30
0.0
 11
545.54553995150081
 21
234.94368873142039
 31
0.0
  0
LINE
  5
DF70
  8
0
 10
479.54553995150081
 20
234.94368873142039
 30
0.0
 11
479.54553995150081
 21
200.82368636537601
 31
0.0
  0
LINE
  5
DF79
  8
0
 10
501.54553995148308
 20
246.74368873142029
 30
0.0
 11
523.54553995148297
 21
246.74368873142041
 31
0.0
  0
LINE
  5
DF7A
  8
0
 10
484.52053995150072
 20
243.44368873142039
 30
0.0
 11
540.57053995150079
 21
243.44368873142039
 31
0.0
  0
LINE
  5
DF7C
  8
0
 10
480.04553995150081
 20
239.94368873142039
 30
0.0
 11
545.04553995150081
 21
239.94368873142039
 31
0.0
  0
LINE
  5
DF7E
  8
0
 10
476.04553995150081
 20
234.94368873142039
 30
0.0
 11
549.04553995150081
 21
234.94368873142039
 31
0.0
  0
LINE
  5
DF85
  8
0
 10
535.0455399515007
 20
175.8641649448638
 30
0.0
 11
535.0455399515007
 21
169.74368873142041
 31
0.0
  0
LINE
  5
DF86
  8
0
 10
532.04553995150081
 20
169.74368873142041
 30
0.0
 11
535.0455399515007
 21
169.74368873142041
 31
0.0
  0
LINE
  5
DF87
  8
0
 10
490.04553995150081
 20
169.74368873142041
 30
0.0
 11
493.0455399515007
 21
169.74368873142041
 31
0.0
  0
LINE
  5
DF88
  8
0
 10
490.04553995150081
 20
169.74368873142041
 30
0.0
 11
490.04553995150081
 21
175.8641649448638
 31
0.0
  0
POLYLINE
  5
DF89
  8
0
 66
     1
 10
0.0
 20
0.0
 30
0.0
  0
VERTEX
  5
143BF
  8
0
 10
493.0455399515007
 20
176.5756565437234
 30
0.0
  0
VERTEX
  5
143C0
  8
0
 10
492.47996729404713
 20
177.07405421439231
 30
0.0
  0
VERTEX
  5
143C1
  8
0
 10
491.38488577156562
 20
178.11284143947481
 30
0.0
  0
VERTEX
  5
143C2
  8
0
 10
490.34004394779862
 20
179.20554883153031
 30
0.0
  0
VERTEX
  5
143C3
  8
0
 10
489.83724295378801
 20
179.77131670266951
 30
0.0
  0
VERTEX
  5
143C4
  8
0
 10
489.34792248983729
 20
180.34958208086991
 30
0.0
  0
VERTEX
  5
143C5
  8
0
 10
488.41087689589529
 20
181.54222501977611
 30
0.0
  0
VERTEX
  5
143C6
  8
0
 10
487.53113190287922
 20
182.78064607123741
 30
0.0
  0
VERTEX
  5
143C7
  8
0
 10
486.71077620441019
 20
184.06190497168831
 30
0.0
  0
VERTEX
  5
143C8
  8
0
 10
485.95175749183949
 20
185.38295975179321
 30
0.0
  0
VERTEX
  5
143C9
  8
0
 10
485.2558778300322
 20
186.74067395870071
 30
0.0
  0
VERTEX
  5
143CA
  8
0
 10
484.93213740853253
 20
187.43227419859221
 30
0.0
  0
VERTEX
  5
143CB
  8
0
 10
484.62478937890131
 20
188.1318241026211
 30
0.0
  0
VERTEX
  5
143CC
  8
0
 10
484.059990470841
 20
189.55310731004661
 30
0.0
  0
VERTEX
  5
143CD
  8
0
 10
483.56282205338221
 20
191.0011491654453
 30
0.0
  0
VERTEX
  5
143CE
  8
0
 10
483.1344645055101
 20
192.4725117228102
 30
0.0
  0
VERTEX
  5
143CF
  8
0
 10
482.77593483520383
 20
193.96370166804269
 30
0.0
  0
VERTEX
  5
143D0
  8
0
 10
482.4880842648526
 20
195.47117861279111
 30
0.0
  0
VERTEX
  5
143D1
  8
0
 10
482.37088381165847
 20
196.22990753335279
 30
0.0
  0
VERTEX
  5
143D2
  8
0
 10
482.2715962102825
 20
196.9913635000527
 30
0.0
  0
VERTEX
  5
143D3
  8
0
 10
482.12698465818352
 20
198.52064710158351
 30
0.0
  0
VERTEX
  5
143D4
  8
0
 10
482.05459294580669
 20
200.05539858694041
 30
0.0
  0
VERTEX
  5
143D5
  8
0
 10
482.04553995150081
 20
200.82368636537601
 30
0.0
  0
SEQEND
  5
143D6
  8
0
  0
POLYLINE
  5
DF8A
  8
0
 66
     1
 10
0.0
 20
0.0
 30
0.0
  0
VERTEX
  5
143D7
  8
0
 10
482.04553995150081
 20
200.82368636537601
 30
0.0
  0
VERTEX
  5
143D8
  8
0
 10
482.04876587772418
 20
201.2823304132441
 30
0.0
  0
VERTEX
  5
143D9
  8
0
 10
482.07456919325421
 20
202.19923045032681
 30
0.0
  0
VERTEX
  5
143DA
  8
0
 10
482.12615399213342
 20
203.11496663978531
 30
0.0
  0
VERTEX
  5
143DB
  8
0
 10
482.16160165970263
 20
203.57215610893101
 30
0.0
  0
VERTEX
  5
143DC
  8
0
 10
482.20347662847178
 20
204.0287641773804
 30
0.0
  0
VERTEX
  5
143DD
  8
0
 10
482.30647167959978
 20
204.93984989916561
 30
0.0
  0
VERTEX
  5
143DE
  8
0
 10
482.4350520014209
 20
205.84745293566161
 30
0.0
  0
VERTEX
  5
143DF
  8
0
 10
482.5891088021466
 20
206.75080536408839
 30
0.0
  0
VERTEX
  5
143E0
  8
0
 10
482.76851173434301
 20
207.64914285810491
 30
0.0
  0
VERTEX
  5
143E1
  8
0
 10
482.97310900521819
 20
208.54170533450491
 30
0.0
  0
VERTEX
  5
143E2
  8
0
 10
483.08480224968429
 20
208.98558473367601
 30
0.0
  0
VERTEX
  5
143E3
  8
0
 10
483.20272750505541
 20
209.42773759632399
 30
0.0
  0
VERTEX
  5
143E4
  8
0
 10
483.45717295367962
 20
210.306489971811
 30
0.0
  0
VERTEX
  5
143E5
  8
0
 10
483.73623006483871
 20
211.17721894872571
 30
0.0
  0
VERTEX
  5
143E6
  8
0
 10
484.03966272835657
 20
212.0391878034238
 30
0.0
  0
VERTEX
  5
143E7
  8
0
 10
484.36721420990671
 20
212.8916672241989
 30
0.0
  0
VERTEX
  5
143E8
  8
0
 10
484.71860736823368
 20
213.73393592835339
 30
0.0
  0
VERTEX
  5
143E9
  8
0
 10
484.90315244688281
 20
214.15101820661999
 30
0.0
  0
VERTEX
  5
143EA
  8
0
 10
485.09354488964527
 20
214.5652812724752
 30
0.0
  0
VERTEX
  5
143EB
  8
0
 10
485.49170953956491
 20
215.38499985540511
 30
0.0
  0
VERTEX
  5
143EC
  8
0
 10
485.9127644309487
 20
216.19239811338511
 30
0.0
  0
VERTEX
  5
143ED
  8
0
 10
486.1317651360755
 20
216.59126321635111
 30
0.0
  0
VERTEX
  5
143EE
  8
0
 10
486.356353309322
 20
216.98679290688159
 30
0.0
  0
VERTEX
  5
143EF
  8
0
 10
486.82210085420769
 20
217.76751209859069
 30
0.0
  0
VERTEX
  5
143F0
  8
0
 10
487.30961299668479
 20
218.53389512213249
 30
0.0
  0
VERTEX
  5
143F1
  8
0
 10
487.56140260068639
 20
218.91150744552311
 30
0.0
  0
VERTEX
  5
143F2
  8
0
 10
487.81847725280932
 20
219.2852935409567
 30
0.0
  0
VERTEX
  5
143F3
  8
0
 10
488.34826307261801
 20
220.0210715969848
 30
0.0
  0
VERTEX
  5
143F4
  8
0
 10
488.89852220441611
 20
220.7406067485245
 30
0.0
  0
VERTEX
  5
143F5
  8
0
 10
489.46878907404238
 20
221.4432901970024
 30
0.0
  0
VERTEX
  5
143F6
  8
0
 10
490.05858117879188
 20
222.12852740206819
 30
0.0
  0
VERTEX
  5
143F7
  8
0
 10
490.66739949566221
 20
222.79573858463539
 30
0.0
  0
VERTEX
  5
143F8
  8
0
 10
490.97878312531111
 20
223.12240739378501
 30
0.0
  0
VERTEX
  5
143F9
  8
0
 10
491.29472890357601
 20
223.44435921743221
 30
0.0
  0
VERTEX
  5
143FA
  8
0
 10
491.94003861922329
 20
224.0738405026477
 30
0.0
  0
VERTEX
  5
143FB
  8
0
 10
492.60278264615988
 20
224.68364983627001
 30
0.0
  0
VERTEX
  5
143FC
  8
0
 10
493.28240023677461
 20
225.27327125872219
 30
0.0
  0
VERTEX
  5
143FD
  8
0
 10
493.97831636673482
 20
225.8422058914156
 30
0.0
  0
VERTEX
  5
143FE
  8
0
 10
494.68994222151781
 20
226.3899723588512
 30
0.0
  0
VERTEX
  5
143FF
  8
0
 10
495.05145864279388
 20
226.65577198729599
 30
0.0
  0
VERTEX
  5
14400
  8
0
 10
495.41667569460418
 20
226.9161071959108
 30
0.0
  0
VERTEX
  5
14401
  8
0
 10
496.15790189692279
 20
227.4201652399953
 30
0.0
  0
VERTEX
  5
14402
  8
0
 10
496.91299367710502
 20
227.90172000767649
 30
0.0
  0
VERTEX
  5
14403
  8
0
 10
497.68131215211997
 20
228.36036405554449
 30
0.0
  0
VERTEX
  5
14404
  8
0
 10
498.46220724783228
 20
228.7957093249461
 30
0.0
  0
VERTEX
  5
14405
  8
0
 10
499.25501824902989
 20
229.2073874703201
 30
0.0
  0
VERTEX
  5
14406
  8
0
 10
499.65568296840951
 20
229.404241730851
 30
0.0
  0
VERTEX
  5
14407
  8
0
 10
500.05907435845478
 20
229.59505017085559
 30
0.0
  0
VERTEX
  5
14408
  8
0
 10
500.87369526436578
 20
229.95836942520529
 30
0.0
  0
VERTEX
  5
14409
  8
0
 10
501.69819171614688
 20
230.29703782900779
 30
0.0
  0
VERTEX
  5
1440A
  8
0
 10
502.53186610748702
 20
230.61076883498239
 30
0.0
  0
VERTEX
  5
1440B
  8
0
 10
503.37401306662048
 20
230.89929699537649
 30
0.0
  0
VERTEX
  5
1440C
  8
0
 10
504.2239200531435
 20
231.162378186561
 30
0.0
  0
VERTEX
  5
1440D
  8
0
 10
504.65155907587399
 20
231.2843057620849
 30
0.0
  0
VERTEX
  5
1440E
  8
0
 10
505.08086796089401
 20
231.3997898155834
 30
0.0
  0
VERTEX
  5
1440F
  8
0
 10
505.94413172638849
 20
231.6113310085033
 30
0.0
  0
VERTEX
  5
14410
  8
0
 10
506.8129809422976
 20
231.79682278035219
 30
0.0
  0
VERTEX
  5
14411
  8
0
 10
507.68668047544128
 20
231.95610818657229
 30
0.0
  0
VERTEX
  5
14412
  8
0
 10
508.564491088789
 20
232.08905245580769
 30
0.0
  0
VERTEX
  5
14413
  8
0
 10
509.44567006692517
 20
232.19554310393411
 30
0.0
  0
VERTEX
  5
14414
  8
0
 10
509.88728979769712
 20
232.23883928676699
 30
0.0
  0
VERTEX
  5
14415
  8
0
 10
510.3294718444613
 20
232.27549002923161
 30
0.0
  0
VERTEX
  5
14416
  8
0
 10
511.21514863685792
 20
232.32882558861979
 30
0.0
  0
VERTEX
  5
14417
  8
0
 10
512.10195107312745
 20
232.35550465489069
 30
0.0
  0
VERTEX
  5
14418
  8
0
 10
512.54553995150081
 20
232.3588400673261
 30
0.0
  0
VERTEX
  5
14419
  8
0
 10
512.98912882987406
 20
232.35550465489069
 30
0.0
  0
VERTEX
  5
1441A
  8
0
 10
513.87593126614365
 20
232.32882558861979
 30
0.0
  0
VERTEX
  5
1441B
  8
0
 10
514.76160805854033
 20
232.27549002923161
 30
0.0
  0
VERTEX
  5
1441C
  8
0
 10
515.20379010530451
 20
232.23883928676699
 30
0.0
  0
VERTEX
  5
1441D
  8
0
 10
515.6454098360764
 20
232.19554310393411
 30
0.0
  0
VERTEX
  5
1441E
  8
0
 10
516.52658881421246
 20
232.08905245580769
 30
0.0
  0
VERTEX
  5
1441F
  8
0
 10
517.40439942756029
 20
231.95610818657229
 30
0.0
  0
VERTEX
  5
14420
  8
0
 10
518.27809896070403
 20
231.79682278035219
 30
0.0
  0
VERTEX
  5
14421
  8
0
 10
519.14694817661302
 20
231.6113310085033
 30
0.0
  0
VERTEX
  5
14422
  8
0
 10
520.0102119421075
 20
231.3997898155834
 30
0.0
  0
VERTEX
  5
14423
  8
0
 10
520.43952082712747
 20
231.2843057620849
 30
0.0
  0
VERTEX
  5
14424
  8
0
 10
520.86715984985847
 20
231.162378186561
 30
0.0
  0
VERTEX
  5
14425
  8
0
 10
521.71706683638104
 20
230.89929699537649
 30
0.0
  0
VERTEX
  5
14426
  8
0
 10
522.55921379551455
 20
230.61076883498239
 30
0.0
  0
VERTEX
  5
14427
  8
0
 10
523.39288818685463
 20
230.29703782900779
 30
0.0
  0
VERTEX
  5
14428
  8
0
 10
524.21738463863585
 20
229.95836942520529
 30
0.0
  0
VERTEX
  5
14429
  8
0
 10
525.03200554454679
 20
229.59505017085559
 30
0.0
  0
VERTEX
  5
1442A
  8
0
 10
525.43539693459195
 20
229.404241730851
 30
0.0
  0
VERTEX
  5
1442B
  8
0
 10
525.83606165397157
 20
229.2073874703201
 30
0.0
  0
VERTEX
  5
1442C
  8
0
 10
526.62887265516918
 20
228.7957093249461
 30
0.0
  0
VERTEX
  5
1442D
  8
0
 10
527.40976775088166
 20
228.36036405554449
 30
0.0
  0
VERTEX
  5
1442E
  8
0
 10
528.17808622589655
 20
227.90172000767649
 30
0.0
  0
VERTEX
  5
1442F
  8
0
 10
528.93317800607883
 20
227.4201652399953
 30
0.0
  0
VERTEX
  5
14430
  8
0
 10
529.67440420839728
 20
226.9161071959108
 30
0.0
  0
VERTEX
  5
14431
  8
0
 10
530.0396212602077
 20
226.65577198729599
 30
0.0
  0
VERTEX
  5
14432
  8
0
 10
530.40113768148376
 20
226.3899723588512
 30
0.0
  0
VERTEX
  5
14433
  8
0
 10
531.11276353626681
 20
225.8422058914156
 30
0.0
  0
VERTEX
  5
14434
  8
0
 10
531.80867966622691
 20
225.27327125872219
 30
0.0
  0
VERTEX
  5
14435
  8
0
 10
532.48829725684163
 20
224.68364983627001
 30
0.0
  0
VERTEX
  5
14436
  8
0
 10
533.15104128377834
 20
224.0738405026477
 30
0.0
  0
VERTEX
  5
14437
  8
0
 10
533.7963509994255
 20
223.44435921743221
 30
0.0
  0
VERTEX
  5
14438
  8
0
 10
534.11229677769052
 20
223.12240739378501
 30
0.0
  0
VERTEX
  5
14439
  8
0
 10
534.42368040733936
 20
222.7957385846355
 30
0.0
  0
VERTEX
  5
1443A
  8
0
 10
535.03249872420974
 20
222.12852740206819
 30
0.0
  0
VERTEX
  5
1443B
  8
0
 10
535.62229082895908
 20
221.4432901970024
 30
0.0
  0
VERTEX
  5
1443C
  8
0
 10
536.19255769858535
 20
220.7406067485245
 30
0.0
  0
VERTEX
  5
1443D
  8
0
 10
536.74281683038362
 20
220.0210715969848
 30
0.0
  0
VERTEX
  5
1443E
  8
0
 10
537.27260265019231
 20
219.2852935409567
 30
0.0
  0
VERTEX
  5
1443F
  8
0
 10
537.52967730231501
 20
218.91150744552311
 30
0.0
  0
VERTEX
  5
14440
  8
0
 10
537.78146690631684
 20
218.53389512213249
 30
0.0
  0
VERTEX
  5
14441
  8
0
 10
538.26897904879388
 20
217.76751209859069
 30
0.0
  0
VERTEX
  5
14442
  8
0
 10
538.73472659367962
 20
216.98679290688159
 30
0.0
  0
VERTEX
  5
14443
  8
0
 10
538.95931476692613
 20
216.59126321635111
 30
0.0
  0
VERTEX
  5
14444
  8
0
 10
539.17831547205287
 20
216.19239811338511
 30
0.0
  0
VERTEX
  5
14445
  8
0
 10
539.59937036343672
 20
215.3849998554052
 30
0.0
  0
VERTEX
  5
14446
  8
0
 10
539.99753501335636
 20
214.5652812724752
 30
0.0
  0
VERTEX
  5
14447
  8
0
 10
540.18792745611881
 20
214.15101820661999
 30
0.0
  0
VERTEX
  5
14448
  8
0
 10
540.37247253476789
 20
213.73393592835339
 30
0.0
  0
VERTEX
  5
14449
  8
0
 10
540.72386569309492
 20
212.8916672241989
 30
0.0
  0
VERTEX
  5
1444A
  8
0
 10
541.05141717464494
 20
212.0391878034238
 30
0.0
  0
VERTEX
  5
1444B
  8
0
 10
541.35484983816275
 20
211.17721894872571
 30
0.0
  0
VERTEX
  5
1444C
  8
0
 10
541.63390694932195
 20
210.306489971811
 30
0.0
  0
VERTEX
  5
1444D
  8
0
 10
541.88835239794605
 20
209.42773759632399
 30
0.0
  0
VERTEX
  5
1444E
  8
0
 10
542.00627765331717
 20
208.98558473367601
 30
0.0
  0
VERTEX
  5
1444F
  8
0
 10
542.11797089778338
 20
208.54170533450491
 30
0.0
  0
VERTEX
  5
14450
  8
0
 10
542.32256816865845
 20
207.64914285810491
 30
0.0
  0
VERTEX
  5
14451
  8
0
 10
542.50197110085492
 20
206.75080536408839
 30
0.0
  0
VERTEX
  5
14452
  8
0
 10
542.65602790158073
 20
205.84745293566161
 30
0.0
  0
VERTEX
  5
14453
  8
0
 10
542.78460822340185
 20
204.93984989916561
 30
0.0
  0
VERTEX
  5
14454
  8
0
 10
542.88760327452974
 20
204.0287641773804
 30
0.0
  0
VERTEX
  5
14455
  8
0
 10
542.92947824329895
 20
203.5721561089311
 30
0.0
  0
VERTEX
  5
14456
  8
0
 10
542.96492591086815
 20
203.11496663978531
 30
0.0
  0
VERTEX
  5
14457
  8
0
 10
543.01651070974719
 20
202.19923045032681
 30
0.0
  0
VERTEX
  5
14458
  8
0
 10
543.04231402527739
 20
201.2823304132441
 30
0.0
  0
VERTEX
  5
14459
  8
0
 10
543.0455399515007
 20
200.82368636537601
 30
0.0
  0
SEQEND
  5
1445A
  8
0
  0
POLYLINE
  5
DF8B
  8
0
 66
     1
 10
0.0
 20
0.0
 30
0.0
  0
VERTEX
  5
1445B
  8
0
 10
543.0455399515007
 20
200.82368636537601
 30
0.0
  0
VERTEX
  5
1445C
  8
0
 10
543.03648695719494
 20
200.05539858694041
 30
0.0
  0
VERTEX
  5
1445D
  8
0
 10
542.96409524481805
 20
198.52064710158351
 30
0.0
  0
VERTEX
  5
1445E
  8
0
 10
542.81948369271913
 20
196.9913635000527
 30
0.0
  0
VERTEX
  5
1445F
  8
0
 10
542.72019609134304
 20
196.22990753335279
 30
0.0
  0
VERTEX
  5
14460
  8
0
 10
542.60299563814897
 20
195.47117861279111
 30
0.0
  0
VERTEX
  5
14461
  8
0
 10
542.31514506779774
 20
193.96370166804269
 30
0.0
  0
VERTEX
  5
14462
  8
0
 10
541.95661539749153
 20
192.4725117228102
 30
0.0
  0
VERTEX
  5
14463
  8
0
 10
541.52825784961942
 20
191.0011491654453
 30
0.0
  0
VERTEX
  5
14464
  8
0
 10
541.03108943216057
 20
189.55310731004661
 30
0.0
  0
VERTEX
  5
14465
  8
0
 10
540.46629052410026
 20
188.1318241026211
 30
0.0
  0
VERTEX
  5
14466
  8
0
 10
540.1589424944691
 20
187.43227419859221
 30
0.0
  0
VERTEX
  5
14467
  8
0
 10
539.83520207296942
 20
186.74067395870071
 30
0.0
  0
VERTEX
  5
14468
  8
0
 10
539.13932241116197
 20
185.38295975179321
 30
0.0
  0
VERTEX
  5
14469
  8
0
 10
538.38030369859143
 20
184.06190497168831
 30
0.0
  0
VERTEX
  5
1446A
  8
0
 10
537.55994800012229
 20
182.78064607123741
 30
0.0
  0
VERTEX
  5
1446B
  8
0
 10
536.68020300710623
 20
181.5422250197762
 30
0.0
  0
VERTEX
  5
1446C
  8
0
 10
535.74315741316423
 20
180.34958208086991
 30
0.0
  0
VERTEX
  5
1446D
  8
0
 10
535.25383694921345
 20
179.77131670266951
 30
0.0
  0
VERTEX
  5
1446E
  8
0
 10
534.75103595520295
 20
179.20554883153031
 30
0.0
  0
VERTEX
  5
1446F
  8
0
 10
533.70619413143595
 20
178.11284143947481
 30
0.0
  0
VERTEX
  5
14470
  8
0
 10
532.6111126089545
 20
177.07405421439231
 30
0.0
  0
VERTEX
  5
14471
  8
0
 10
532.04553995150081
 20
176.5756565437234
 30
0.0
  0
SEQEND
  5
14472
  8
0
  0
POLYLINE
  5
DF8D
  8
0
 66
     1
 10
0.0
 20
0.0
 30
0.0
  0
VERTEX
  5
14473
  8
0
 10
490.04553995150081
 20
175.8641649448638
 30
0.0
  0
VERTEX
  5
14474
  8
0
 10
489.50120199668248
 20
176.40085238950769
 30
0.0
  0
VERTEX
  5
14475
  8
0
 10
488.44871740958519
 20
177.51200502956269
 30
0.0
  0
VERTEX
  5
14476
  8
0
 10
487.44629973434121
 20
178.6715932628403
 30
0.0
  0
VERTEX
  5
14477
  8
0
 10
486.96452103529413
 20
179.26880160946649
 30
0.0
  0
VERTEX
  5
14478
  8
0
 10
486.49603173341018
 20
179.87720776745729
 30
0.0
  0
VERTEX
  5
14479
  8
0
 10
485.59988781583161
 20
181.12634359094429
 30
0.0
  0
VERTEX
  5
1447A
  8
0
 10
484.75972993491678
 20
182.4164053548833
 30
0.0
  0
VERTEX
  5
1447B
  8
0
 10
483.97730371959602
 20
183.74471264742721
 30
0.0
  0
VERTEX
  5
1447C
  8
0
 10
483.25423484745761
 20
185.10850559249619
 30
0.0
  0
VERTEX
  5
1447D
  8
0
 10
482.59202566701367
 20
186.5049505840808
 30
0.0
  0
VERTEX
  5
1447E
  8
0
 10
482.2841784487527
 20
187.2145133808408
 30
0.0
  0
VERTEX
  5
1447F
  8
0
 10
481.99205207621111
 20
187.9311461737357
 30
0.0
  0
VERTEX
  5
14480
  8
0
 10
481.45556066367539
 20
189.38412909903269
 30
0.0
  0
VERTEX
  5
14481
  8
0
 10
480.98366611862372
 20
190.8608804404476
 30
0.0
  0
VERTEX
  5
14482
  8
0
 10
480.57734891483233
 20
192.35833189388731
 30
0.0
  0
VERTEX
  5
14483
  8
0
 10
480.237453273467
 20
193.87337214582479
 30
0.0
  0
VERTEX
  5
14484
  8
0
 10
479.96468540901282
 20
195.4028533377984
 30
0.0
  0
VERTEX
  5
14485
  8
0
 10
479.85365698192021
 20
196.17201719599339
 30
0.0
  0
VERTEX
  5
14486
  8
0
 10
479.7596120619441
 20
196.94359760683901
 30
0.0
  0
VERTEX
  5
14487
  8
0
 10
479.62265932118402
 20
198.49240368824181
 30
0.0
  0
VERTEX
  5
14488
  8
0
 10
479.55411173880611
 20
200.04605356695859
 30
0.0
  0
VERTEX
  5
14489
  8
0
 10
479.54553995150081
 20
200.82368636537601
 30
0.0
  0
SEQEND
  5
1448A
  8
0
  0
POLYLINE
  5
DF8E
  8
0
 66
     1
 10
0.0
 20
0.0
 30
0.0
  0
VERTEX
  5
1448B
  8
0
 10
479.54553995150081
 20
200.82368636537601
 30
0.0
  0
VERTEX
  5
1448C
  8
0
 10
479.57694863929601
 20
202.3119799654059
 30
0.0
  0
VERTEX
  5
1448D
  8
0
 10
479.82785952613438
 20
205.27724035251441
 30
0.0
  0
VERTEX
  5
1448E
  8
0
 10
480.3277717164583
 20
208.20860650465491
 30
0.0
  0
VERTEX
  5
1448F
  8
0
 10
480.66998768384008
 20
209.6545927961825
 30
0.0
  0
VERTEX
  5
14490
  8
0
 10
481.07288057664482
 20
211.08376895540499
 30
0.0
  0
VERTEX
  5
14491
  8
0
 10
482.0575153783588
 20
213.8808459824462
 30
0.0
  0
VERTEX
  5
14492
  8
0
 10
483.27418245622221
 20
216.5785501406838
 30
0.0
  0
VERTEX
  5
14493
  8
0
 10
484.08744764674111
 20
218.0981194029456
 30
0.0
  0
VERTEX
  5
14494
  8
0
 10
484.33344821878597
 20
218.52423116038909
 30
0.0
  0
VERTEX
  5
14495
  8
0
 10
484.58541666797998
 20
218.9465986128088
 30
0.0
  0
VERTEX
  5
14496
  8
0
 10
484.71362223912911
 20
219.15635027255749
 30
0.0
  0
VERTEX
  5
14497
  8
0
 10
484.84329969388858
 20
219.3651324142217
 30
0.0
  0
VERTEX
  5
14498
  8
0
 10
485.10704274492991
 20
219.77974402960069
 30
0.0
  0
VERTEX
  5
14499
  8
0
 10
485.3765900299158
 20
220.19034575360249
 30
0.0
  0
VERTEX
  5
1449A
  8
0
 10
485.65188452985279
 20
220.59685072912089
 30
0.0
  0
VERTEX
  5
1449B
  8
0
 10
485.93286801000289
 20
220.99917296566039
 30
0.0
  0
VERTEX
  5
1449C
  8
0
 10
486.21948103220433
 20
221.39722735752559
 30
0.0
  0
VERTEX
  5
1449D
  8
0
 10
486.36487972117578
 20
221.5946277625475
 30
0.0
  0
VERTEX
  5
1449E
  8
0
 10
486.51166296744208
 20
221.79092970182461
 30
0.0
  0
VERTEX
  5
1449F
  8
0
 10
486.8093520086768
 20
222.18019671628099
 30
0.0
  0
VERTEX
  5
144A0
  8
0
 10
487.11248518391528
 20
222.5649460568508
 30
0.0
  0
VERTEX
  5
144A1
  8
0
 10
487.42099836953412
 20
222.9450963351415
 30
0.0
  0
VERTEX
  5
144A2
  8
0
 10
487.73482630384342
 20
223.32056713562829
 30
0.0
  0
VERTEX
  5
144A3
  8
0
 10
488.05390260089138
 20
223.69127903266539
 30
0.0
  0
VERTEX
  5
144A4
  8
0
 10
488.21538783586811
 20
223.87482584668479
 30
0.0
  0
VERTEX
  5
144A5
  8
0
 10
488.37815976450793
 20
224.05715360728669
 30
0.0
  0
VERTEX
  5
144A6
  8
0
 10
488.7075292025819
 20
224.41811346379501
 30
0.0
  0
VERTEX
  5
144A7
  8
0
 10
489.04194124157311
 20
224.7740822461335
 30
0.0
  0
VERTEX
  5
144A8
  8
0
 10
489.211016171349
 20
224.9501714114775
 30
0.0
  0
VERTEX
  5
144A9
  8
0
 10
489.38132514124618
 20
225.12498465403789
 30
0.0
  0
VERTEX
  5
144AA
  8
0
 10
489.72560910964052
 20
225.47074645896521
 30
0.0
  0
VERTEX
  5
144AB
  8
0
 10
490.07472031825131
 20
225.81129451979601
 30
0.0
  0
VERTEX
  5
144AC
  8
0
 10
490.25106309908819
 20
225.97959084073
 30
0.0
  0
VERTEX
  5
144AD
  8
0
 10
490.42858491743931
 20
226.14655679830599
 30
0.0
  0
VERTEX
  5
144AE
  8
0
 10
490.78712805205168
 20
226.476462374405
 30
0.0
  0
VERTEX
  5
144AF
  8
0
 10
491.15027387725462
 20
226.80094146113899
 30
0.0
  0
VERTEX
  5
144B0
  8
0
 10
491.51794557458061
 20
227.1199254194525
 30
0.0
  0
VERTEX
  5
144B1
  8
0
 10
491.89006536817618
 20
227.43334677270849
 30
0.0
  0
VERTEX
  5
144B2
  8
0
 10
492.2665545412533
 20
227.74113922096191
 30
0.0
  0
VERTEX
  5
144B3
  8
0
 10
492.4564127929097
 20
227.892904212188
 30
0.0
  0
VERTEX
  5
144B4
  8
0
 10
492.64733345274448
 20
228.04323765498449
 30
0.0
  0
VERTEX
  5
144B5
  8
0
 10
493.03232155414611
 20
228.33957817003781
 30
0.0
  0
VERTEX
  5
144B6
  8
0
 10
493.4214374065586
 20
228.6300980793917
 30
0.0
  0
VERTEX
  5
144B7
  8
0
 10
493.81459869791468
 20
228.9147359275841
 30
0.0
  0
VERTEX
  5
144B8
  8
0
 10
494.21172226039022
 20
229.19343150342169
 30
0.0
  0
VERTEX
  5
144B9
  8
0
 10
494.61272408799732
 20
229.46612585271649
 30
0.0
  0
VERTEX
  5
144BA
  8
0
 10
494.81465287453779
 20
229.60020449101361
 30
0.0
  0
VERTEX
  5
144BB
  8
0
 10
495.01751935435459
 20
229.732761290757
 30
0.0
  0
VERTEX
  5
144BC
  8
0
 10
495.42602243063169
 20
229.99328141451019
 30
0.0
  0
VERTEX
  5
144BD
  8
0
 10
495.83814690366262
 20
230.2476311145532
 30
0.0
  0
VERTEX
  5
144BE
  8
0
 10
496.2538055942245
 20
230.49575658673101
 30
0.0
  0
VERTEX
  5
144BF
  8
0
 10
496.67291057548073
 20
230.7376053435373
 30
0.0
  0
VERTEX
  5
144C0
  8
0
 10
497.09537319157738
 20
230.97312622521841
 30
0.0
  0
VERTEX
  5
144C1
  8
0
 10
497.30783571300981
 20
231.08849809119019
 30
0.0
  0
VERTEX
  5
144C2
  8
0
 10
497.52110407640242
 20
231.2022694105946
 30
0.0
  0
VERTEX
  5
144C3
  8
0
 10
497.95001317248438
 20
231.42498642759969
 30
0.0
  0
VERTEX
  5
144C4
  8
0
 10
498.38200975004702
 20
231.6412301635344
 30
0.0
  0
VERTEX
  5
144C5
  8
0
 10
498.81700242619809
 20
231.8509548750321
 30
0.0
  0
VERTEX
  5
144C6
  8
0
 10
499.2548991842645
 20
232.05411619773579
 30
0.0
  0
VERTEX
  5
144C7
  8
0
 10
499.69560739325379
 20
232.2506711556822
 30
0.0
  0
VERTEX
  5
144C8
  8
0
 10
499.91698668150133
 20
232.34645819976529
 30
0.0
  0
VERTEX
  5
144C9
  8
0
 10
500.13903382744962
 20
232.4405781703932
 30
0.0
  0
VERTEX
  5
144CA
  8
0
 10
500.58508468613348
 20
232.6237970696709
 30
0.0
  0
VERTEX
  5
144CB
  8
0
 10
501.03366561342551
 20
232.80028909609521
 30
0.0
  0
VERTEX
  5
144CC
  8
0
 10
501.48468171824561
 20
232.9700169152234
 30
0.0
  0
VERTEX
  5
144CD
  8
0
 10
501.93803759438521
 20
233.13294462348671
 30
0.0
  0
VERTEX
  5
144CE
  8
0
 10
502.39363734068951
 20
233.28903775578561
 30
0.0
  0
VERTEX
  5
144CF
  8
0
 10
502.62224856569571
 20
233.3645109807367
 30
0.0
  0
VERTEX
  5
144D0
  8
0
 10
502.85138458134401
 20
233.43826329278059
 30
0.0
  0
VERTEX
  5
144D1
  8
0
 10
503.31118248626211
 20
233.58058966787669
 30
0.0
  0
VERTEX
  5
144D2
  8
0
 10
503.77293379156708
 20
233.71598677390111
 30
0.0
  0
VERTEX
  5
144D3
  8
0
 10
504.00451146085049
 20
233.78107784315429
 30
0.0
  0
VERTEX
  5
144D4
  8
0
 10
504.23654082016759
 20
233.8444259694719
 30
0.0
  0
VERTEX
  5
144D5
  8
0
 10
504.70190550241921
 20
233.96588008505651
 30
0.0
  0
VERTEX
  5
144D6
  8
0
 10
505.16892939687108
 20
234.08032342871959
 30
0.0
  0
VERTEX
  5
144D7
  8
0
 10
505.40303268917569
 20
234.1349084377251
 30
0.0
  0
VERTEX
  5
144D8
  8
0
 10
505.6375137110885
 20
234.18773179155741
 30
0.0
  0
VERTEX
  5
144D9
  8
0
 10
506.10755932255142
 20
234.2880824528186
 30
0.0
  0
VERTEX
  5
144DA
  8
0
 10
506.57896679962317
 20
234.38135418471131
 30
0.0
  0
VERTEX
  5
144DB
  8
0
 10
507.05163642258321
 20
234.46752725689271
 30
0.0
  0
VERTEX
  5
144DC
  8
0
 10
507.5254682047202
 20
234.54658344064319
 30
0.0
  0
VERTEX
  5
144DD
  8
0
 10
508.00036191348681
 20
234.61850601272261
 30
0.0
  0
VERTEX
  5
144DE
  8
0
 10
508.2381756056792
 20
234.65178738090449
 30
0.0
  0
VERTEX
  5
144DF
  8
0
 10
508.47621709169692
 20
234.6832797589071
 30
0.0
  0
VERTEX
  5
144E0
  8
0
 10
508.9529330787804
 20
234.7408909772079
 30
0.0
  0
VERTEX
  5
144E1
  8
0
 10
509.4304090320756
 20
234.79132748077021
 30
0.0
  0
VERTEX
  5
144E2
  8
0
 10
509.90854394815858
 20
234.83457860045041
 30
0.0
  0
VERTEX
  5
144E3
  8
0
 10
510.38723668421289
 20
234.87063518707319
 30
0.0
  0
VERTEX
  5
144E4
  8
0
 10
510.86638597942141
 20
234.89948961336719
 30
0.0
  0
VERTEX
  5
144E5
  8
0
 10
511.10610016570888
 20
234.91121404941791
 30
0.0
  0
VERTEX
  5
144E6
  8
0
 10
511.34589047638917
 20
234.92113577557851
 30
0.0
  0
VERTEX
  5
144E7
  8
0
 10
511.82564874258378
 20
234.93556909476121
 30
0.0
  0
VERTEX
  5
144E8
  8
0
 10
512.30555929178945
 20
234.94278651774661
 30
0.0
  0
VERTEX
  5
144E9
  8
0
 10
512.54553994868411
 20
234.94368873142039
 30
0.0
  0
SEQEND
  5
144EA
  8
0
  0
POLYLINE
  5
DF8F
  8
0
 66
     1
 10
0.0
 20
0.0
 30
0.0
  0
VERTEX
  5
144EB
  8
0
 10
512.54553995150081
 20
234.94368873142039
 30
0.0
  0
VERTEX
  5
144EC
  8
0
 10
512.78552060840855
 20
234.9427865177677
 30
0.0
  0
VERTEX
  5
144ED
  8
0
 10
513.26543115764105
 20
234.9355690948239
 30
0.0
  0
VERTEX
  5
144EE
  8
0
 10
513.74518942386294
 20
234.9211357756819
 30
0.0
  0
VERTEX
  5
144EF
  8
0
 10
513.98497973455687
 20
234.91121404954151
 30
0.0
  0
VERTEX
  5
144F0
  8
0
 10
514.22469392085839
 20
234.89948961351061
 30
0.0
  0
VERTEX
  5
144F1
  8
0
 10
514.70384321609572
 20
234.87063518725569
 30
0.0
  0
VERTEX
  5
144F2
  8
0
 10
515.18253595217857
 20
234.83457860067119
 30
0.0
  0
VERTEX
  5
144F3
  8
0
 10
515.66067086829071
 20
234.79132748102859
 30
0.0
  0
VERTEX
  5
144F4
  8
0
 10
516.13814682161546
 20
234.740890977503
 30
0.0
  0
VERTEX
  5
144F5
  8
0
 10
516.61486280872975
 20
234.68327975923791
 30
0.0
  0
VERTEX
  5
144F6
  8
0
 10
516.85290429476254
 20
234.651787381253
 30
0.0
  0
VERTEX
  5
144F7
  8
0
 10
517.0907179869705
 20
234.61850601308839
 30
0.0
  0
VERTEX
  5
144F8
  8
0
 10
517.56561169576798
 20
234.5465834410432
 30
0.0
  0
VERTEX
  5
144F9
  8
0
 10
518.03944347793731
 20
234.46752725732591
 30
0.0
  0
VERTEX
  5
144FA
  8
0
 10
518.51211310092856
 20
234.38135418517689
 30
0.0
  0
VERTEX
  5
144FB
  8
0
 10
518.98352057803322
 20
234.2880824533157
 30
0.0
  0
VERTEX
  5
144FC
  8
0
 10
519.45356618952883
 20
234.18773179208509
 30
0.0
  0
VERTEX
  5
144FD
  8
0
 10
519.68804721145796
 20
234.13490843826779
 30
0.0
  0
VERTEX
  5
144FE
  8
0
 10
519.92215050377945
 20
234.0803234292772
 30
0.0
  0
VERTEX
  5
144FF
  8
0
 10
520.38917439826434
 20
233.96588008564299
 30
0.0
  0
VERTEX
  5
14500
  8
0
 10
520.85453908054978
 20
233.84442597008629
 30
0.0
  0
VERTEX
  5
14501
  8
0
 10
521.08656843988399
 20
233.78107784378241
 30
0.0
  0
VERTEX
  5
14502
  8
0
 10
521.31814610918445
 20
233.71598677454261
 30
0.0
  0
VERTEX
  5
14503
  8
0
 10
521.77989741452336
 20
233.58058966854449
 30
0.0
  0
VERTEX
  5
14504
  8
0
 10
522.23969531947614
 20
233.43826329347371
 30
0.0
  0
VERTEX
  5
14505
  8
0
 10
522.46883133514154
 20
233.36451098144221
 30
0.0
  0
VERTEX
  5
14506
  8
0
 10
522.69744256016565
 20
233.28903775650321
 30
0.0
  0
VERTEX
  5
14507
  8
0
 10
523.15304230650497
 20
233.13294462422769
 30
0.0
  0
VERTEX
  5
14508
  8
0
 10
523.60639818267964
 20
232.970016915987
 30
0.0
  0
VERTEX
  5
14509
  8
0
 10
524.05741428753515
 20
232.80028909688059
 30
0.0
  0
VERTEX
  5
1450A
  8
0
 10
524.50599521486311
 20
232.62379707047711
 30
0.0
  0
VERTEX
  5
1450B
  8
0
 10
524.95204607358255
 20
232.4405781712195
 30
0.0
  0
VERTEX
  5
1450C
  8
0
 10
525.17409321954892
 20
232.34645820060109
 30
0.0
  0
VERTEX
  5
1450D
  8
0
 10
525.39547250781425
 20
232.2506711565274
 30
0.0
  0
VERTEX
  5
1450E
  8
0
 10
525.83618071683895
 20
232.05411619859919
 30
0.0
  0
VERTEX
  5
1450F
  8
0
 10
526.27407747494181
 20
231.85095487591269
 30
0.0
  0
VERTEX
  5
14510
  8
0
 10
526.70907015112925
 20
231.64123016443119
 30
0.0
  0
VERTEX
  5
14511
  8
0
 10
527.14106672872765
 20
231.42498642851211
 30
0.0
  0
VERTEX
  5
14512
  8
0
 10
527.56997582484598
 20
231.2022694115214
 30
0.0
  0
VERTEX
  5
14513
  8
0
 10
527.78324418825684
 20
231.0884980921239
 30
0.0
  0
VERTEX
  5
14514
  8
0
 10
527.99570670970695
 20
230.97312622615891
 30
0.0
  0
VERTEX
  5
14515
  8
0
 10
528.41816932584061
 20
230.73760534449059
 30
0.0
  0
VERTEX
  5
14516
  8
0
 10
528.83727430713259
 20
230.49575658769609
 30
0.0
  0
VERTEX
  5
14517
  8
0
 10
529.25293299773102
 20
230.2476311155294
 30
0.0
  0
VERTEX
  5
14518
  8
0
 10
529.66505747079782
 20
229.99328141549631
 30
0.0
  0
VERTEX
  5
14519
  8
0
 10
530.07356054711136
 20
229.73276129175241
 30
0.0
  0
VERTEX
  5
1451A
  8
0
 10
530.27642702694584
 20
229.60020449201329
 30
0.0
  0
VERTEX
  5
1451B
  8
0
 10
530.47835581350489
 20
229.46612585372031
 30
0.0
  0
VERTEX
  5
1451C
  8
0
 10
530.87935764114764
 20
229.19343150443291
 30
0.0
  0
VERTEX
  5
1451D
  8
0
 10
531.27648120365893
 20
228.91473592860191
 30
0.0
  0
VERTEX
  5
1451E
  8
0
 10
531.66964249505088
 20
228.63009808041519
 30
0.0
  0
VERTEX
  5
1451F
  8
0
 10
532.05875834749895
 20
228.33957817106619
 30
0.0
  0
VERTEX
  5
14520
  8
0
 10
532.44374644893605
 20
228.04323765601691
 30
0.0
  0
VERTEX
  5
14521
  8
0
 10
532.63466710878845
 20
227.8929042132221
 30
0.0
  0
VERTEX
  5
14522
  8
0
 10
532.8245253604623
 20
227.74113922199751
 30
0.0
  0
VERTEX
  5
14523
  8
0
 10
533.20101453357483
 20
227.43334677374651
 30
0.0
  0
VERTEX
  5
14524
  8
0
 10
533.57313432720503
 20
227.119925420492
 30
0.0
  0
VERTEX
  5
14525
  8
0
 10
533.94080602456552
 20
226.80094146217911
 30
0.0
  0
VERTEX
  5
14526
  8
0
 10
534.30395184980296
 20
226.4764623754451
 30
0.0
  0
VERTEX
  5
14527
  8
0
 10
534.66249498444938
 20
226.14655679934521
 30
0.0
  0
VERTEX
  5
14528
  8
0
 10
534.84001680281744
 20
225.97959084176841
 30
0.0
  0
VERTEX
  5
14529
  8
0
 10
535.01635958367115
 20
225.8112945208334
 30
0.0
  0
VERTEX
  5
1452A
  8
0
 10
535.36547079231559
 20
225.47074645999999
 30
0.0
  0
VERTEX
  5
1452B
  8
0
 10
535.70975476074307
 20
225.1249846550694
 30
0.0
  0
VERTEX
  5
1452C
  8
0
 10
535.88006373065673
 20
224.95017141250699
 30
0.0
  0
VERTEX
  5
1452D
  8
0
 10
536.04913866044944
 20
224.77408224716089
 30
0.0
  0
VERTEX
  5
1452E
  8
0
 10
536.38355069947283
 20
224.41811346481759
 30
0.0
  0
VERTEX
  5
1452F
  8
0
 10
536.71292013757909
 20
224.05715360830379
 30
0.0
  0
VERTEX
  5
14530
  8
0
 10
536.87569206623493
 20
223.87482584769879
 30
0.0
  0
VERTEX
  5
14531
  8
0
 10
537.03717730122753
 20
223.69127903367601
 30
0.0
  0
VERTEX
  5
14532
  8
0
 10
537.35625359830692
 20
223.32056713663181
 30
0.0
  0
VERTEX
  5
14533
  8
0
 10
537.6700815326476
 20
222.9450963361372
 30
0.0
  0
VERTEX
  5
14534
  8
0
 10
537.97859471829724
 20
222.56494605783789
 30
0.0
  0
VERTEX
  5
14535
  8
0
 10
538.28172789356574
 20
222.18019671725889
 30
0.0
  0
VERTEX
  5
14536
  8
0
 10
538.57941693482996
 20
221.79092970279251
 30
0.0
  0
VERTEX
  5
14537
  8
0
 10
538.72620018111127
 20
221.59462776351009
 30
0.0
  0
VERTEX
  5
14538
  8
0
 10
538.87159887009784
 20
221.39722735848289
 30
0.0
  0
VERTEX
  5
14539
  8
0
 10
539.15821189232793
 20
220.9991729666063
 30
0.0
  0
VERTEX
  5
1453A
  8
0
 10
539.43919537250622
 20
220.59685073005491
 30
0.0
  0
VERTEX
  5
1453B
  8
0
 10
539.7144898724714
 20
220.19034575452369
 30
0.0
  0
VERTEX
  5
1453C
  8
0
 10
539.98403715748464
 20
219.77974403050871
 30
0.0
  0
VERTEX
  5
1453D
  8
0
 10
540.24778020855319
 20
219.3651324151158
 30
0.0
  0
VERTEX
  5
1453E
  8
0
 10
540.37745766332591
 20
219.15635027344439
 30
0.0
  0
VERTEX
  5
1453F
  8
0
 10
540.50566323448811
 20
218.94659861368839
 30
0.0
  0
VERTEX
  5
14540
  8
0
 10
540.75763168370804
 20
218.5242311612536
 30
0.0
  0
VERTEX
  5
14541
  8
0
 10
541.00363225577837
 20
218.0981194037943
 30
0.0
  0
VERTEX
  5
14542
  8
0
 10
541.81689744638186
 20
216.5785501414731
 30
0.0
  0
VERTEX
  5
14543
  8
0
 10
543.03356452437299
 20
213.88084598311889
 30
0.0
  0
VERTEX
  5
14544
  8
0
 10
544.01819932619219
 20
211.08376895594509
 30
0.0
  0
VERTEX
  5
14545
  8
0
 10
544.42109221904002
 20
209.6545927966514
 30
0.0
  0
VERTEX
  5
14546
  8
0
 10
544.76330818645874
 20
208.2086065050498
 30
0.0
  0
VERTEX
  5
14547
  8
0
 10
545.26322037683656
 20
205.277240352755
 30
0.0
  0
VERTEX
  5
14548
  8
0
 10
545.51413126370187
 20
202.3119799654867
 30
0.0
  0
VERTEX
  5
14549
  8
0
 10
545.54553995150081
 20
200.82368636537601
 30
0.0
  0
SEQEND
  5
1454A
  8
0
  0
POLYLINE
  5
DF90
  8
0
 66
     1
 10
0.0
 20
0.0
 30
0.0
  0
VERTEX
  5
1454B
  8
0
 10
545.54553995150081
 20
200.82368636537601
 30
0.0
  0
VERTEX
  5
1454C
  8
0
 10
545.53696816419551
 20
200.04605356695851
 30
0.0
  0
VERTEX
  5
1454D
  8
0
 10
545.46842058181755
 20
198.49240368824181
 30
0.0
  0
VERTEX
  5
1454E
  8
0
 10
545.33146784105736
 20
196.94359760683901
 30
0.0
  0
VERTEX
  5
1454F
  8
0
 10
545.23742292108125
 20
196.17201719599339
 30
0.0
  0
VERTEX
  5
14550
  8
0
 10
545.12639449398876
 20
195.40285333779829
 30
0.0
  0
VERTEX
  5
14551
  8
0
 10
544.85362662953446
 20
193.87337214582479
 30
0.0
  0
VERTEX
  5
14552
  8
0
 10
544.5137309881693
 20
192.3583318938872
 30
0.0
  0
VERTEX
  5
14553
  8
0
 10
544.10741378437785
 20
190.8608804404476
 30
0.0
  0
VERTEX
  5
14554
  8
0
 10
543.63551923932619
 20
189.38412909903269
 30
0.0
  0
VERTEX
  5
14555
  8
0
 10
543.09902782679046
 20
187.93114617373561
 30
0.0
  0
VERTEX
  5
14556
  8
0
 10
542.80690145424876
 20
187.2145133808408
 30
0.0
  0
VERTEX
  5
14557
  8
0
 10
542.49905423598784
 20
186.5049505840808
 30
0.0
  0
VERTEX
  5
14558
  8
0
 10
541.83684505554402
 20
185.10850559249619
 30
0.0
  0
VERTEX
  5
14559
  8
0
 10
541.11377618340555
 20
183.74471264742721
 30
0.0
  0
VERTEX
  5
1455A
  8
0
 10
540.33134996808485
 20
182.4164053548833
 30
0.0
  0
VERTEX
  5
1455B
  8
0
 10
539.49119208717002
 20
181.1263435909442
 30
0.0
  0
VERTEX
  5
1455C
  8
0
 10
538.59504816959134
 20
179.87720776745729
 30
0.0
  0
VERTEX
  5
1455D
  8
0
 10
538.12655886770744
 20
179.26880160946649
 30
0.0
  0
VERTEX
  5
1455E
  8
0
 10
537.6447801686603
 20
178.6715932628403
 30
0.0
  0
VERTEX
  5
1455F
  8
0
 10
536.64236249341639
 20
177.5120050295628
 30
0.0
  0
VERTEX
  5
14560
  8
0
 10
535.58987790631897
 20
176.40085238950769
 30
0.0
  0
VERTEX
  5
14561
  8
0
 10
535.0455399515007
 20
175.8641649448638
 30
0.0
  0
SEQEND
  5
14562
  8
0
  0
LINE
  5
DF92
  8
0
 10
493.0455399515007
 20
169.74368873142041
 30
0.0
 11
493.0455399515007
 21
225.0716990851713
 31
0.0
  0
LINE
  5
DF97
  8
0
 10
532.04553995150081
 20
225.0716990851713
 30
0.0
 11
532.04553995150081
 21
169.74368873142041
 31
0.0
  0
LINE
  5
DF99
  8
0
 10
495.88198363452972
 20
227.24368873142041
 30
0.0
 11
529.20909626847185
 21
227.24368873142041
 31
0.0
  0
LINE
  5
DFB4
  8
0
 10
535.0455399515007
 20
173.92868873142041
 30
0.0
 11
535.64553995150072
 21
173.92868873142041
 31
0.0
  0
LINE
  5
DFB6
  8
0
 10
479.81253995150058
 20
175.74368873142041
 30
0.0
 11
482.04553995150081
 21
175.74368873142041
 31
0.0
  0
LINE
  5
DFB7
  8
0
 10
482.04553995150081
 20
183.74368873142029
 30
0.0
 11
479.81253995150058
 21
183.74368873142029
 31
0.0
  0
LINE
  5
DFB8
  8
0
 10
479.04553995150081
 20
176.51068873142029
 30
0.0
 11
479.81253995150058
 21
175.74368873142041
 31
0.0
  0
LINE
  5
DFB9
  8
0
 10
479.81253995150058
 20
183.74368873142029
 30
0.0
 11
479.04553995150081
 21
182.97668873142041
 31
0.0
  0
LINE
  5
DFBB
  8
0
 10
540.08612024208514
 20
172.51718786206351
 30
0.0
 11
540.34553995150088
 21
173.48535539808699
 31
0.0
  0
LINE
  5
DFBD
  8
0
 10
535.64553995150072
 20
173.48535539808699
 30
0.0
 11
535.90495966091601
 21
172.51718786206351
 31
0.0
  0
LINE
  5
DFC0
  8
0
 10
482.04553995150081
 20
173.92868873142041
 30
0.0
 11
484.54553995150081
 21
173.92868873142041
 31
0.0
  0
LINE
  5
DFC2
  8
0
 10
483.03238101293431
 20
185.5586887314204
 30
0.0
 11
482.04553995150081
 21
185.5586887314204
 31
0.0
  0
LINE
  5
DFC4
  8
0
 10
489.78612024208542
 20
172.51718786206351
 30
0.0
 11
490.04553995150081
 21
173.48535539808699
 31
0.0
  0
LINE
  5
DFC6
  8
0
 10
484.54553995150081
 20
173.48535539808699
 30
0.0
 11
484.80495966091621
 21
172.51718786206351
 31
0.0
  0
LINE
  5
DFC9
  8
0
 10
493.0455399515007
 20
173.74368873142041
 30
0.0
 11
497.5455399515007
 21
173.74368873142041
 31
0.0
  0
LINE
  5
DFCB
  8
0
 10
527.54553995150081
 20
173.74368873142041
 30
0.0
 11
532.04553995150081
 21
173.74368873142041
 31
0.0
  0
LINE
  5
DFCC
  8
0
 10
532.04553995150081
 20
185.74368873142041
 30
0.0
 11
527.54553995150081
 21
185.74368873142041
 31
0.0
  0
LINE
  5
DFCE
  8
0
 10
497.5455399515007
 20
185.74368873142041
 30
0.0
 11
493.0455399515007
 21
185.74368873142041
 31
0.0
  0
LINE
  5
DFCF
  8
0
 10
479.81253995150058
 20
183.74368873142029
 30
0.0
 11
479.81253995150058
 21
175.74368873142041
 31
0.0
  0
LINE
  5
DFD0
  8
0
 10
479.04553995150081
 20
182.97668873142041
 30
0.0
 11
479.04553995150081
 21
176.51068873142029
 31
0.0
  0
LINE
  5
DFD2
  8
0
 10
540.34553995150088
 20
182.441921251363
 30
0.0
 11
540.34553995150088
 21
173.48535539808699
 31
0.0
  0
LINE
  5
DFD4
  8
0
 10
535.64553995150072
 20
176.45496968678131
 30
0.0
 11
535.64553995150072
 21
173.48535539808699
 31
0.0
  0
POLYLINE
  5
DFD5
  8
0
 66
     1
 10
0.0
 20
0.0
 30
0.0
  0
VERTEX
  5
14563
  8
0
 10
540.08612024208514
 20
176.13043829674189
 30
0.0
  0
VERTEX
  5
14564
  8
0
 10
540.16696489534343
 20
175.8058644010697
 30
0.0
  0
VERTEX
  5
14565
  8
0
 10
540.28157523409664
 20
175.19630382229789
 30
0.0
  0
VERTEX
  5
14566
  8
0
 10
540.33834981788095
 20
174.61389565072221
 30
0.0
  0
VERTEX
  5
14567
  8
0
 10
540.34553995150088
 20
174.32381307940281
 30
0.0
  0
SEQEND
  5
14568
  8
0
  0
POLYLINE
  5
DFD6
  8
0
 66
     1
 10
0.0
 20
0.0
 30
0.0
  0
VERTEX
  5
14569
  8
0
 10
540.34553995150088
 20
174.32381307940281
 30
0.0
  0
VERTEX
  5
1456A
  8
0
 10
540.33834981788095
 20
174.03373050808329
 30
0.0
  0
VERTEX
  5
1456B
  8
0
 10
540.28157523409664
 20
173.45132233650759
 30
0.0
  0
VERTEX
  5
1456C
  8
0
 10
540.16696489534343
 20
172.8417617577357
 30
0.0
  0
VERTEX
  5
1456D
  8
0
 10
540.08612024208514
 20
172.51718786206351
 30
0.0
  0
SEQEND
  5
1456E
  8
0
  0
POLYLINE
  5
DFD7
  8
0
 66
     1
 10
0.0
 20
0.0
 30
0.0
  0
VERTEX
  5
1456F
  8
0
 10
535.90495966091601
 20
172.51718786206351
 30
0.0
  0
VERTEX
  5
14570
  8
0
 10
535.82411500765818
 20
172.8417617577357
 30
0.0
  0
VERTEX
  5
14571
  8
0
 10
535.70950466890508
 20
173.45132233650759
 30
0.0
  0
VERTEX
  5
14572
  8
0
 10
535.65273008512065
 20
174.03373050808329
 30
0.0
  0
VERTEX
  5
14573
  8
0
 10
535.64553995150072
 20
174.32381307940281
 30
0.0
  0
SEQEND
  5
14574
  8
0
  0
POLYLINE
  5
DFD8
  8
0
 66
     1
 10
0.0
 20
0.0
 30
0.0
  0
VERTEX
  5
14575
  8
0
 10
535.64553995150072
 20
174.32381307940281
 30
0.0
  0
VERTEX
  5
14576
  8
0
 10
535.65273008512065
 20
174.61389565072221
 30
0.0
  0
VERTEX
  5
14577
  8
0
 10
535.70950466890508
 20
175.19630382229789
 30
0.0
  0
VERTEX
  5
14578
  8
0
 10
535.82411500765818
 20
175.8058644010697
 30
0.0
  0
VERTEX
  5
14579
  8
0
 10
535.90495966091601
 20
176.13043829674189
 30
0.0
  0
SEQEND
  5
1457A
  8
0
  0
LINE
  5
DFD9
  8
0
 10
540.08612024208514
 20
172.51718786206351
 30
0.0
 11
535.90495966091601
 21
172.51718786206351
 31
0.0
  0
POLYLINE
  5
DFEE
  8
0
 66
     1
 10
0.0
 20
0.0
 30
0.0
  0
VERTEX
  5
1457B
  8
0
 10
540.21797900612808
 20
182.23072921729789
 30
0.0
  0
VERTEX
  5
1457C
  8
0
 10
540.25708192184311
 20
181.80308455355851
 30
0.0
  0
VERTEX
  5
1457D
  8
0
 10
540.31358849013475
 20
180.97119132539279
 30
0.0
  0
VERTEX
  5
1457E
  8
0
 10
540.34194807621043
 20
180.1535257439391
 30
0.0
  0
VERTEX
  5
1457F
  8
0
 10
540.34553995150088
 20
179.74368873142029
 30
0.0
  0
SEQEND
  5
14580
  8
0
  0
POLYLINE
  5
DFEF
  8
0
 66
     1
 10
0.0
 20
0.0
 30
0.0
  0
VERTEX
  5
14581
  8
0
 10
540.34553995150088
 20
179.74368873142029
 30
0.0
  0
VERTEX
  5
14582
  8
0
 10
540.33834981788095
 20
179.1635235887814
 30
0.0
  0
VERTEX
  5
14583
  8
0
 10
540.28157523409664
 20
177.9987072456301
 30
0.0
  0
VERTEX
  5
14584
  8
0
 10
540.16696489534343
 20
176.77958608808629
 30
0.0
  0
VERTEX
  5
14585
  8
0
 10
540.08612024208514
 20
176.13043829674189
 30
0.0
  0
SEQEND
  5
14586
  8
0
  0
LINE
  5
DFF0
  8
0
 10
540.08612024208514
 20
176.13043829674189
 30
0.0
 11
535.90495966091601
 21
176.13043829674189
 31
0.0
  0
POLYLINE
  5
DFF1
  8
0
 66
     1
 10
0.0
 20
0.0
 30
0.0
  0
VERTEX
  5
14587
  8
0
 10
535.90495966091601
 20
176.13043829674189
 30
0.0
  0
VERTEX
  5
14588
  8
0
 10
535.89317534010615
 20
176.21922076205939
 30
0.0
  0
VERTEX
  5
14589
  8
0
 10
535.87052680604529
 20
176.39483714847421
 30
0.0
  0
VERTEX
  5
1458A
  8
0
 10
535.84908044402664
 20
176.568002752768
 30
0.0
  0
VERTEX
  5
1458B
  8
0
 10
535.8387994095624
 20
176.6537203077684
 30
0.0
  0
SEQEND
  5
1458C
  8
0
  0
LINE
  5
DFF3
  8
0
 10
482.04553995150081
 20
185.5586887314204
 30
0.0
 11
482.04553995150081
 21
173.92868873142041
 31
0.0
  0
LINE
  5
DFF5
  8
0
 10
484.54553995150081
 20
182.76964430159339
 30
0.0
 11
484.54553995150081
 21
173.48535539808699
 31
0.0
  0
POLYLINE
  5
DFF7
  8
0
 66
     1
 10
0.0
 20
0.0
 30
0.0
  0
VERTEX
  5
1458D
  8
0
 10
489.79123941258098
 20
176.11125671790771
 30
0.0
  0
VERTEX
  5
1458E
  8
0
 10
489.8704349885528
 20
175.7906730305337
 30
0.0
  0
VERTEX
  5
1458F
  8
0
 10
489.98279533011828
 20
175.18778833573421
 30
0.0
  0
VERTEX
  5
14590
  8
0
 10
490.03848662937611
 20
174.6111167507774
 30
0.0
  0
VERTEX
  5
14591
  8
0
 10
490.04553995150081
 20
174.32381307940281
 30
0.0
  0
SEQEND
  5
14592
  8
0
  0
POLYLINE
  5
DFF8
  8
0
 66
     1
 10
0.0
 20
0.0
 30
0.0
  0
VERTEX
  5
14593
  8
0
 10
490.04553995150081
 20
174.32381307940281
 30
0.0
  0
VERTEX
  5
14594
  8
0
 10
490.03834981788083
 20
174.03373050808329
 30
0.0
  0
VERTEX
  5
14595
  8
0
 10
489.9815752340964
 20
173.45132233650759
 30
0.0
  0
VERTEX
  5
14596
  8
0
 10
489.86696489534319
 20
172.8417617577357
 30
0.0
  0
VERTEX
  5
14597
  8
0
 10
489.78612024208542
 20
172.51718786206351
 30
0.0
  0
SEQEND
  5
14598
  8
0
  0
POLYLINE
  5
DFF9
  8
0
 66
     1
 10
0.0
 20
0.0
 30
0.0
  0
VERTEX
  5
14599
  8
0
 10
484.80495966091621
 20
172.51718786206351
 30
0.0
  0
VERTEX
  5
1459A
  8
0
 10
484.72411500765833
 20
172.8417617577357
 30
0.0
  0
VERTEX
  5
1459B
  8
0
 10
484.60950466890512
 20
173.45132233650759
 30
0.0
  0
VERTEX
  5
1459C
  8
0
 10
484.5527300851208
 20
174.03373050808329
 30
0.0
  0
VERTEX
  5
1459D
  8
0
 10
484.54553995150081
 20
174.32381307940281
 30
0.0
  0
SEQEND
  5
1459E
  8
0
  0
POLYLINE
  5
DFFA
  8
0
 66
     1
 10
0.0
 20
0.0
 30
0.0
  0
VERTEX
  5
1459F
  8
0
 10
484.54553995150081
 20
174.32381307940281
 30
0.0
  0
VERTEX
  5
145A0
  8
0
 10
484.5527300851208
 20
174.61389565072221
 30
0.0
  0
VERTEX
  5
145A1
  8
0
 10
484.60950466890512
 20
175.19630382229789
 30
0.0
  0
VERTEX
  5
145A2
  8
0
 10
484.72411500765833
 20
175.8058644010697
 30
0.0
  0
VERTEX
  5
145A3
  8
0
 10
484.80495966091621
 20
176.13043829674189
 30
0.0
  0
SEQEND
  5
145A4
  8
0
  0
LINE
  5
DFFB
  8
0
 10
489.78612024208542
 20
172.51718786206351
 30
0.0
 11
484.80495966091621
 21
172.51718786206351
 31
0.0
  0
POLYLINE
  5
E00D
  8
0
 66
     1
 10
0.0
 20
0.0
 30
0.0
  0
VERTEX
  5
145A5
  8
0
 10
484.54553995150081
 20
179.74368873142029
 30
0.0
  0
VERTEX
  5
145A6
  8
0
 10
484.54992307689372
 20
180.19647543958371
 30
0.0
  0
VERTEX
  5
145A7
  8
0
 10
484.5845201933875
 20
181.100906835318
 30
0.0
  0
VERTEX
  5
145A8
  8
0
 10
484.65362646919351
 20
182.02661376807299
 30
0.0
  0
VERTEX
  5
145A9
  8
0
 10
484.70163548338309
 20
182.50612189734881
 30
0.0
  0
SEQEND
  5
145AA
  8
0
  0
LINE
  5
E013
  8
0
 10
489.77239847497913
 20
176.13043829674189
 30
0.0
 11
484.80495966091621
 21
176.13043829674189
 31
0.0
  0
POLYLINE
  5
E014
  8
0
 66
     1
 10
0.0
 20
0.0
 30
0.0
  0
VERTEX
  5
145AB
  8
0
 10
484.80495966091621
 20
176.13043829674189
 30
0.0
  0
VERTEX
  5
145AC
  8
0
 10
484.72411500765833
 20
176.77958608808629
 30
0.0
  0
VERTEX
  5
145AD
  8
0
 10
484.60950466890512
 20
177.9987072456301
 30
0.0
  0
VERTEX
  5
145AE
  8
0
 10
484.5527300851208
 20
179.1635235887814
 30
0.0
  0
VERTEX
  5
145AF
  8
0
 10
484.54553995150081
 20
179.74368873142029
 30
0.0
  0
SEQEND
  5
145B0
  8
0
  0
ARC
  5
E03A
  8
0
 10
525.54553995150081
 20
215.4508308741346
 30
0.0
 40
1.9999999999999889
 50
0.0
 51
69.994809911838999
  0
ARC
  5
E03B
  8
0
 10
525.54553995150081
 20
144.0365465887061
 30
0.0
 40
1.9999999999999849
 50
290.00519008816099
 51
0.0
  0
ARC
  5
E03C
  8
0
 10
512.54553995150081
 20
179.74368873142021
 30
0.0
 40
39.999999999999922
 50
249.99480991183901
 51
290.00519008816099
  0
ARC
  5
E03D
  8
0
 10
512.54553995150081
 20
179.74368873142041
 30
0.0
 40
39.999999999999929
 50
69.994809911838999
 51
110.005190088161
  0
ARC
  5
E03E
  8
0
 10
499.54553995150081
 20
215.4508308741346
 30
0.0
 40
1.999999999999958
 50
110.005190088161
 51
180.0
  0
ARC
  5
E03F
  8
0
 10
499.54553995150081
 20
144.0365465887061
 30
0.0
 40
1.999999999999966
 50
180.0
 51
249.99480991183901
  0
LINE
  5
E04A
  8
0
 10
527.54553995150081
 20
215.4508308741346
 30
0.0
 11
527.54553995150081
 21
144.0365465887061
 31
0.0
  0
LINE
  5
E04C
  8
0
 10
497.5455399515007
 20
215.4508308741346
 30
0.0
 11
497.5455399515007
 21
144.0365465887061
 31
0.0
  0
LINE
  5
E052
  8
0
 10
304.2023159840482
 20
361.57567298692788
 30
0.0
 11
304.2023159840482
 21
361.67567298692802
 31
0.0
  0
LINE
  5
E055
  8
0
 10
304.2023159840482
 20
406.47567298692792
 30
0.0
 11
304.2023159840482
 21
406.57567298692788
 31
0.0
  0
CIRCLE
  5
E05A
  8
0
 10
357.90231598404807
 20
384.075672986928
 30
0.0
 40
11.0
  0
CIRCLE
  5
E05B
  8
0
 10
357.90231598404807
 20
384.075672986928
 30
0.0
 40
28.025000000000009
  0
CIRCLE
  5
E05C
  8
0
 10
357.90231598404807
 20
384.075672986928
 30
0.0
 40
31.025000000000009
  0
CIRCLE
  5
E05D
  8
0
 10
357.90231598404807
 20
384.075672986928
 30
0.0
 40
32.5
  0
CIRCLE
  5
E05E
  8
0
 10
357.90231598404807
 20
384.075672986928
 30
0.0
 40
36.5
  0
LINE
  5
E064
  8
0
 10
304.2023159840482
 20
361.57567298692788
 30
0.0
 11
329.16210025764798
 21
361.57567298692788
 31
0.0
  0
LINE
  5
E065
  8
0
 10
329.16210025764798
 20
406.57567298692788
 30
0.0
 11
304.2023159840482
 21
406.57567298692788
 31
0.0
  0
LINE
  5
E070
  8
0
 10
318.40231598404807
 20
361.67567298692802
 30
0.0
 11
258.41897648244361
 21
361.67567298692802
 31
0.0
  0
LINE
  5
E071
  8
0
 10
306.93563698083881
 20
406.47567298692792
 30
0.0
 11
306.93563698083881
 21
361.67567298692802
 31
0.0
  0
LINE
  5
E072
  8
0
 10
318.40231598404807
 20
406.47567298692792
 30
0.0
 11
258.41897648244361
 21
406.47567298692792
 31
0.0
  0
LINE
  5
E07A
  8
0
 10
258.41897648244361
 20
406.47567298692792
 30
0.0
 11
258.41897648244361
 21
361.67567298692802
 31
0.0
  0
CIRCLE
  5
E08B
  8
0
 10
357.90231598404807
 20
384.075672986928
 30
0.0
 40
6.0
  0
LINE
  5
E08C
  8
1
 10
230.47120793850311
 20
384.075672986928
 30
0.0
 11
402.35008452798809
 21
384.075672986928
 31
0.0
  0
LINE
  5
E08D
  8
1
 10
357.90231598404807
 20
428.52344153086801
 30
0.0
 11
357.90231598404807
 21
339.62790444298781
 31
0.0
  0
LINE
  5
E08E
  8
0
 10
324.71731598404813
 20
361.57567298692788
 30
0.0
 11
324.71731598404813
 21
360.97567298692792
 31
0.0
  0
LINE
  5
E08F
  8
0
 10
313.08731598404802
 20
360.97567298692792
 30
0.0
 11
313.08731598404802
 21
361.57567298692788
 31
0.0
  0
LINE
  5
E090
  8
0
 10
322.90231598404807
 20
416.80867298692789
 30
0.0
 11
322.90231598404807
 21
414.57567298692788
 31
0.0
  0
LINE
  5
E091
  8
0
 10
314.90231598404807
 20
414.57567298692788
 30
0.0
 11
314.90231598404807
 21
416.80867298692789
 31
0.0
  0
LINE
  5
E092
  8
0
 10
322.1353159840483
 20
417.57567298692788
 30
0.0
 11
322.90231598404807
 21
416.80867298692789
 31
0.0
  0
LINE
  5
E093
  8
0
 10
314.90231598404807
 20
416.80867298692789
 30
0.0
 11
315.6693159840479
 21
417.57567298692788
 31
0.0
  0
LINE
  5
E096
  8
0
 10
324.71731598404813
 20
414.57567298692788
 30
0.0
 11
324.71731598404813
 21
412.07567298692788
 31
0.0
  0
LINE
  5
E097
  8
0
 10
313.08731598404802
 20
412.07567298692788
 30
0.0
 11
313.08731598404802
 21
414.57567298692788
 31
0.0
  0
LINE
  5
E09C
  8
0
 10
314.90231598404807
 20
416.80867298692789
 30
0.0
 11
322.90231598404807
 21
416.80867298692789
 31
0.0
  0
LINE
  5
E09D
  8
0
 10
315.6693159840479
 20
417.57567298692788
 30
0.0
 11
322.1353159840483
 21
417.57567298692788
 31
0.0
  0
LINE
  5
E09E
  8
0
 10
312.6439826507148
 20
356.27567298692787
 30
0.0
 11
325.16064931738129
 21
356.27567298692787
 31
0.0
  0
LINE
  5
E09F
  8
0
 10
312.6439826507148
 20
360.97567298692792
 30
0.0
 11
325.16064931738129
 21
360.97567298692792
 31
0.0
  0
POLYLINE
  5
E0AA
  8
0
 66
     1
 10
0.0
 20
0.0
 30
0.0
  0
VERTEX
  5
145B1
  8
0
 10
322.03148265071468
 20
360.97567298692792
 30
0.0
  0
VERTEX
  5
145B2
  8
0
 10
321.52904489879938
 20
360.96848285330799
 30
0.0
  0
VERTEX
  5
145B3
  8
0
 10
320.52028435488683
 20
360.91170826952361
 30
0.0
  0
VERTEX
  5
145B4
  8
0
 10
319.46449446216269
 20
360.79709793077058
 30
0.0
  0
VERTEX
  5
145B5
  8
0
 10
318.90231598404807
 20
360.71625327751241
 30
0.0
  0
SEQEND
  5
145B6
  8
0
  0
POLYLINE
  5
E0AB
  8
0
 66
     1
 10
0.0
 20
0.0
 30
0.0
  0
VERTEX
  5
145B7
  8
0
 10
318.90231598404807
 20
356.53509269634338
 30
0.0
  0
VERTEX
  5
145B8
  8
0
 10
319.46449446216269
 20
356.45424804308527
 30
0.0
  0
VERTEX
  5
145B9
  8
0
 10
320.52028435488683
 20
356.33963770433218
 30
0.0
  0
VERTEX
  5
145BA
  8
0
 10
321.52904489879938
 20
356.28286312054792
 30
0.0
  0
VERTEX
  5
145BB
  8
0
 10
322.03148265071468
 20
356.27567298692787
 30
0.0
  0
SEQEND
  5
145BC
  8
0
  0
POLYLINE
  5
E0AC
  8
0
 66
     1
 10
0.0
 20
0.0
 30
0.0
  0
VERTEX
  5
145BD
  8
0
 10
322.03148265071468
 20
356.27567298692787
 30
0.0
  0
VERTEX
  5
145BE
  8
0
 10
322.53392040263037
 20
356.28286312054792
 30
0.0
  0
VERTEX
  5
145BF
  8
0
 10
323.54268094654248
 20
356.33963770433218
 30
0.0
  0
VERTEX
  5
145C0
  8
0
 10
324.59847083926661
 20
356.45424804308527
 30
0.0
  0
VERTEX
  5
145C1
  8
0
 10
325.16064931738129
 20
356.53509269634338
 30
0.0
  0
SEQEND
  5
145C2
  8
0
  0
POLYLINE
  5
E0AD
  8
0
 66
     1
 10
0.0
 20
0.0
 30
0.0
  0
VERTEX
  5
145C3
  8
0
 10
325.16064931738129
 20
360.71625327751241
 30
0.0
  0
VERTEX
  5
145C4
  8
0
 10
324.59847083926661
 20
360.79709793077058
 30
0.0
  0
VERTEX
  5
145C5
  8
0
 10
323.54268094654248
 20
360.91170826952361
 30
0.0
  0
VERTEX
  5
145C6
  8
0
 10
322.53392040263037
 20
360.96848285330799
 30
0.0
  0
VERTEX
  5
145C7
  8
0
 10
322.03148265071468
 20
360.97567298692792
 30
0.0
  0
SEQEND
  5
145C8
  8
0
  0
POLYLINE
  5
E0AE
  8
0
 66
     1
 10
0.0
 20
0.0
 30
0.0
  0
VERTEX
  5
145C9
  8
0
 10
315.77314931738152
 20
360.97567298692792
 30
0.0
  0
VERTEX
  5
145CA
  8
0
 10
315.27071156546572
 20
360.96848285330799
 30
0.0
  0
VERTEX
  5
145CB
  8
0
 10
314.26195102155361
 20
360.91170826952361
 30
0.0
  0
VERTEX
  5
145CC
  8
0
 10
313.20616112882948
 20
360.79709793077058
 30
0.0
  0
VERTEX
  5
145CD
  8
0
 10
312.6439826507148
 20
360.71625327751241
 30
0.0
  0
SEQEND
  5
145CE
  8
0
  0
POLYLINE
  5
E0B0
  8
0
 66
     1
 10
0.0
 20
0.0
 30
0.0
  0
VERTEX
  5
145CF
  8
0
 10
312.6439826507148
 20
356.53509269634338
 30
0.0
  0
VERTEX
  5
145D0
  8
0
 10
313.20616112882948
 20
356.45424804308527
 30
0.0
  0
VERTEX
  5
145D1
  8
0
 10
314.26195102155361
 20
356.33963770433218
 30
0.0
  0
VERTEX
  5
145D2
  8
0
 10
315.27071156546572
 20
356.28286312054792
 30
0.0
  0
VERTEX
  5
145D3
  8
0
 10
315.77314931738152
 20
356.27567298692787
 30
0.0
  0
SEQEND
  5
145D4
  8
0
  0
POLYLINE
  5
E0B1
  8
0
 66
     1
 10
0.0
 20
0.0
 30
0.0
  0
VERTEX
  5
145D5
  8
0
 10
315.77314931738152
 20
356.27567298692787
 30
0.0
  0
VERTEX
  5
145D6
  8
0
 10
316.27558706929682
 20
356.28286312054792
 30
0.0
  0
VERTEX
  5
145D7
  8
0
 10
317.28434761320932
 20
356.33963770433218
 30
0.0
  0
VERTEX
  5
145D8
  8
0
 10
318.3401375059334
 20
356.45424804308527
 30
0.0
  0
VERTEX
  5
145D9
  8
0
 10
318.90231598404807
 20
356.53509269634338
 30
0.0
  0
SEQEND
  5
145DA
  8
0
  0
LINE
  5
E0B2
  8
0
 10
318.90231598404807
 20
356.53509269634338
 30
0.0
 11
318.90231598404807
 21
360.71625327751241
 31
0.0
  0
POLYLINE
  5
E0B3
  8
0
 66
     1
 10
0.0
 20
0.0
 30
0.0
  0
VERTEX
  5
145DB
  8
0
 10
318.90231598404807
 20
360.71625327751241
 30
0.0
  0
VERTEX
  5
145DC
  8
0
 10
318.3401375059334
 20
360.79709793077058
 30
0.0
  0
VERTEX
  5
145DD
  8
0
 10
317.28434761320932
 20
360.91170826952361
 30
0.0
  0
VERTEX
  5
145DE
  8
0
 10
316.27558706929682
 20
360.96848285330799
 30
0.0
  0
VERTEX
  5
145DF
  8
0
 10
315.77314931738152
 20
360.97567298692792
 30
0.0
  0
SEQEND
  5
145E0
  8
0
  0
LINE
  5
E0B7
  8
0
 10
313.08731598404802
 20
414.57567298692788
 30
0.0
 11
324.71731598404813
 21
414.57567298692788
 31
0.0
  0
LINE
  5
E0B8
  8
0
 10
312.6439826507148
 20
412.07567298692788
 30
0.0
 11
325.16064931738129
 21
412.07567298692788
 31
0.0
  0
POLYLINE
  5
E0C3
  8
0
 66
     1
 10
0.0
 20
0.0
 30
0.0
  0
VERTEX
  5
145E1
  8
0
 10
322.03148265071468
 20
412.07567298692788
 30
0.0
  0
VERTEX
  5
145E2
  8
0
 10
321.52904489879938
 20
412.06848285330813
 30
0.0
  0
VERTEX
  5
145E3
  8
0
 10
320.52028435488683
 20
412.01170826952358
 30
0.0
  0
VERTEX
  5
145E4
  8
0
 10
319.46449446216269
 20
411.89709793077049
 30
0.0
  0
VERTEX
  5
145E5
  8
0
 10
318.90231598404807
 20
411.81625327751237
 30
0.0
  0
SEQEND
  5
145E6
  8
0
  0
POLYLINE
  5
E0C4
  8
0
 66
     1
 10
0.0
 20
0.0
 30
0.0
  0
VERTEX
  5
145E7
  8
0
 10
318.90231598404807
 20
406.83509269634339
 30
0.0
  0
VERTEX
  5
145E8
  8
0
 10
319.4644944621582
 20
406.75424804308591
 30
0.0
  0
VERTEX
  5
145E9
  8
0
 10
320.52028435487358
 20
406.63963770433332
 30
0.0
  0
VERTEX
  5
145EA
  8
0
 10
321.52904489877761
 20
406.58286312054838
 30
0.0
  0
VERTEX
  5
145EB
  8
0
 10
322.0314826506887
 20
406.57567298692788
 30
0.0
  0
SEQEND
  5
145EC
  8
0
  0
POLYLINE
  5
E0C5
  8
0
 66
     1
 10
0.0
 20
0.0
 30
0.0
  0
VERTEX
  5
145ED
  8
0
 10
322.03148265071468
 20
406.57567298692788
 30
0.0
  0
VERTEX
  5
145EE
  8
0
 10
322.53392040263037
 20
406.5828631205477
 30
0.0
  0
VERTEX
  5
145EF
  8
0
 10
323.54268094654248
 20
406.63963770433219
 30
0.0
  0
VERTEX
  5
145F0
  8
0
 10
324.59847083926661
 20
406.75424804308523
 30
0.0
  0
VERTEX
  5
145F1
  8
0
 10
325.16064931738129
 20
406.83509269634339
 30
0.0
  0
SEQEND
  5
145F2
  8
0
  0
POLYLINE
  5
E0C6
  8
0
 66
     1
 10
0.0
 20
0.0
 30
0.0
  0
VERTEX
  5
145F3
  8
0
 10
325.16064931738129
 20
411.81625327751232
 30
0.0
  0
VERTEX
  5
145F4
  8
0
 10
324.59847083926661
 20
411.89709793077049
 30
0.0
  0
VERTEX
  5
145F5
  8
0
 10
323.54268094654248
 20
412.01170826952358
 30
0.0
  0
VERTEX
  5
145F6
  8
0
 10
322.53392040263037
 20
412.06848285330813
 30
0.0
  0
VERTEX
  5
145F7
  8
0
 10
322.03148265071468
 20
412.07567298692788
 30
0.0
  0
SEQEND
  5
145F8
  8
0
  0
POLYLINE
  5
E0C7
  8
0
 66
     1
 10
0.0
 20
0.0
 30
0.0
  0
VERTEX
  5
145F9
  8
0
 10
315.77314931738152
 20
412.07567298692788
 30
0.0
  0
VERTEX
  5
145FA
  8
0
 10
315.27071156546572
 20
412.06848285330801
 30
0.0
  0
VERTEX
  5
145FB
  8
0
 10
314.26195102155361
 20
412.01170826952358
 30
0.0
  0
VERTEX
  5
145FC
  8
0
 10
313.20616112882948
 20
411.89709793077049
 30
0.0
  0
VERTEX
  5
145FD
  8
0
 10
312.6439826507148
 20
411.81625327751232
 30
0.0
  0
SEQEND
  5
145FE
  8
0
  0
POLYLINE
  5
E0C9
  8
0
 66
     1
 10
0.0
 20
0.0
 30
0.0
  0
VERTEX
  5
145FF
  8
0
 10
312.6439826507148
 20
406.83509269634339
 30
0.0
  0
VERTEX
  5
14600
  8
0
 10
313.20616112882362
 20
406.75424804308602
 30
0.0
  0
VERTEX
  5
14601
  8
0
 10
314.26195102153719
 20
406.63963770433361
 30
0.0
  0
VERTEX
  5
14602
  8
0
 10
315.27071156543889
 20
406.5828631205485
 30
0.0
  0
VERTEX
  5
14603
  8
0
 10
315.77314931734918
 20
406.57567298692788
 30
0.0
  0
SEQEND
  5
14604
  8
0
  0
POLYLINE
  5
E0CA
  8
0
 66
     1
 10
0.0
 20
0.0
 30
0.0
  0
VERTEX
  5
14605
  8
0
 10
315.77314931738152
 20
406.57567298692788
 30
0.0
  0
VERTEX
  5
14606
  8
0
 10
316.27558706929682
 20
406.5828631205477
 30
0.0
  0
VERTEX
  5
14607
  8
0
 10
317.28434761320932
 20
406.63963770433219
 30
0.0
  0
VERTEX
  5
14608
  8
0
 10
318.3401375059334
 20
406.75424804308528
 30
0.0
  0
VERTEX
  5
14609
  8
0
 10
318.90231598404807
 20
406.83509269634339
 30
0.0
  0
SEQEND
  5
1460A
  8
0
  0
LINE
  5
E0CB
  8
0
 10
318.90231598404807
 20
406.83509269634339
 30
0.0
 11
318.90231598404807
 21
411.81625327751232
 31
0.0
  0
POLYLINE
  5
E0CC
  8
0
 66
     1
 10
0.0
 20
0.0
 30
0.0
  0
VERTEX
  5
1460B
  8
0
 10
318.90231598404807
 20
411.81625327751237
 30
0.0
  0
VERTEX
  5
1460C
  8
0
 10
318.3401375059334
 20
411.89709793077049
 30
0.0
  0
VERTEX
  5
1460D
  8
0
 10
317.28434761320932
 20
412.01170826952358
 30
0.0
  0
VERTEX
  5
1460E
  8
0
 10
316.27558706929682
 20
412.06848285330801
 30
0.0
  0
VERTEX
  5
1460F
  8
0
 10
315.77314931738152
 20
412.07567298692788
 30
0.0
  0
SEQEND
  5
14610
  8
0
  0
ARC
  5
E0F8
  8
0
 10
318.90231598404853
 20
384.07567298692788
 30
0.0
 40
39.999999999999751
 50
351.40984136455808
 51
8.5901586354419308
  0
LINE
  5
E10A
  8
1
 10
318.90231598404807
 20
342.81180890754558
 30
0.0
 11
318.90231598404807
 21
425.3395370663103
 31
0.0
  0
LINE
  5
1272B
  8
0
 10
258.41897648244361
 20
403.47567298692837
 30
0.0
 11
258.41897648244361
 21
364.6756729869283
 31
0.0
  0
LINE
  5
1272C
  8
0
 10
238.41897648244321
 20
400.09719367024383
 30
0.0
 11
238.41897648244321
 21
368.05415230361018
 31
0.0
  0
LINE
  5
1272D
  8
0
 10
242.96313674647121
 20
403.07567298692828
 30
0.0
 11
242.96313674647121
 21
365.0756729869284
 31
0.0
  0
LINE
  5
1272E
  8
0
 10
255.4189764824437
 20
400.07567298692828
 30
0.0
 11
255.41897648244409
 21
368.07567298692811
 31
0.0
  0
LINE
  5
1272F
  8
0
 10
258.41897648244361
 20
403.07567298692828
 30
0.0
 11
240.01308618105941
 21
403.07567298692828
 31
0.0
  0
LINE
  5
12730
  8
0
 10
255.4189764824437
 20
400.07567298692828
 30
0.0
 11
258.41897648244361
 21
400.07567298692828
 31
0.0
  0
LINE
  5
12731
  8
0
 10
258.41897648244361
 20
365.0756729869284
 30
0.0
 11
240.01308618105941
 21
365.0756729869284
 31
0.0
  0
LINE
  5
12732
  8
0
 10
255.418976482445
 20
368.07567298692811
 30
0.0
 11
258.41897648244458
 21
368.07567298692828
 31
0.0
  0
ARC
  5
12733
  8
0
 10
242.75541587608501
 20
399.69212196048329
 30
0.0
 40
4.3553174057440378
 50
129.02437415616089
 51
174.66342214695109
  0
ARC
  5
12734
  8
0
 10
242.75541587608501
 20
368.45922401337339
 30
0.0
 40
4.3553174057440378
 50
185.33657785304879
 51
230.97562584383911
  0
LINE
  5
12735
  8
0
 10
238.41897648244409
 20
220.86604156742911
 30
0.0
 11
241.63291453087689
 21
217.03581935183419
 31
0.0
  0
LINE
  5
12736
  8
0
 10
240.3340875902413
 20
222.4730105916457
 30
0.0
 11
238.41897648244409
 21
220.86604156742911
 31
0.0
  0
LINE
  5
12737
  8
0
 10
242.96313674647169
 20
219.3398318146015
 30
0.0
 11
240.3340875902413
 21
222.4730105916457
 31
0.0
  0
LINE
  5
12738
  8
0
 10
259.12854318207519
 20
217.0955497570373
 30
0.0
 11
242.96313674647169
 21
219.3398318146015
 31
0.0
  0
LINE
  5
12739
  8
0
 10
258.44511079550011
 20
219.6461541472751
 30
0.0
 11
258.13956915287417
 21
219.82552289940949
 31
0.0
  0
LINE
  5
1273A
  8
0
 10
241.63291453087689
 20
217.03581935183419
 30
0.0
 11
259.84248123050787
 21
214.4310966868303
 31
0.0
  0
LINE
  5
1273B
  8
0
 10
255.8733567628951
 20
223.60214967266199
 30
0.0
 11
258.41739045641089
 21
223.25182632722081
 31
0.0
  0
LINE
  5
1273C
  8
0
 10
255.42243847079541
 20
220.49170897855001
 30
0.0
 11
255.8733567628951
 21
223.60214967266199
 31
0.0
  0
LINE
  5
1273D
  8
0
 10
258.07381807057482
 20
220.20457816917619
 30
0.0
 11
258.41739045641089
 21
223.25182632722101
 31
0.0
  0
LINE
  5
1273E
  8
0
 10
255.42243847079541
 20
220.49170897855001
 30
0.0
 11
256.16038546334858
 21
217.50762619561601
 31
0.0
  0
LINE
  5
1273F
  8
0
 10
258.07381807057482
 20
220.20457816917619
 30
0.0
 11
258.13956915287417
 21
219.82552289940949
 31
0.0
  0
LINE
  5
1282E
  8
3
 10
315.6693159840479
 20
417.57567298692788
 30
0.0
 11
315.6693159840479
 21
414.57567298692788
 31
0.0
  0
LINE
  5
1282F
  8
3
 10
322.1353159840483
 20
417.57567298692788
 30
0.0
 11
322.1353159840483
 21
414.57567298692788
 31
0.0
  0
LINE
  5
1286E
  8
1
 10
357.90231598404853
 20
254.73710445286051
 30
0.0
 11
357.90231598404853
 21
211.36077252471171
 31
0.0
  0
LINE
  5
1286F
  8
1
 10
270.9089002626078
 20
179.74368873142041
 30
0.0
 11
366.89573170548829
 21
179.74368873142041
 31
0.0
  0
LINE
  5
12870
  8
1
 10
318.90231598404807
 20
131.75027300998019
 30
0.0
 11
318.90231598404807
 21
221.50293686627811
 31
0.0
  0
LINE
  5
12871
  8
0
 10
318.90231598404853
 20
186.97018960077719
 30
0.0
 11
325.1606493173818
 21
183.35693916609881
 31
0.0
  0
LINE
  5
12872
  8
0
 10
325.1606493173818
 20
183.35693916609881
 30
0.0
 11
325.1606493173818
 21
176.130438296742
 31
0.0
  0
LINE
  5
12873
  8
0
 10
325.1606493173818
 20
176.130438296742
 30
0.0
 11
318.90231598404853
 21
172.51718786206359
 31
0.0
  0
LINE
  5
12874
  8
0
 10
318.90231598404853
 20
186.97018960077719
 30
0.0
 11
312.64398265071532
 21
183.35693916609881
 31
0.0
  0
LINE
  5
12875
  8
0
 10
312.64398265071532
 20
183.35693916609881
 30
0.0
 11
312.64398265071532
 21
176.130438296742
 31
0.0
  0
LINE
  5
12876
  8
0
 10
312.64398265071532
 20
176.130438296742
 30
0.0
 11
318.90231598404853
 21
172.51718786206359
 31
0.0
  0
CIRCLE
  5
12877
  8
0
 10
318.90231598404807
 20
179.74368873142041
 30
0.0
 40
6.2583333333330611
  0
LINE
  5
1287B
  8
0
 10
136.25909201659479
 20
243.44368873142039
 30
0.0
 11
136.25909201659479
 21
246.74368873142041
 31
0.0
  0
LINE
  5
1287C
  8
0
 10
114.25909201659481
 20
246.74368873142041
 30
0.0
 11
114.25909201659481
 21
243.44368873142039
 31
0.0
  0
LINE
  5
1287D
  8
2
 10
131.2639145054022
 20
243.44368873142039
 30
0.0
 11
119.2542695277884
 21
243.44368873142039
 31
0.0
  0
ARC
  5
1287E
  8
0
 10
97.234092016595241
 20
240.44368873142039
 30
0.0
 40
2.9999999999999778
 50
90.0
 51
180.0
  0
ARC
  5
1287F
  8
0
 10
153.28409201659539
 20
240.44368873142039
 30
0.0
 40
2.999999999999992
 50
0.0
 51
90.0
  0
LINE
  5
12880
  8
0
 10
156.28409201659539
 20
239.94368873142039
 30
0.0
 11
156.28409201659539
 21
240.44368873142039
 31
0.0
  0
LINE
  5
12881
  8
0
 10
94.234092016595241
 20
240.44368873142039
 30
0.0
 11
94.234092016595241
 21
239.94368873142039
 31
0.0
  0
ARC
  5
12882
  8
0
 10
92.759092016595332
 20
235.94368873142031
 30
0.0
 40
4.0000000000000142
 50
90.0
 51
180.0
  0
ARC
  5
12883
  8
0
 10
157.7590920165953
 20
235.94368873142031
 30
0.0
 40
4.0000000000000142
 50
0.0
 51
90.0
  0
LINE
  5
12884
  8
0
 10
161.7590920165953
 20
234.94368873142039
 30
0.0
 11
161.7590920165953
 21
235.94368873142031
 31
0.0
  0
LINE
  5
12885
  8
0
 10
88.759092016595332
 20
235.94368873142031
 30
0.0
 11
88.759092016595332
 21
234.94368873142039
 31
0.0
  0
LINE
  5
12886
  8
0
 10
158.2590920165953
 20
200.82368636537601
 30
0.0
 11
158.2590920165953
 21
234.94368873142039
 31
0.0
  0
LINE
  5
12887
  8
0
 10
92.259092016595332
 20
234.94368873142039
 30
0.0
 11
92.259092016595332
 21
200.82368636537601
 31
0.0
  0
LINE
  5
12888
  8
0
 10
114.25909201659481
 20
246.74368873142041
 30
0.0
 11
136.25909201659479
 21
246.74368873142041
 31
0.0
  0
LINE
  5
12889
  8
0
 10
97.234092016595241
 20
243.44368873142039
 30
0.0
 11
153.28409201659539
 21
243.44368873142039
 31
0.0
  0
LINE
  5
1288A
  8
0
 10
92.759092016595332
 20
239.94368873142039
 30
0.0
 11
157.7590920165953
 21
239.94368873142039
 31
0.0
  0
LINE
  5
1288B
  8
0
 10
88.759092016595332
 20
234.94368873142039
 30
0.0
 11
161.7590920165953
 21
234.94368873142039
 31
0.0
  0
LINE
  5
1288C
  8
0
 10
147.7590920165953
 20
232.94368873142039
 30
0.0
 11
102.7590920165953
 21
232.94368873142039
 31
0.0
  0
LINE
  5
1288D
  8
0
 10
147.7590920165953
 20
175.8641649448638
 30
0.0
 11
147.7590920165953
 21
232.94368873142039
 31
0.0
  0
LINE
  5
1288E
  8
0
 10
102.7590920165953
 20
232.94368873142039
 30
0.0
 11
102.7590920165953
 21
175.8641649448638
 31
0.0
  0
LINE
  5
1288F
  8
0
 10
147.7590920165953
 20
175.8641649448638
 30
0.0
 11
147.7590920165953
 21
169.74368873142041
 31
0.0
  0
LINE
  5
12890
  8
0
 10
144.7590920165953
 20
169.74368873142041
 30
0.0
 11
147.7590920165953
 21
169.74368873142041
 31
0.0
  0
LINE
  5
12891
  8
0
 10
102.7590920165953
 20
169.74368873142041
 30
0.0
 11
105.7590920165953
 21
169.74368873142041
 31
0.0
  0
LINE
  5
12892
  8
0
 10
102.7590920165953
 20
169.74368873142041
 30
0.0
 11
102.7590920165953
 21
175.8641649448638
 31
0.0
  0
POLYLINE
  5
12895
  8
0
 66
     1
 10
0.0
 20
0.0
 30
0.0
  0
VERTEX
  5
14611
  8
0
 10
95.754305243547606
 20
185.55868873142029
 30
0.0
  0
VERTEX
  5
14612
  8
0
 10
95.305577732108304
 20
186.5049505840808
 30
0.0
  0
VERTEX
  5
14613
  8
0
 10
94.997730513847259
 20
187.2145133808408
 30
0.0
  0
VERTEX
  5
14614
  8
0
 10
94.705604141305685
 20
187.93114617373561
 30
0.0
  0
VERTEX
  5
14615
  8
0
 10
94.16911272876996
 20
189.38412909903269
 30
0.0
  0
VERTEX
  5
14616
  8
0
 10
93.697218183718178
 20
190.8608804404476
 30
0.0
  0
VERTEX
  5
14617
  8
0
 10
93.290900979926846
 20
192.35833189388731
 30
0.0
  0
VERTEX
  5
14618
  8
0
 10
92.951005338561572
 20
193.87337214582479
 30
0.0
  0
VERTEX
  5
14619
  8
0
 10
92.678237474107391
 20
195.4028533377984
 30
0.0
  0
VERTEX
  5
1461A
  8
0
 10
92.567209047014785
 20
196.17201719599339
 30
0.0
  0
VERTEX
  5
1461B
  8
0
 10
92.473164127038672
 20
196.94359760683901
 30
0.0
  0
VERTEX
  5
1461C
  8
0
 10
92.336211386278578
 20
198.49240368824181
 30
0.0
  0
VERTEX
  5
1461D
  8
0
 10
92.267663803900632
 20
200.04605356695859
 30
0.0
  0
VERTEX
  5
1461E
  8
0
 10
92.259092016595332
 20
200.82368636537601
 30
0.0
  0
SEQEND
  5
1461F
  8
0
  0
POLYLINE
  5
12896
  8
0
 66
     1
 10
0.0
 20
0.0
 30
0.0
  0
VERTEX
  5
14620
  8
0
 10
158.2590920165953
 20
200.82368636537601
 30
0.0
  0
VERTEX
  5
14621
  8
0
 10
158.25052022929
 20
200.04605356695851
 30
0.0
  0
VERTEX
  5
14622
  8
0
 10
158.18197264691199
 20
198.49240368824181
 30
0.0
  0
VERTEX
  5
14623
  8
0
 10
158.04501990615199
 20
196.94359760683901
 30
0.0
  0
VERTEX
  5
14624
  8
0
 10
157.95097498617591
 20
196.17201719599339
 30
0.0
  0
VERTEX
  5
14625
  8
0
 10
157.83994655908319
 20
195.40285333779829
 30
0.0
  0
VERTEX
  5
14626
  8
0
 10
157.56717869462909
 20
193.87337214582479
 30
0.0
  0
VERTEX
  5
14627
  8
0
 10
157.22728305326379
 20
192.3583318938872
 30
0.0
  0
VERTEX
  5
14628
  8
0
 10
156.82096584947249
 20
190.8608804404476
 30
0.0
  0
VERTEX
  5
14629
  8
0
 10
156.3490713044207
 20
189.38412909903269
 30
0.0
  0
VERTEX
  5
1462A
  8
0
 10
155.81257989188489
 20
187.93114617373561
 30
0.0
  0
VERTEX
  5
1462B
  8
0
 10
155.52045351934339
 20
187.2145133808408
 30
0.0
  0
VERTEX
  5
1462C
  8
0
 10
155.2126063010823
 20
186.5049505840808
 30
0.0
  0
VERTEX
  5
1462D
  8
0
 10
154.55039712063851
 20
185.10850559249619
 30
0.0
  0
VERTEX
  5
1462E
  8
0
 10
153.82732824850021
 20
183.74471264742721
 30
0.0
  0
VERTEX
  5
1462F
  8
0
 10
153.05909201659551
 20
182.44049536884711
 30
0.0
  0
SEQEND
  5
14630
  8
0
  0
LINE
  5
12898
  8
0
 10
105.7590920165953
 20
169.74368873142041
 30
0.0
 11
105.7590920165953
 21
219.74368873142041
 31
0.0
  0
LINE
  5
12899
  8
0
 10
144.7590920165953
 20
219.74368873142041
 30
0.0
 11
144.7590920165953
 21
169.74368873142041
 31
0.0
  0
LINE
  5
1289A
  8
0
 10
147.7590920165953
 20
173.92868873142041
 30
0.0
 11
148.35909201659521
 21
173.92868873142041
 31
0.0
  0
LINE
  5
1289B
  8
0
 10
148.35909201659521
 20
185.5586887314204
 30
0.0
 11
147.7590920165953
 21
185.5586887314204
 31
0.0
  0
LINE
  5
1289C
  8
0
 10
92.526092016595143
 20
175.74368873142041
 30
0.0
 11
94.759092016595332
 21
175.74368873142041
 31
0.0
  0
LINE
  5
1289D
  8
0
 10
94.759092016595332
 20
183.74368873142029
 30
0.0
 11
92.526092016595143
 21
183.74368873142029
 31
0.0
  0
LINE
  5
1289E
  8
0
 10
91.759092016595346
 20
176.51068873142029
 30
0.0
 11
92.526092016595143
 21
175.74368873142041
 31
0.0
  0
LINE
  5
1289F
  8
0
 10
92.526092016595143
 20
183.74368873142029
 30
0.0
 11
91.759092016595346
 21
182.97668873142041
 31
0.0
  0
LINE
  5
128A0
  8
0
 10
153.05909201659551
 20
186.0020220647537
 30
0.0
 11
152.79967230717961
 21
186.97018960077719
 31
0.0
  0
LINE
  5
128A1
  8
0
 10
152.79967230717961
 20
172.51718786206351
 30
0.0
 11
153.05909201659551
 21
173.48535539808699
 31
0.0
  0
LINE
  5
128A2
  8
0
 10
148.61851172601061
 20
186.97018960077719
 30
0.0
 11
148.35909201659521
 21
186.0020220647537
 31
0.0
  0
LINE
  5
128A3
  8
0
 10
148.35909201659521
 20
173.48535539808699
 30
0.0
 11
148.61851172601061
 21
172.51718786206351
 31
0.0
  0
LINE
  5
128A4
  8
0
 10
94.759092016595332
 20
173.92868873142041
 30
0.0
 11
97.259092016595332
 21
173.92868873142041
 31
0.0
  0
LINE
  5
128A5
  8
0
 10
97.259092016595332
 20
185.5586887314204
 30
0.0
 11
94.759092016595332
 21
185.5586887314204
 31
0.0
  0
LINE
  5
128A6
  8
0
 10
102.7590920165953
 20
186.0020220647537
 30
0.0
 11
102.49967230717991
 21
186.97018960077719
 31
0.0
  0
LINE
  5
128A7
  8
0
 10
102.49967230717991
 20
172.51718786206351
 30
0.0
 11
102.7590920165953
 21
173.48535539808699
 31
0.0
  0
LINE
  5
128A8
  8
0
 10
97.518511726010729
 20
186.97018960077719
 30
0.0
 11
97.259092016595332
 21
186.0020220647537
 31
0.0
  0
LINE
  5
128A9
  8
0
 10
97.259092016595332
 20
173.48535539808699
 30
0.0
 11
97.518511726010729
 21
172.51718786206351
 31
0.0
  0
LINE
  5
128AA
  8
0
 10
105.7590920165953
 20
173.74368873142041
 30
0.0
 11
110.2590920165953
 21
173.74368873142041
 31
0.0
  0
LINE
  5
128AB
  8
0
 10
140.2590920165953
 20
173.74368873142041
 30
0.0
 11
144.7590920165953
 21
173.74368873142041
 31
0.0
  0
LINE
  5
128AC
  8
0
 10
144.7590920165953
 20
185.74368873142041
 30
0.0
 11
140.2590920165953
 21
185.74368873142041
 31
0.0
  0
LINE
  5
128AD
  8
0
 10
110.2590920165953
 20
185.74368873142041
 30
0.0
 11
105.7590920165953
 21
185.74368873142041
 31
0.0
  0
LINE
  5
128AE
  8
0
 10
92.526092016595143
 20
183.74368873142029
 30
0.0
 11
92.526092016595143
 21
175.74368873142041
 31
0.0
  0
LINE
  5
128AF
  8
0
 10
91.759092016595346
 20
182.97668873142041
 30
0.0
 11
91.759092016595346
 21
176.51068873142029
 31
0.0
  0
LINE
  5
128B0
  8
0
 10
153.05909201659551
 20
186.0020220647537
 30
0.0
 11
153.05909201659551
 21
173.48535539808699
 31
0.0
  0
LINE
  5
128B1
  8
0
 10
148.35909201659521
 20
186.0020220647537
 30
0.0
 11
148.35909201659521
 21
176.45496968678131
 31
0.0
  0
LINE
  5
128B2
  8
0
 10
148.35909201659521
 20
176.45496968678131
 30
0.0
 11
148.35909201659521
 21
173.48535539808699
 31
0.0
  0
POLYLINE
  5
128B3
  8
0
 66
     1
 10
0.0
 20
0.0
 30
0.0
  0
VERTEX
  5
14631
  8
0
 10
152.79967230717961
 20
176.13043829674189
 30
0.0
  0
VERTEX
  5
14632
  8
0
 10
152.88051696043789
 20
175.8058644010697
 30
0.0
  0
VERTEX
  5
14633
  8
0
 10
152.9951272991911
 20
175.19630382229789
 30
0.0
  0
VERTEX
  5
14634
  8
0
 10
153.0519018829755
 20
174.61389565072221
 30
0.0
  0
VERTEX
  5
14635
  8
0
 10
153.05909201659551
 20
174.32381307940281
 30
0.0
  0
SEQEND
  5
14636
  8
0
  0
POLYLINE
  5
128B4
  8
0
 66
     1
 10
0.0
 20
0.0
 30
0.0
  0
VERTEX
  5
14637
  8
0
 10
153.05909201659551
 20
174.32381307940281
 30
0.0
  0
VERTEX
  5
14638
  8
0
 10
153.0519018829755
 20
174.03373050808329
 30
0.0
  0
VERTEX
  5
14639
  8
0
 10
152.9951272991911
 20
173.45132233650759
 30
0.0
  0
VERTEX
  5
1463A
  8
0
 10
152.88051696043789
 20
172.8417617577357
 30
0.0
  0
VERTEX
  5
1463B
  8
0
 10
152.79967230717961
 20
172.51718786206351
 30
0.0
  0
SEQEND
  5
1463C
  8
0
  0
POLYLINE
  5
128B5
  8
0
 66
     1
 10
0.0
 20
0.0
 30
0.0
  0
VERTEX
  5
1463D
  8
0
 10
148.61851172601061
 20
172.51718786206351
 30
0.0
  0
VERTEX
  5
1463E
  8
0
 10
148.53766707275281
 20
172.8417617577357
 30
0.0
  0
VERTEX
  5
1463F
  8
0
 10
148.4230567339996
 20
173.45132233650759
 30
0.0
  0
VERTEX
  5
14640
  8
0
 10
148.36628215021531
 20
174.03373050808329
 30
0.0
  0
VERTEX
  5
14641
  8
0
 10
148.35909201659521
 20
174.32381307940281
 30
0.0
  0
SEQEND
  5
14642
  8
0
  0
POLYLINE
  5
128B6
  8
0
 66
     1
 10
0.0
 20
0.0
 30
0.0
  0
VERTEX
  5
14643
  8
0
 10
148.35909201659521
 20
174.32381307940281
 30
0.0
  0
VERTEX
  5
14644
  8
0
 10
148.36628215021531
 20
174.61389565072221
 30
0.0
  0
VERTEX
  5
14645
  8
0
 10
148.4230567339996
 20
175.19630382229789
 30
0.0
  0
VERTEX
  5
14646
  8
0
 10
148.53766707275281
 20
175.8058644010697
 30
0.0
  0
VERTEX
  5
14647
  8
0
 10
148.61851172601061
 20
176.13043829674189
 30
0.0
  0
SEQEND
  5
14648
  8
0
  0
LINE
  5
128B7
  8
0
 10
152.79967230717961
 20
172.51718786206351
 30
0.0
 11
148.61851172601061
 21
172.51718786206351
 31
0.0
  0
POLYLINE
  5
128B8
  8
0
 66
     1
 10
0.0
 20
0.0
 30
0.0
  0
VERTEX
  5
14649
  8
0
 10
152.79967230717961
 20
176.13043829674189
 30
0.0
  0
VERTEX
  5
1464A
  8
0
 10
152.88051696043789
 20
176.77958608808629
 30
0.0
  0
VERTEX
  5
1464B
  8
0
 10
152.9951272991911
 20
177.9987072456301
 30
0.0
  0
VERTEX
  5
1464C
  8
0
 10
153.0519018829755
 20
179.1635235887814
 30
0.0
  0
VERTEX
  5
1464D
  8
0
 10
153.05909201659551
 20
179.74368873142029
 30
0.0
  0
SEQEND
  5
1464E
  8
0
  0
POLYLINE
  5
128B9
  8
0
 66
     1
 10
0.0
 20
0.0
 30
0.0
  0
VERTEX
  5
1464F
  8
0
 10
153.05909201659551
 20
179.74368873142029
 30
0.0
  0
VERTEX
  5
14650
  8
0
 10
153.0519018829755
 20
180.3238538740593
 30
0.0
  0
VERTEX
  5
14651
  8
0
 10
152.9951272991911
 20
181.4886702172106
 30
0.0
  0
VERTEX
  5
14652
  8
0
 10
152.88051696043789
 20
182.70779137475441
 30
0.0
  0
VERTEX
  5
14653
  8
0
 10
152.79967230717961
 20
183.35693916609881
 30
0.0
  0
SEQEND
  5
14654
  8
0
  0
POLYLINE
  5
128BA
  8
0
 66
     1
 10
0.0
 20
0.0
 30
0.0
  0
VERTEX
  5
14655
  8
0
 10
148.61851172601061
 20
183.35693916609881
 30
0.0
  0
VERTEX
  5
14656
  8
0
 10
148.53766707275281
 20
182.70779137475441
 30
0.0
  0
VERTEX
  5
14657
  8
0
 10
148.4230567339996
 20
181.4886702172106
 30
0.0
  0
VERTEX
  5
14658
  8
0
 10
148.36628215021531
 20
180.3238538740593
 30
0.0
  0
VERTEX
  5
14659
  8
0
 10
148.35909201659521
 20
179.74368873142029
 30
0.0
  0
SEQEND
  5
1465A
  8
0
  0
POLYLINE
  5
128BB
  8
0
 66
     1
 10
0.0
 20
0.0
 30
0.0
  0
VERTEX
  5
1465B
  8
0
 10
148.35909201659521
 20
179.74368873142029
 30
0.0
  0
VERTEX
  5
1465C
  8
0
 10
148.36628215021531
 20
179.1635235887814
 30
0.0
  0
VERTEX
  5
1465D
  8
0
 10
148.4230567339996
 20
177.9987072456301
 30
0.0
  0
VERTEX
  5
1465E
  8
0
 10
148.53766707275281
 20
176.77958608808629
 30
0.0
  0
VERTEX
  5
1465F
  8
0
 10
148.61851172601061
 20
176.13043829674189
 30
0.0
  0
SEQEND
  5
14660
  8
0
  0
POLYLINE
  5
128BC
  8
0
 66
     1
 10
0.0
 20
0.0
 30
0.0
  0
VERTEX
  5
14661
  8
0
 10
148.35909201659521
 20
185.16356438343789
 30
0.0
  0
VERTEX
  5
14662
  8
0
 10
148.36628215021531
 20
185.4536469547574
 30
0.0
  0
VERTEX
  5
14663
  8
0
 10
148.4230567339996
 20
186.03605512633311
 30
0.0
  0
VERTEX
  5
14664
  8
0
 10
148.53766707275281
 20
186.645615705105
 30
0.0
  0
VERTEX
  5
14665
  8
0
 10
148.61851172601061
 20
186.97018960077719
 30
0.0
  0
SEQEND
  5
14666
  8
0
  0
POLYLINE
  5
128BD
  8
0
 66
     1
 10
0.0
 20
0.0
 30
0.0
  0
VERTEX
  5
14667
  8
0
 10
152.79967230717961
 20
186.97018960077719
 30
0.0
  0
VERTEX
  5
14668
  8
0
 10
152.88051696043789
 20
186.645615705105
 30
0.0
  0
VERTEX
  5
14669
  8
0
 10
152.9951272991911
 20
186.03605512633311
 30
0.0
  0
VERTEX
  5
1466A
  8
0
 10
153.0519018829755
 20
185.4536469547574
 30
0.0
  0
VERTEX
  5
1466B
  8
0
 10
153.05909201659551
 20
185.16356438343789
 30
0.0
  0
SEQEND
  5
1466C
  8
0
  0
POLYLINE
  5
128BE
  8
0
 66
     1
 10
0.0
 20
0.0
 30
0.0
  0
VERTEX
  5
1466D
  8
0
 10
153.05909201659551
 20
185.16356438343789
 30
0.0
  0
VERTEX
  5
1466E
  8
0
 10
153.0519018829755
 20
184.87348181211851
 30
0.0
  0
VERTEX
  5
1466F
  8
0
 10
152.9951272991911
 20
184.29107364054281
 30
0.0
  0
VERTEX
  5
14670
  8
0
 10
152.88051696043789
 20
183.681513061771
 30
0.0
  0
VERTEX
  5
14671
  8
0
 10
152.79967230717961
 20
183.35693916609881
 30
0.0
  0
SEQEND
  5
14672
  8
0
  0
POLYLINE
  5
128BF
  8
0
 66
     1
 10
0.0
 20
0.0
 30
0.0
  0
VERTEX
  5
14673
  8
0
 10
148.61851172601061
 20
183.35693916609881
 30
0.0
  0
VERTEX
  5
14674
  8
0
 10
148.53766707275281
 20
183.681513061771
 30
0.0
  0
VERTEX
  5
14675
  8
0
 10
148.4230567339996
 20
184.29107364054281
 30
0.0
  0
VERTEX
  5
14676
  8
0
 10
148.36628215021531
 20
184.87348181211851
 30
0.0
  0
VERTEX
  5
14677
  8
0
 10
148.35909201659521
 20
185.16356438343789
 30
0.0
  0
SEQEND
  5
14678
  8
0
  0
LINE
  5
128C0
  8
0
 10
152.79967230717961
 20
186.97018960077719
 30
0.0
 11
148.61851172601061
 21
186.97018960077719
 31
0.0
  0
LINE
  5
128C1
  8
0
 10
152.79967230717961
 20
183.35693916609881
 30
0.0
 11
148.61851172601061
 21
183.35693916609881
 31
0.0
  0
LINE
  5
128C2
  8
0
 10
152.79967230717961
 20
176.13043829674189
 30
0.0
 11
148.61851172601061
 21
176.13043829674189
 31
0.0
  0
LINE
  5
128C3
  8
0
 10
94.759092016595332
 20
185.5586887314204
 30
0.0
 11
94.759092016595332
 21
173.92868873142041
 31
0.0
  0
LINE
  5
128C4
  8
0
 10
97.259092016595332
 20
186.0020220647537
 30
0.0
 11
97.259092016595332
 21
173.48535539808699
 31
0.0
  0
POLYLINE
  5
128C5
  8
0
 66
     1
 10
0.0
 20
0.0
 30
0.0
  0
VERTEX
  5
14679
  8
0
 10
102.49967230717991
 20
176.13043829674189
 30
0.0
  0
VERTEX
  5
1467A
  8
0
 10
102.5005295208107
 20
176.12723700374741
 30
0.0
  0
VERTEX
  5
1467B
  8
0
 10
102.50223912133509
 20
176.12083966635871
 30
0.0
  0
VERTEX
  5
1467C
  8
0
 10
102.5039422961713
 20
176.11444929870791
 30
0.0
  0
VERTEX
  5
1467D
  8
0
 10
102.5047914776755
 20
176.11125671790771
 30
0.0
  0
SEQEND
  5
1467E
  8
0
  0
POLYLINE
  5
128C6
  8
0
 66
     1
 10
0.0
 20
0.0
 30
0.0
  0
VERTEX
  5
1467F
  8
0
 10
102.5047914776755
 20
176.11125671790771
 30
0.0
  0
VERTEX
  5
14680
  8
0
 10
102.58398705364741
 20
175.7906730305337
 30
0.0
  0
VERTEX
  5
14681
  8
0
 10
102.6963473952128
 20
175.18778833573421
 30
0.0
  0
VERTEX
  5
14682
  8
0
 10
102.7520386944707
 20
174.6111167507774
 30
0.0
  0
VERTEX
  5
14683
  8
0
 10
102.7590920165953
 20
174.32381307940281
 30
0.0
  0
SEQEND
  5
14684
  8
0
  0
POLYLINE
  5
128C7
  8
0
 66
     1
 10
0.0
 20
0.0
 30
0.0
  0
VERTEX
  5
14685
  8
0
 10
102.7590920165953
 20
174.32381307940281
 30
0.0
  0
VERTEX
  5
14686
  8
0
 10
102.7519018829753
 20
174.03373050808329
 30
0.0
  0
VERTEX
  5
14687
  8
0
 10
102.6951272991909
 20
173.45132233650759
 30
0.0
  0
VERTEX
  5
14688
  8
0
 10
102.58051696043771
 20
172.8417617577357
 30
0.0
  0
VERTEX
  5
14689
  8
0
 10
102.49967230717991
 20
172.51718786206351
 30
0.0
  0
SEQEND
  5
1468A
  8
0
  0
POLYLINE
  5
128C8
  8
0
 66
     1
 10
0.0
 20
0.0
 30
0.0
  0
VERTEX
  5
1468B
  8
0
 10
97.518511726010729
 20
172.51718786206351
 30
0.0
  0
VERTEX
  5
1468C
  8
0
 10
97.437667072752916
 20
172.8417617577357
 30
0.0
  0
VERTEX
  5
1468D
  8
0
 10
97.323056733999707
 20
173.45132233650759
 30
0.0
  0
VERTEX
  5
1468E
  8
0
 10
97.266282150215375
 20
174.03373050808329
 30
0.0
  0
VERTEX
  5
1468F
  8
0
 10
97.259092016595332
 20
174.32381307940281
 30
0.0
  0
SEQEND
  5
14690
  8
0
  0
POLYLINE
  5
128C9
  8
0
 66
     1
 10
0.0
 20
0.0
 30
0.0
  0
VERTEX
  5
14691
  8
0
 10
97.259092016595332
 20
174.32381307940281
 30
0.0
  0
VERTEX
  5
14692
  8
0
 10
97.266282150215375
 20
174.61389565072221
 30
0.0
  0
VERTEX
  5
14693
  8
0
 10
97.323056733999707
 20
175.19630382229789
 30
0.0
  0
VERTEX
  5
14694
  8
0
 10
97.437667072752916
 20
175.8058644010697
 30
0.0
  0
VERTEX
  5
14695
  8
0
 10
97.518511726010729
 20
176.13043829674189
 30
0.0
  0
SEQEND
  5
14696
  8
0
  0
LINE
  5
128CA
  8
0
 10
102.49967230717991
 20
172.51718786206351
 30
0.0
 11
97.518511726010729
 21
172.51718786206351
 31
0.0
  0
POLYLINE
  5
128CB
  8
0
 66
     1
 10
0.0
 20
0.0
 30
0.0
  0
VERTEX
  5
14697
  8
0
 10
102.49967230717991
 20
176.13043829674189
 30
0.0
  0
VERTEX
  5
14698
  8
0
 10
102.58051696043771
 20
176.77958608808629
 30
0.0
  0
VERTEX
  5
14699
  8
0
 10
102.6951272991909
 20
177.9987072456301
 30
0.0
  0
VERTEX
  5
1469A
  8
0
 10
102.7519018829753
 20
179.1635235887814
 30
0.0
  0
VERTEX
  5
1469B
  8
0
 10
102.7590920165953
 20
179.74368873142029
 30
0.0
  0
SEQEND
  5
1469C
  8
0
  0
POLYLINE
  5
128CC
  8
0
 66
     1
 10
0.0
 20
0.0
 30
0.0
  0
VERTEX
  5
1469D
  8
0
 10
102.7590920165953
 20
179.74368873142029
 30
0.0
  0
VERTEX
  5
1469E
  8
0
 10
102.7519018829753
 20
180.3238538740593
 30
0.0
  0
VERTEX
  5
1469F
  8
0
 10
102.6951272991909
 20
181.4886702172106
 30
0.0
  0
VERTEX
  5
146A0
  8
0
 10
102.58051696043771
 20
182.70779137475441
 30
0.0
  0
VERTEX
  5
146A1
  8
0
 10
102.49967230717991
 20
183.35693916609881
 30
0.0
  0
SEQEND
  5
146A2
  8
0
  0
POLYLINE
  5
128CD
  8
0
 66
     1
 10
0.0
 20
0.0
 30
0.0
  0
VERTEX
  5
146A3
  8
0
 10
97.518511726010729
 20
183.35693916609881
 30
0.0
  0
VERTEX
  5
146A4
  8
0
 10
97.437667072752916
 20
182.70779137475441
 30
0.0
  0
VERTEX
  5
146A5
  8
0
 10
97.323056733999707
 20
181.4886702172106
 30
0.0
  0
VERTEX
  5
146A6
  8
0
 10
97.266282150215375
 20
180.3238538740593
 30
0.0
  0
VERTEX
  5
146A7
  8
0
 10
97.259092016595332
 20
179.74368873142029
 30
0.0
  0
SEQEND
  5
146A8
  8
0
  0
POLYLINE
  5
128CE
  8
0
 66
     1
 10
0.0
 20
0.0
 30
0.0
  0
VERTEX
  5
146A9
  8
0
 10
97.259092016595332
 20
179.74368873142029
 30
0.0
  0
VERTEX
  5
146AA
  8
0
 10
97.266282150215375
 20
179.1635235887814
 30
0.0
  0
VERTEX
  5
146AB
  8
0
 10
97.323056733999707
 20
177.9987072456301
 30
0.0
  0
VERTEX
  5
146AC
  8
0
 10
97.437667072752916
 20
176.77958608808629
 30
0.0
  0
VERTEX
  5
146AD
  8
0
 10
97.518511726010729
 20
176.13043829674189
 30
0.0
  0
SEQEND
  5
146AE
  8
0
  0
POLYLINE
  5
128CF
  8
0
 66
     1
 10
0.0
 20
0.0
 30
0.0
  0
VERTEX
  5
146AF
  8
0
 10
97.259092016595332
 20
185.16356438343789
 30
0.0
  0
VERTEX
  5
146B0
  8
0
 10
97.266282150215375
 20
185.4536469547574
 30
0.0
  0
VERTEX
  5
146B1
  8
0
 10
97.323056733999707
 20
186.03605512633311
 30
0.0
  0
VERTEX
  5
146B2
  8
0
 10
97.437667072752916
 20
186.645615705105
 30
0.0
  0
VERTEX
  5
146B3
  8
0
 10
97.518511726010729
 20
186.97018960077719
 30
0.0
  0
SEQEND
  5
146B4
  8
0
  0
POLYLINE
  5
128D0
  8
0
 66
     1
 10
0.0
 20
0.0
 30
0.0
  0
VERTEX
  5
146B5
  8
0
 10
102.49967230717991
 20
186.97018960077719
 30
0.0
  0
VERTEX
  5
146B6
  8
0
 10
102.58051696043771
 20
186.645615705105
 30
0.0
  0
VERTEX
  5
146B7
  8
0
 10
102.6951272991909
 20
186.03605512633311
 30
0.0
  0
VERTEX
  5
146B8
  8
0
 10
102.7519018829753
 20
185.4536469547574
 30
0.0
  0
VERTEX
  5
146B9
  8
0
 10
102.7590920165953
 20
185.16356438343789
 30
0.0
  0
SEQEND
  5
146BA
  8
0
  0
POLYLINE
  5
128D1
  8
0
 66
     1
 10
0.0
 20
0.0
 30
0.0
  0
VERTEX
  5
146BB
  8
0
 10
102.7590920165953
 20
185.16356438343789
 30
0.0
  0
VERTEX
  5
146BC
  8
0
 10
102.7519018829753
 20
184.87348181211851
 30
0.0
  0
VERTEX
  5
146BD
  8
0
 10
102.6951272991909
 20
184.29107364054281
 30
0.0
  0
VERTEX
  5
146BE
  8
0
 10
102.58051696043771
 20
183.681513061771
 30
0.0
  0
VERTEX
  5
146BF
  8
0
 10
102.49967230717991
 20
183.35693916609881
 30
0.0
  0
SEQEND
  5
146C0
  8
0
  0
POLYLINE
  5
128D2
  8
0
 66
     1
 10
0.0
 20
0.0
 30
0.0
  0
VERTEX
  5
146C1
  8
0
 10
97.518511726010729
 20
183.35693916609881
 30
0.0
  0
VERTEX
  5
146C2
  8
0
 10
97.437667072752916
 20
183.681513061771
 30
0.0
  0
VERTEX
  5
146C3
  8
0
 10
97.323056733999707
 20
184.29107364054281
 30
0.0
  0
VERTEX
  5
146C4
  8
0
 10
97.266282150215375
 20
184.87348181211851
 30
0.0
  0
VERTEX
  5
146C5
  8
0
 10
97.259092016595332
 20
185.16356438343789
 30
0.0
  0
SEQEND
  5
146C6
  8
0
  0
LINE
  5
128D3
  8
0
 10
102.49967230717991
 20
186.97018960077719
 30
0.0
 11
97.518511726010729
 21
186.97018960077719
 31
0.0
  0
LINE
  5
128D4
  8
0
 10
102.49967230717991
 20
183.35693916609881
 30
0.0
 11
97.518511726010729
 21
183.35693916609881
 31
0.0
  0
LINE
  5
128D5
  8
0
 10
102.49967230717991
 20
176.13043829674189
 30
0.0
 11
102.4859505400736
 21
176.13043829674189
 31
0.0
  0
LINE
  5
128D6
  8
0
 10
102.4859505400736
 20
176.13043829674189
 30
0.0
 11
97.518511726010729
 21
176.13043829674189
 31
0.0
  0
ARC
  5
128D8
  8
0
 10
138.2590920165953
 20
144.0365465887061
 30
0.0
 40
1.9999999999999849
 50
290.0051900881877
 51
0.0
  0
ARC
  5
128D9
  8
0
 10
125.2590920165953
 20
179.74368873142021
 30
0.0
 40
39.999999999999922
 50
249.9948099118123
 51
290.0051900881877
  0
ARC
  5
128DC
  8
0
 10
112.2590920165953
 20
144.0365465887061
 30
0.0
 40
1.999999999999966
 50
180.0
 51
249.99480991186579
  0
LINE
  5
128DD
  8
0
 10
140.2590920165953
 20
214.4310966868303
 30
0.0
 11
140.2590920165953
 21
144.0365465887061
 31
0.0
  0
LINE
  5
128DE
  8
0
 10
110.2590920165953
 20
214.4310966868303
 30
0.0
 11
110.2590920165953
 21
144.0365465887061
 31
0.0
  0
LINE
  5
128DF
  8
1
 10
125.2590920165953
 20
254.6557636173147
 30
0.0
 11
125.2590920165953
 21
131.75027300998019
 31
0.0
  0
LINE
  5
128E0
  8
1
 10
83.847017130700806
 20
179.74368873142029
 30
0.0
 11
166.6711669024898
 21
179.74368873142029
 31
0.0
  0
LINE
  5
128E1
  8
3
 10
91.759092016595346
 20
182.97668873142041
 30
0.0
 11
94.759092016595332
 21
182.97668873142041
 31
0.0
  0
LINE
  5
128E2
  8
3
 10
91.759092016595346
 20
176.51068873142029
 30
0.0
 11
94.759092016595332
 21
176.51068873142029
 31
0.0
  0
LINE
  5
128E3
  8
1
 10
512.54553995148353
 20
254.6557636173147
 30
0.0
 11
512.54553995148353
 21
131.75027300998019
 31
0.0
  0
LINE
  5
128E4
  8
1
 10
471.13346506558889
 20
179.74368873142029
 30
0.0
 11
553.95761483737806
 21
179.74368873142029
 31
0.0
  0
LINE
  5
12923
  8
0
 10
493.0455399515007
 20
214.4310966868303
 30
0.0
 11
497.5455399515007
 21
214.4310966868303
 31
0.0
  0
LINE
  5
12925
  8
0
 10
527.54553995150081
 20
214.4310966868303
 30
0.0
 11
532.04553995150081
 21
214.4310966868303
 31
0.0
  0
LINE
  5
12927
  8
0
 10
144.2590920165953
 20
214.4310966868303
 30
0.0
 11
106.2590920165953
 21
214.4310966868303
 31
0.0
  0
LINE
  5
12928
  8
0
 10
144.2590920165953
 20
214.4310966868303
 30
0.0
 11
144.2590920165953
 21
222.47301059164559
 31
0.0
  0
LINE
  5
12929
  8
0
 10
141.25909201659579
 20
222.47301059164559
 30
0.0
 11
141.25909201659579
 21
223.60214967266191
 31
0.0
  0
LINE
  5
1292A
  8
0
 10
144.2590920165953
 20
222.47301059164559
 30
0.0
 11
106.2590920165953
 21
222.47301059164559
 31
0.0
  0
LINE
  5
1292B
  8
0
 10
106.2590920165953
 20
214.4310966868303
 30
0.0
 11
106.2590920165953
 21
222.47301059164559
 31
0.0
  0
LINE
  5
1292C
  8
0
 10
141.25909201659579
 20
223.60214967266191
 30
0.0
 11
109.25909201659481
 21
223.60214967266191
 31
0.0
  0
LINE
  5
1292D
  8
0
 10
109.25909201659481
 20
222.47301059164559
 30
0.0
 11
109.25909201659481
 21
223.60214967266191
 31
0.0
  0
LINE
  5
1292E
  8
0
 10
106.2590920165953
 20
217.03581935183391
 30
0.0
 11
144.2590920165953
 21
217.03581935183391
 31
0.0
  0
LINE
  5
1292F
  8
0
 10
102.7590920165953
 20
219.74368873142041
 30
0.0
 11
106.2590920165953
 21
219.74368873142041
 31
0.0
  0
LINE
  5
12930
  8
0
 10
144.2590920165953
 20
219.74368873142041
 30
0.0
 11
147.7590920165953
 21
219.74368873142041
 31
0.0
  0
LINE
  5
12B78
  8
0
 10
318.40231598404807
 20
406.57567298692788
 30
0.0
 11
318.40231598404807
 21
361.57567298692788
 31
0.0
  0
LINE
  5
141F6
  8
2
 10
543.0455399515007
 20
200.82368636537601
 30
0.0
 11
543.0455399515007
 21
232.74368873142041
 31
0.0
  0
LINE
  5
141F7
  8
2
 10
482.04553995150081
 20
232.74368873142041
 30
0.0
 11
482.04553995150081
 21
200.82368636537601
 31
0.0
  0
LINE
  5
141F8
  8
2
 10
518.5455399515007
 20
232.74368873142041
 30
0.0
 11
518.5455399515007
 21
246.74368873142041
 31
0.0
  0
LINE
  5
141F9
  8
2
 10
506.54553995150081
 20
246.74368873142041
 30
0.0
 11
506.54553995150081
 21
232.74368873142041
 31
0.0
  0
LINE
  5
141FA
  8
2
 10
482.04553995150081
 20
232.74368873142041
 30
0.0
 11
543.0455399515007
 21
232.74368873142041
 31
0.0
  0
LINE
  5
14255
  8
0
 10
325.16064931738129
 20
412.07567298692788
 30
0.0
 11
325.16064931738129
 21
406.57567298692788
 31
0.0
  0
LINE
  5
14256
  8
0
 10
312.6439826507148
 20
412.07567298692788
 30
0.0
 11
312.6439826507148
 21
406.57567298692788
 31
0.0
  0
LINE
  5
14257
  8
0
 10
312.6439826507148
 20
360.97567298692792
 30
0.0
 11
312.6439826507148
 21
356.27567298692787
 31
0.0
  0
LINE
  5
14258
  8
0
 10
325.16064931738129
 20
360.97567298692792
 30
0.0
 11
325.16064931738129
 21
356.27567298692787
 31
0.0
  0
TEXT
  5
142BA
  8
0
 62
     3
 10
0.0
 20
0.0
 30
0.0
 40
10.0
  1
CAFF-080FBF
  7
STANDARD1
  0
ENDSEC
  0
EOF
