  0
SECTION
  2
HEADER
  9
$ACADVER
  1
AC1009
  9
$INSBASE
 10
0.0
 20
0.0
 30
0.0
  9
$EXTMIN
 10
0.0
 20
-2.960436562073669
 30
0.0
  9
$EXTMAX
 10
562.04511071007073
 20
421.81803182230038
 30
0.0
  9
$LIMMIN
 10
0.0
 20
0.0
  9
$LIMMAX
 10
375.0
 20
270.0
  9
$ORTHOMODE
 70
     1
  9
$REGENMODE
 70
     1
  9
$FILLMODE
 70
     1
  9
$QTEXTMODE
 70
     0
  9
$MIRRTEXT
 70
     1
  9
$DRAGMODE
 70
     2
  9
$LTSCALE
 40
10.0
  9
$OSMODE
 70
    37
  9
$ATTMODE
 70
     1
  9
$TEXTSIZE
 40
5.0
  9
$TRACEWID
 40
0.05
  9
$TEXTSTYLE
  7
STANDARD
  9
$CLAYER
  8
0
  9
$CELTYPE
  6
BYLAYER
  9
$CECOLOR
 62
   256
  9
$DIMSCALE
 40
1.0
  9
$DIMASZ
 40
3.0
  9
$DIMEXO
 40
2.0
  9
$DIMDLI
 40
0.38
  9
$DIMRND
 40
0.0
  9
$DIMDLE
 40
0.0
  9
$DIMEXE
 40
2.0
  9
$DIMTP
 40
0.0
  9
$DIMTM
 40
0.0
  9
$DIMTXT
 40
3.2000000000000002
  9
$DIMCEN
 40
0.0
  9
$DIMTSZ
 40
0.0
  9
$DIMTOL
 70
     0
  9
$DIMLIM
 70
     0
  9
$DIMTIH
 70
     0
  9
$DIMTOH
 70
     0
  9
$DIMSE1
 70
     0
  9
$DIMSE2
 70
     0
  9
$DIMTAD
 70
     1
  9
$DIMZIN
 70
     8
  9
$DIMBLK
  1

  9
$DIMASO
 70
     0
  9
$DIMSHO
 70
     0
  9
$DIMPOST
  1

  9
$DIMAPOST
  1

  9
$DIMALT
 70
     0
  9
$DIMALTD
 70
     2
  9
$DIMALTF
 40
25.399999999999999
  9
$DIMLFAC
 40
1.0
  9
$DIMTOFL
 70
     0
  9
$DIMTVP
 40
1.6000000000000001
  9
$DIMTIX
 70
     1
  9
$DIMSOXD
 70
     0
  9
$DIMSAH
 70
     0
  9
$DIMBLK1
  1

  9
$DIMBLK2
  1

  9
$DIMSTYLE
  2
STANDARD
  9
$DIMCLRD
 70
     0
  9
$DIMCLRE
 70
     0
  9
$DIMCLRT
 70
     0
  9
$DIMTFAC
 40
1.0
  9
$DIMGAP
 40
1.1999999999999991
  9
$LUNITS
 70
     2
  9
$LUPREC
 70
     4
  9
$SKETCHINC
 40
0.1
  9
$FILLETRAD
 40
0.0
  9
$AUNITS
 70
     0
  9
$AUPREC
 70
     4
  9
$MENU
  1
ACAD
  9
$ELEVATION
 40
0.0
  9
$PELEVATION
 40
0.0
  9
$THICKNESS
 40
0.0
  9
$LIMCHECK
 70
     0
  9
$BLIPMODE
 70
     0
  9
$CHAMFERA
 40
0.0
  9
$CHAMFERB
 40
0.0
  9
$SKPOLY
 70
     0
  9
$TDCREATE
 40
2448055.7149187499
  9
$TDUPDATE
 40
2459507.4358852771
  9
$TDINDWG
 40
2.0693116088000001
  9
$TDUSRTIMER
 40
2.0693116088000001
  9
$USRTIMER
 70
     1
  9
$ANGBASE
 50
0.0
  9
$ANGDIR
 70
     0
  9
$PDMODE
 70
     0
  9
$PDSIZE
 40
0.0
  9
$PLINEWID
 40
0.0
  9
$COORDS
 70
     1
  9
$SPLFRAME
 70
     0
  9
$SPLINETYPE
 70
     6
  9
$SPLINESEGS
 70
     8
  9
$ATTDIA
 70
     0
  9
$ATTREQ
 70
     1
  9
$HANDLING
 70
     1
  9
$HANDSEED
  5
14626
  9
$SURFTAB1
 70
     6
  9
$SURFTAB2
 70
     6
  9
$SURFTYPE
 70
     6
  9
$SURFU
 70
     6
  9
$SURFV
 70
     6
  9
$UCSNAME
  2

  9
$UCSORG
 10
0.0
 20
0.0
 30
0.0
  9
$UCSXDIR
 10
1.0
 20
0.0
 30
0.0
  9
$UCSYDIR
 10
0.0
 20
1.0
 30
0.0
  9
$PUCSNAME
  2

  9
$PUCSORG
 10
0.0
 20
0.0
 30
0.0
  9
$PUCSXDIR
 10
1.0
 20
0.0
 30
0.0
  9
$PUCSYDIR
 10
0.0
 20
1.0
 30
0.0
  9
$USERI1
 70
     0
  9
$USERI2
 70
     0
  9
$USERI3
 70
     0
  9
$USERI4
 70
     0
  9
$USERI5
 70
     0
  9
$USERR1
 40
0.0
  9
$USERR2
 40
0.0
  9
$USERR3
 40
0.0
  9
$USERR4
 40
0.0
  9
$USERR5
 40
0.0
  9
$WORLDVIEW
 70
     1
  9
$SHADEDGE
 70
     3
  9
$SHADEDIF
 70
    70
  9
$TILEMODE
 70
     1
  9
$MAXACTVP
 70
    16
  9
$PLIMCHECK
 70
     0
  9
$PEXTMIN
 10
1.0000000000000000E+020
 20
1.0000000000000000E+020
 30
1.0000000000000000E+020
  9
$PEXTMAX
 10
-1.0000000000000000E+020
 20
-1.0000000000000000E+020
 30
-1.0000000000000000E+020
  9
$PLIMMIN
 10
0.0
 20
0.0
  9
$PLIMMAX
 10
12.0
 20
9.0
  9
$UNITMODE
 70
     0
  9
$VISRETAIN
 70
     0
  9
$PLINEGEN
 70
     1
  9
$PSLTSCALE
 70
     0
  0
ENDSEC
  0
SECTION
  2
TABLES
  0
TABLE
  2
VPORT
 70
     1
  0
VPORT
  2
*ACTIVE
 70
     0
 10
0.0
 20
0.0
 11
1.0
 21
1.0
 12
404.17354010679622
 22
209.4286384354466
 13
0.0
 23
0.0
 14
5.0
 24
5.0
 15
10.0
 25
10.0
 16
0.0
 26
0.0
 36
1.0
 17
0.0
 27
0.0
 37
0.0
 40
428.7101947259136
 41
2.6019575856443709
 42
50.0
 43
0.0
 44
0.0
 50
0.0
 51
0.0
 71
     0
 72
   500
 73
     1
 74
     1
 75
     0
 76
     0
 77
     0
 78
     2
  0
ENDTAB
  0
TABLE
  2
LTYPE
 70
     4
  0
LTYPE
  2
CONTINUOUS
 70
     0
  3
実線
 72
    65
 73
     0
 40
0.0
  0
LTYPE
  2
CENTER
 70
     0
  3
____ _ ____ _ ____ _ ____ _ ____ _ ____ _ ____
 72
    65
 73
     4
 40
2.0
 49
1.25
 49
-0.25
 49
0.25
 49
-0.25
  0
LTYPE
  2
HIDDEN
 70
     0
  3
_ _ _ _ _ _ _ _ _ _ _ _ _ _ _ _ _ _ _ _ _ _ _
 72
    65
 73
     2
 40
0.375
 49
0.25
 49
-0.125
  0
LTYPE
  2
PHANTOM2
 70
     0
  3
___ _ _ ___ _ _ ___ _ _ ___ _ _
 72
    65
 73
     6
 40
1.25
 49
0.625
 49
-0.125
 49
0.125
 49
-0.125
 49
0.125
 49
-0.125
  0
ENDTAB
  0
TABLE
  2
LAYER
 70
     5
  0
LAYER
  2
0
 70
     0
 62
     7
  6
CONTINUOUS
  0
LAYER
  2
1
 70
     0
 62
     1
  6
CENTER
  0
LAYER
  2
2
 70
     0
 62
     2
  6
HIDDEN
  0
LAYER
  2
DEFPOINTS
 70
     0
 62
     7
  6
CONTINUOUS
  0
LAYER
  2
3
 70
     0
 62
     3
  6
CONTINUOUS
  0
ENDTAB
  0
TABLE
  2
STYLE
 70
     3
  0
STYLE
  2
STANDARD
 70
     0
 40
0.0
 41
1.0
 50
0.0
 71
     0
 42
5.0
  3
simplex.shx
  4
bigfont.shx
  0
STYLE
  2
07500
 70
     0
 40
0.0
 41
0.75
 50
0.0
 71
     0
 42
0.2
  3
simplex.shx
  4
bigfont.shx
  0
STYLE
  2
STANDARD1
 70
     0
 40
0.0
 41
1.0
 50
0.0
 71
     0
 42
3.0
  3
txt
  4

  0
ENDTAB
  0
TABLE
  2
VIEW
 70
     2
  0
VIEW
  2
ALL
 70
     0
 40
270.0
 10
220.99159663865549
 20
135.0
 41
0.0
 11
0.0
 21
0.0
 31
1.0
 12
0.0
 22
0.0
 32
0.0
 42
0.0
 43
0.0
 44
0.0
 50
0.0
 71
     0
  0
VIEW
  2
OLE1
 70
     0
 40
168.2487151179721
 10
2892.3009567448912
 20
702.51600084347126
 41
162.5749581879237
 11
0.0
 21
0.0
 31
1.0
 12
0.0
 22
0.0
 32
0.0
 42
50.0
 43
0.0
 44
0.0
 50
0.0
 71
     0
  0
ENDTAB
  0
TABLE
  2
UCS
 70
     0
  0
ENDTAB
  0
TABLE
  2
APPID
 70
    48
  0
APPID
  2
ACAD
 70
     0
  0
APPID
  2
DCO15
 70
     0
  0
APPID
  2
GENIUS_GENOREF_13
 70
     0
  0
APPID
  2
GENIUS_GENOENT_13
 70
     0
  0
APPID
  2
GENIUS_GENBH_13
 70
     0
  0
APPID
  2
GENIUS_GENOBJ_13
 70
     0
  0
APPID
  2
GENIUS_GENODEF_13
 70
     0
  0
APPID
  2
GENIUS_GENOLIS_13
 70
     0
  0
APPID
  2
GENIUS_GENOBJ-NBEHI-BHF_13
 70
     0
  0
APPID
  2
GENIUS_GENOBJ-NBEHI-BHB_13
 70
     0
  0
APPID
  2
GENIUS_GENOBJ-F-PART_13
 70
     0
  0
APPID
  2
GENIUS_GEFSTDP_13
 70
     0
  0
APPID
  2
GENIUS_GENOBJ-N-RSSYM_13
 70
     0
  0
APPID
  2
GENIUS_GENSYMENT_13
 70
     0
  0
APPID
  2
GENIUS_GENOBJ-N-TIT_13
 70
     0
  0
APPID
  2
GENIUS_GENTITLE_13
 70
     0
  0
APPID
  2
GENIUS_GENZVEED_13
 70
     0
  0
APPID
  2
GENIUS_GENOBJ-N-LEADER_13
 70
     0
  0
APPID
  2
GENIUS_GENOBJ-N-FIL_13
 70
     0
  0
APPID
  2
GENIUS_GENOBJ-N-SEC_13
 70
     0
  0
APPID
  2
GENIUS_GENOBJ-N-CRS_13
 70
     0
  0
APPID
  2
GENIUS_GENOBJ-N-ZOO_13
 70
     0
  0
APPID
  2
GENIUS_GENZOO_13
 70
     0
  0
APPID
  2
GENIUS_GENOBJ-F-TOL_13
 70
     0
  0
APPID
  2
GENIUS_GENFIL_13
 70
     0
  0
APPID
  2
GENIUS_GENOBJ-N-CHA_13
 70
     0
  0
APPID
  2
_CALL_MAC$
 70
     0
  0
APPID
  2
ASM_BASE
 70
     0
  0
APPID
  2
ASM_EXPLO_VER_2_00
 70
     0
  0
APPID
  2
ASM_CADM_VER_12_00
 70
     0
  0
APPID
  2
ASM_BASEFORO
 70
     0
  0
APPID
  2
ASM_BASETRAVI
 70
     0
  0
APPID
  2
ASM_BASETRAVI1
 70
     0
  0
APPID
  2
ASM_GRUPPI
 70
     0
  0
APPID
  2
ASM_CADM_ALBERO
 70
     0
  0
APPID
  2
ASM_GOLE
 70
     0
  0
APPID
  2
ACAD_MLEADERVER
 70
     0
  0
APPID
  2
ACAD_DSTYLE_DIMJAG
 70
     0
  0
APPID
  2
ACAD_DSTYLE_DIMTALN
 70
     0
  0
APPID
  2
ACAD_EXEMPT_FROM_CAD_STANDARDS
 70
     0
  0
APPID
  2
ACAD_DSTYLE_DIMRADIAL_EXTENSION
 70
     0
  0
APPID
  2
ACAD_PSEXT
 70
     0
  0
APPID
  2
ACAD_DSTYLE_DIMBREAK
 70
     0
  0
APPID
  2
ACAECLAYERSTANDARD
 70
     0
  0
APPID
  2
ACCMTRANSPARENCY
 70
     0
  0
APPID
  2
GRADIENTCOLOR1ACI
 70
     0
  0
APPID
  2
GRADIENTCOLOR2ACI
 70
     0
  0
APPID
  2
ACAD_NAV_VCDISPLAY
 70
     0
  0
ENDTAB
  0
TABLE
  2
DIMSTYLE
 70
     1
  0
DIMSTYLE
  2
STANDARD
 70
     0
  3

  4

  5

  6

  7

 40
1.0
 41
0.18
 42
0.0625
 43
0.38
 44
0.18
 45
0.0
 46
0.0
 47
0.0
 48
0.0
140
0.18
141
0.09
142
0.0
143
25.399999999999999
144
1.0
145
0.0
146
1.0
147
0.09
 71
     0
 72
     0
 73
     1
 74
     1
 75
     0
 76
     0
 77
     0
 78
     0
170
     0
171
     2
172
     0
173
     0
174
     0
175
     0
176
     0
177
     0
178
     0
  0
ENDTAB
  0
ENDSEC
  0
SECTION
  2
BLOCKS
  0
BLOCK
  8
0
  2
$MODEL_SPACE
 70
     0
 10
0.0
 20
0.0
 30
0.0
  3
$MODEL_SPACE
  1

  0
ENDBLK
  5
36
  8
0
  0
BLOCK
 67
     1
  8
0
  2
$PAPER_SPACE
 70
     0
 10
0.0
 20
0.0
 30
0.0
  3
$PAPER_SPACE
  1

  0
ENDBLK
  5
34
 67
     1
  8
0
  0
ENDSEC
  0
SECTION
  2
ENTITIES
  0
LINE
  5
D711
  8
0
 10
364.90231598404762
 20
264.44368873142201
 30
0.0
 11
364.90231598404762
 21
267.74368873142208
 31
0.0
  0
LINE
  5
D712
  8
0
 10
342.90231598404762
 20
267.74368873142208
 30
0.0
 11
342.90231598404762
 21
264.44368873142201
 31
0.0
  0
ARC
  5
D713
  8
0
 10
325.87731598404753
 20
261.44368873142213
 30
0.0
 40
2.9999999999999849
 50
90.0
 51
180.0
  0
ARC
  5
D714
  8
0
 10
381.92731598404771
 20
261.44368873142213
 30
0.0
 40
2.999999999999992
 50
0.0
 51
90.0
  0
LINE
  5
D715
  8
0
 10
384.92731598404771
 20
260.94368873142213
 30
0.0
 11
384.92731598404771
 21
261.44368873142213
 31
0.0
  0
LINE
  5
D716
  8
0
 10
322.87731598404753
 20
261.44368873142213
 30
0.0
 11
322.87731598404753
 21
260.94368873142213
 31
0.0
  0
ARC
  5
D717
  8
0
 10
321.40231598404762
 20
256.94368873142213
 30
0.0
 40
4.0000000000000142
 50
90.0
 51
180.0
  0
ARC
  5
D718
  8
0
 10
386.40231598404762
 20
256.94368873142213
 30
0.0
 40
4.0000000000000284
 50
0.0
 51
90.0
  0
LINE
  5
D719
  8
0
 10
390.40231598404762
 20
255.9436887314221
 30
0.0
 11
390.40231598404762
 21
256.94368873142213
 31
0.0
  0
LINE
  5
D71A
  8
0
 10
317.40231598404762
 20
256.94368873142213
 30
0.0
 11
317.40231598404762
 21
255.9436887314221
 31
0.0
  0
LINE
  5
D71B
  8
0
 10
320.90231598404762
 20
255.9436887314221
 30
0.0
 11
320.90231598404762
 21
253.9436887314221
 31
0.0
  0
LINE
  5
D71C
  8
2
 10
384.40231598404762
 20
252.67963626432851
 30
0.0
 11
384.40231598404762
 21
253.74368873142211
 31
0.0
  0
LINE
  5
D71E
  8
2
 10
359.90231598404762
 20
253.74368873142211
 30
0.0
 11
359.90231598404762
 21
267.74368873142208
 31
0.0
  0
LINE
  5
D71F
  8
2
 10
347.90231598404762
 20
267.74368873142208
 30
0.0
 11
347.90231598404762
 21
253.74368873142211
 31
0.0
  0
LINE
  5
D720
  8
0
 10
342.90231598404762
 20
267.74368873142208
 30
0.0
 11
364.90231598404762
 21
267.74368873142208
 31
0.0
  0
LINE
  5
D721
  8
0
 10
325.87731598404753
 20
264.44368873142201
 30
0.0
 11
381.92731598404771
 21
264.44368873142201
 31
0.0
  0
LINE
  5
D723
  8
0
 10
321.40231598404762
 20
260.94368873142213
 30
0.0
 11
386.40231598404762
 21
260.94368873142213
 31
0.0
  0
LINE
  5
D725
  8
0
 10
317.40231598404762
 20
255.9436887314221
 30
0.0
 11
390.40231598404762
 21
255.9436887314221
 31
0.0
  0
LINE
  5
D726
  8
0
 10
328.04211490207632
 20
253.9436887314221
 30
0.0
 11
314.40231598404762
 21
253.9436887314221
 31
0.0
  0
LINE
  5
D727
  8
0
 10
328.04211490207632
 20
253.9436887314221
 30
0.0
 11
328.04211490207632
 21
180.7833212407734
 31
0.0
  0
LINE
  5
D728
  8
0
 10
314.40231598404762
 20
253.9436887314221
 30
0.0
 11
314.40231598404762
 21
250.24368873142211
 31
0.0
  0
POLYLINE
  5
D729
  8
0
 66
     1
 10
0.0
 20
0.0
 30
0.0
  0
VERTEX
  5
14213
  8
0
 10
331.54124455342941
 20
183.66311201779891
 30
0.0
  0
VERTEX
  5
14214
  8
0
 10
331.80266291900398
 20
184.00442532223821
 30
0.0
  0
VERTEX
  5
14215
  8
0
 10
332.33308678426459
 20
184.6969578526421
 30
0.0
  0
VERTEX
  5
14216
  8
0
 10
332.87342320679539
 20
185.40243242585069
 30
0.0
  0
VERTEX
  5
14217
  8
0
 10
333.14723120123199
 20
185.75992188975081
 30
0.0
  0
VERTEX
  5
14218
  8
0
 10
333.42342386452168
 20
186.1205248273526
 30
0.0
  0
VERTEX
  5
14219
  8
0
 10
333.98283599398292
 20
186.85090504386869
 30
0.0
  0
VERTEX
  5
1421A
  8
0
 10
334.55140250649453
 20
187.5932374150164
 30
0.0
  0
VERTEX
  5
1421B
  8
0
 10
335.12886210629631
 20
188.34718078756879
 30
0.0
  0
VERTEX
  5
1421C
  8
0
 10
335.7149494106398
 20
189.1123886722385
 30
0.0
  0
VERTEX
  5
1421D
  8
0
 10
336.30939507174571
 20
189.88850940291289
 30
0.0
  0
VERTEX
  5
1421E
  8
0
 10
336.60966706114232
 20
190.2805508140286
 30
0.0
  0
VERTEX
  5
1421F
  8
0
 10
336.91192590059109
 20
190.67518629826981
 30
0.0
  0
VERTEX
  5
14220
  8
0
 10
337.52226499245671
 20
191.47205782569699
 30
0.0
  0
VERTEX
  5
14221
  8
0
 10
338.14013185418531
 20
192.27875776744139
 30
0.0
  0
VERTEX
  5
14222
  8
0
 10
338.76524253308708
 20
193.0949153889116
 30
0.0
  0
VERTEX
  5
14223
  8
0
 10
339.39730974743497
 20
193.92015560905639
 30
0.0
  0
VERTEX
  5
14224
  8
0
 10
340.03604301849242
 20
194.75409917274021
 30
0.0
  0
VERTEX
  5
14225
  8
0
 10
340.35781780932263
 20
195.1742150926828
 30
0.0
  0
VERTEX
  5
14226
  8
0
 10
340.68114880400623
 20
195.59636282503729
 30
0.0
  0
VERTEX
  5
14227
  8
0
 10
341.33233063311133
 20
196.44655948736411
 30
0.0
  0
VERTEX
  5
14228
  8
0
 10
341.98928924257871
 20
197.30429843536831
 30
0.0
  0
VERTEX
  5
14229
  8
0
 10
342.31984059047318
 20
197.73587321240629
 30
0.0
  0
VERTEX
  5
1422A
  8
0
 10
342.65172271434858
 20
198.1691854784942
 30
0.0
  0
VERTEX
  5
1422B
  8
0
 10
343.31932661428073
 20
199.04082314114049
 30
0.0
  0
VERTEX
  5
1422C
  8
0
 10
343.99179413206639
 20
199.91881084532781
 30
0.0
  0
VERTEX
  5
1422D
  8
0
 10
344.32975525437632
 20
200.36005997935069
 30
0.0
  0
VERTEX
  5
1422E
  8
0
 10
344.66881622222542
 20
200.8027450947921
 30
0.0
  0
VERTEX
  5
1422F
  8
0
 10
345.35008174613682
 20
201.69221966041931
 30
0.0
  0
VERTEX
  5
14230
  8
0
 10
346.03527761502568
 20
202.5868257669355
 30
0.0
  0
VERTEX
  5
14231
  8
0
 10
346.72408893385318
 20
203.48615228076781
 30
0.0
  0
VERTEX
  5
14232
  8
0
 10
347.4161991460287
 20
204.38978589898881
 30
0.0
  0
VERTEX
  5
14233
  8
0
 10
348.11129017889198
 20
205.29731133925759
 30
0.0
  0
VERTEX
  5
14234
  8
0
 10
348.45985372678479
 20
205.75240322263261
 30
0.0
  0
VERTEX
  5
14235
  8
0
 10
348.80904258988858
 20
206.20831153067121
 30
0.0
  0
VERTEX
  5
14236
  8
0
 10
349.50913571337651
 20
207.12236780543719
 30
0.0
  0
VERTEX
  5
14237
  8
0
 10
350.211247807993
 20
208.03906009128119
 30
0.0
  0
VERTEX
  5
14238
  8
0
 10
350.91505620451932
 20
208.95796710449841
 30
0.0
  0
VERTEX
  5
14239
  8
0
 10
351.62023745416769
 20
209.87866654356361
 30
0.0
  0
VERTEX
  5
1423A
  8
0
 10
352.32646747722902
 20
210.80073528320699
 30
0.0
  0
VERTEX
  5
1423B
  8
0
 10
352.67987436801059
 20
211.26215073670431
 30
0.0
  0
VERTEX
  5
1423C
  8
0
 10
353.0334217120099
 20
211.72374956887069
 30
0.0
  0
VERTEX
  5
1423D
  8
0
 10
353.74077526399202
 20
212.6472852114525
 30
0.0
  0
VERTEX
  5
1423E
  8
0
 10
354.44820305514259
 20
213.57091778225049
 30
0.0
  0
VERTEX
  5
1423F
  8
0
 10
355.15537997331057
 20
214.49422280801789
 30
0.0
  0
VERTEX
  5
14240
  8
0
 10
355.86198102163922
 20
215.41677596603719
 30
0.0
  0
VERTEX
  5
14241
  8
0
 10
356.56768146792359
 20
216.33815327912649
 30
0.0
  0
VERTEX
  5
14242
  8
0
 10
356.92009259558063
 20
216.7982686433906
 30
0.0
  0
VERTEX
  5
14243
  8
0
 10
357.2721569938476
 20
217.2579313104861
 30
0.0
  0
VERTEX
  5
14244
  8
0
 10
357.97508384403091
 20
218.17568735829721
 30
0.0
  0
VERTEX
  5
14245
  8
0
 10
358.676138974818
 20
219.0909996499829
 30
0.0
  0
VERTEX
  5
14246
  8
0
 10
359.37500020273768
 20
220.0034475360417
 30
0.0
  0
VERTEX
  5
14247
  8
0
 10
360.07134635256898
 20
220.9126116833651
 30
0.0
  0
VERTEX
  5
14248
  8
0
 10
360.76485740494491
 20
221.81807426795049
 30
0.0
  0
VERTEX
  5
14249
  8
0
 10
361.1104501157929
 20
222.269287364132
 30
0.0
  0
VERTEX
  5
1424A
  8
0
 10
361.45521464342067
 20
222.71941916692009
 30
0.0
  0
VERTEX
  5
1424B
  8
0
 10
362.14210080095017
 20
223.6162321497585
 30
0.0
  0
VERTEX
  5
1424C
  8
0
 10
362.82520020568739
 20
224.50810106867991
 30
0.0
  0
VERTEX
  5
1424D
  8
0
 10
363.50419892606402
 20
225.3946160480391
 30
0.0
  0
VERTEX
  5
1424E
  8
0
 10
364.17878491505923
 20
226.27536967269759
 30
0.0
  0
VERTEX
  5
1424F
  8
0
 10
364.84864815360879
 20
227.149957175259
 30
0.0
  0
VERTEX
  5
14250
  8
0
 10
365.18171245011081
 20
227.58481291073821
 30
0.0
  0
VERTEX
  5
14251
  8
0
 10
365.5134807930803
 20
228.0179766220877
 30
0.0
  0
VERTEX
  5
14252
  8
0
 10
366.17297729675062
 20
228.8790290980256
 30
0.0
  0
VERTEX
  5
14253
  8
0
 10
366.8268345802212
 20
229.73271888972101
 30
0.0
  0
VERTEX
  5
14254
  8
0
 10
367.15155450536622
 20
230.15668003883499
 30
0.0
  0
VERTEX
  5
14255
  8
0
 10
367.47475215070563
 20
230.57865366748649
 30
0.0
  0
VERTEX
  5
14256
  8
0
 10
368.11643224512909
 20
231.41644466560149
 30
0.0
  0
VERTEX
  5
14257
  8
0
 10
368.75157996696862
 20
232.24570686097721
 30
0.0
  0
VERTEX
  5
14258
  8
0
 10
369.06661285020942
 20
232.65702040488
 30
0.0
  0
VERTEX
  5
14259
  8
0
 10
369.3799034217804
 20
233.06605915010141
 30
0.0
  0
VERTEX
  5
1425A
  8
0
 10
370.00111385134409
 20
233.87712452418211
 30
0.0
  0
VERTEX
  5
1425B
  8
0
 10
370.61492576636829
 20
234.6785302424089
 30
0.0
  0
VERTEX
  5
1425C
  8
0
 10
371.22105707769288
 20
235.46990800325341
 30
0.0
  0
VERTEX
  5
1425D
  8
0
 10
371.81922922592679
 20
236.2508941137296
 30
0.0
  0
VERTEX
  5
1425E
  8
0
 10
372.4091673094681
 20
237.02112965653569
 30
0.0
  0
VERTEX
  5
1425F
  8
0
 10
372.70096370153033
 20
237.40210514989539
 30
0.0
  0
VERTEX
  5
14260
  8
0
 10
372.99060021083778
 20
237.7802606550014
 30
0.0
  0
VERTEX
  5
14261
  8
0
 10
373.56326072127791
 20
238.52793823576519
 30
0.0
  0
VERTEX
  5
14262
  8
0
 10
374.12688566355382
 20
239.26381878910561
 30
0.0
  0
VERTEX
  5
14263
  8
0
 10
374.68121601290068
 20
239.9875641268537
 30
0.0
  0
VERTEX
  5
14264
  8
0
 10
375.2259970160635
 20
240.6988416378139
 30
0.0
  0
VERTEX
  5
14265
  8
0
 10
375.7609783083758
 20
241.3973244406223
 30
0.0
  0
VERTEX
  5
14266
  8
0
 10
376.02471705236673
 20
241.74166727981861
 30
0.0
  0
VERTEX
  5
14267
  8
0
 10
376.28591402881688
 20
242.08269153397089
 30
0.0
  0
VERTEX
  5
14268
  8
0
 10
376.80056293300407
 20
242.75462794413011
 30
0.0
  0
VERTEX
  5
14269
  8
0
 10
377.30468850405902
 20
243.4128248697013
 30
0.0
  0
VERTEX
  5
1426A
  8
0
 10
377.7980590613069
 20
244.05697982353189
 30
0.0
  0
VERTEX
  5
1426B
  8
0
 10
378.28044786674718
 20
244.68679677172989
 30
0.0
  0
VERTEX
  5
1426C
  8
0
 10
378.75163322925579
 20
245.30198626971151
 30
0.0
  0
VERTEX
  5
1426D
  8
0
 10
378.98295674606061
 20
245.6040071080011
 30
0.0
  0
VERTEX
  5
1426E
  8
0
 10
379.21139860646781
 20
245.90226559522111
 30
0.0
  0
VERTEX
  5
1426F
  8
0
 10
379.65953270429509
 20
246.4873588782618
 30
0.0
  0
VERTEX
  5
14270
  8
0
 10
380.0958295740283
 20
247.05699722787679
 30
0.0
  0
VERTEX
  5
14271
  8
0
 10
380.52008870698592
 20
247.61091885572361
 30
0.0
  0
VERTEX
  5
14272
  8
0
 10
380.9321151266613
 20
248.1488691963836
 30
0.0
  0
VERTEX
  5
14273
  8
0
 10
381.33171947832898
 20
248.67060102435269
 30
0.0
  0
VERTEX
  5
14274
  8
0
 10
381.5268057639833
 20
248.92530977314661
 30
0.0
  0
VERTEX
  5
14275
  8
0
 10
381.7187181160657
 20
249.1758745676587
 30
0.0
  0
VERTEX
  5
14276
  8
0
 10
382.09293318714663
 20
249.66445761805321
 30
0.0
  0
VERTEX
  5
14277
  8
0
 10
382.45419271378478
 20
250.13612563772699
 30
0.0
  0
VERTEX
  5
14278
  8
0
 10
382.80233067216392
 20
250.59066186250121
 30
0.0
  0
VERTEX
  5
14279
  8
0
 10
383.13718706873811
 20
251.02785740144529
 30
0.0
  0
VERTEX
  5
1427A
  8
0
 10
383.45860801376148
 20
251.44751133287679
 30
0.0
  0
VERTEX
  5
1427B
  8
0
 10
383.61423378786549
 20
251.65069960964041
 30
0.0
  0
VERTEX
  5
1427C
  8
0
 10
383.76644579200962
 20
251.8494307966991
 30
0.0
  0
VERTEX
  5
1427D
  8
0
 10
384.06055893066599
 20
252.23343108303379
 30
0.0
  0
VERTEX
  5
1427E
  8
0
 10
384.34081226433858
 20
252.59933571710769
 30
0.0
  0
VERTEX
  5
1427F
  8
0
 10
384.4757010051535
 20
252.7754492880039
 30
0.0
  0
VERTEX
  5
14280
  8
0
 10
384.60707699717619
 20
252.94697654035539
 30
0.0
  0
VERTEX
  5
14281
  8
0
 10
384.8592307620616
 20
253.2761937876995
 30
0.0
  0
VERTEX
  5
14282
  8
0
 10
385.09715767684469
 20
253.58683616097429
 30
0.0
  0
VERTEX
  5
14283
  8
0
 10
385.21075163867818
 20
253.73514682152151
 30
0.0
  0
VERTEX
  5
14284
  8
0
 10
385.32074839760207
 20
253.87876089845699
 30
0.0
  0
VERTEX
  5
14285
  8
0
 10
385.52990016888452
 20
254.15183384047731
 30
0.0
  0
VERTEX
  5
14286
  8
0
 10
385.7245168709419
 20
254.4059294910729
 30
0.0
  0
VERTEX
  5
14287
  8
0
 10
385.90450906389839
 20
254.6409310756633
 30
0.0
  0
VERTEX
  5
14288
  8
0
 10
386.06979402885241
 20
254.85673059471631
 30
0.0
  0
VERTEX
  5
14289
  8
0
 10
386.220295805896
 20
255.05322887338079
 30
0.0
  0
VERTEX
  5
1428A
  8
0
 10
386.28998111829651
 20
255.1442114797253
 30
0.0
  0
VERTEX
  5
1428B
  8
0
 10
386.35594522902102
 20
255.23033560706509
 30
0.0
  0
VERTEX
  5
1428C
  8
0
 10
386.47667995790607
 20
255.3879694029375
 30
0.0
  0
VERTEX
  5
1428D
  8
0
 10
386.58244450656639
 20
255.5260578173322
 30
0.0
  0
VERTEX
  5
1428E
  8
0
 10
386.6731902688548
 20
255.6445373890424
 30
0.0
  0
VERTEX
  5
1428F
  8
0
 10
386.7488755407976
 20
255.7433536684849
 30
0.0
  0
VERTEX
  5
14290
  8
0
 10
386.80946553976042
 20
255.82246124272359
 30
0.0
  0
VERTEX
  5
14291
  8
0
 10
386.83409083885499
 20
255.85461255002849
 30
0.0
  0
VERTEX
  5
14292
  8
0
 10
386.854932420436
 20
255.8818237563396
 30
0.0
  0
VERTEX
  5
14293
  8
0
 10
386.88525528763779
 20
255.92141392813949
 30
0.0
  0
VERTEX
  5
14294
  8
0
 10
386.90042020590499
 20
255.94121356369249
 30
0.0
  0
VERTEX
  5
14295
  8
0
 10
386.90231598404762
 20
255.9436887314221
 30
0.0
  0
SEQEND
  5
14296
  8
0
  0
ARC
  5
D72A
  8
0
 10
323.60231598404738
 20
189.74368873142211
 30
0.0
 40
10.00000000000005
 50
270.0
 51
296.3580909938081
  0
POLYLINE
  5
D72B
  8
0
 66
     1
 10
0.0
 20
0.0
 30
0.0
  0
VERTEX
  5
14297
  8
0
 10
328.04211490207632
 20
180.7833212407734
 30
0.0
  0
VERTEX
  5
14298
  8
0
 10
328.13615557829138
 20
180.83053561180901
 30
0.0
  0
VERTEX
  5
14299
  8
0
 10
328.32508254503182
 20
180.92918500118009
 30
0.0
  0
VERTEX
  5
1429A
  8
0
 10
328.51506168055488
 20
181.03364110115919
 30
0.0
  0
VERTEX
  5
1429B
  8
0
 10
328.61041697100842
 20
181.08811685520249
 30
0.0
  0
VERTEX
  5
1429C
  8
0
 10
328.7060002973563
 20
181.14413022937759
 30
0.0
  0
VERTEX
  5
1429D
  8
0
 10
328.89780218324859
 20
181.26089285305309
 30
0.0
  0
VERTEX
  5
1429E
  8
0
 10
329.09036630852819
 20
181.3841849401694
 30
0.0
  0
VERTEX
  5
1429F
  8
0
 10
329.28358516530398
 20
181.51427924531029
 30
0.0
  0
VERTEX
  5
142A0
  8
0
 10
329.47734270722913
 20
181.65146647780691
 30
0.0
  0
VERTEX
  5
142A1
  8
0
 10
329.67154587939473
 20
181.79608226925819
 30
0.0
  0
VERTEX
  5
142A2
  8
0
 10
329.76937139631582
 20
181.87174948229091
 30
0.0
  0
VERTEX
  5
142A3
  8
0
 10
329.86796255104991
 20
181.9499942867177
 30
0.0
  0
VERTEX
  5
142A4
  8
0
 10
330.06694929241439
 20
182.11423814908301
 30
0.0
  0
VERTEX
  5
142A5
  8
0
 10
330.26751179471012
 20
182.28881349400029
 30
0.0
  0
VERTEX
  5
142A6
  8
0
 10
330.46864898319649
 20
182.4736494505928
 30
0.0
  0
VERTEX
  5
142A7
  8
0
 10
330.66936498739409
 20
182.66860439381151
 30
0.0
  0
VERTEX
  5
142A8
  8
0
 10
330.86866987572699
 20
182.87345575714281
 30
0.0
  0
VERTEX
  5
142A9
  8
0
 10
330.9674852597837
 20
182.9794976090665
 30
0.0
  0
VERTEX
  5
142AA
  8
0
 10
331.06558050483272
 20
183.0878880513545
 30
0.0
  0
VERTEX
  5
142AB
  8
0
 10
331.25913576385159
 20
183.31149541501719
 30
0.0
  0
VERTEX
  5
142AC
  8
0
 10
331.44844504878489
 20
183.543829160473
 30
0.0
  0
VERTEX
  5
142AD
  8
0
 10
331.54124455342941
 20
183.66311201779891
 30
0.0
  0
SEQEND
  5
142AE
  8
0
  0
LINE
  5
D72C
  8
0
 10
314.2023159840478
 20
179.74368873142211
 30
0.0
 11
323.60231598404738
 21
179.74368873142211
 31
0.0
  0
LINE
  5
D72E
  8
2
 10
323.40231598404762
 20
253.74368873142211
 30
0.0
 11
384.40231598404762
 21
253.74368873142211
 31
0.0
  0
ARC
  5
D72F
  8
0
 10
314.2023159840478
 20
189.74368873142211
 30
0.0
 40
9.9999999999999982
 50
170.29660726674049
 51
270.0
  0
LINE
  5
D730
  8
0
 10
314.40231598404762
 20
250.24368873142211
 30
0.0
 11
304.34538108035798
 21
191.42916620217801
 31
0.0
  0
ARC
  5
D74B
  8
0
 10
318.90231598404762
 20
189.7436887314222
 30
0.0
 40
49.999999999999858
 50
97.313592581294103
 51
36.611084727760051
  0
ARC
  5
D74D
  8
0
 10
318.90231598404762
 20
189.74368873142211
 30
0.0
 40
40.33266234803483
 50
101.56896673214371
 51
32.646452309755048
  0
ARC
  5
D756
  8
0
 10
318.90231598404762
 20
189.74368873142211
 30
0.0
 40
17.206507021163009
 50
138.5539983683127
 51
359.60848541728632
  0
ARC
  5
D75E
  8
0
 10
318.90231598404722
 20
189.74368873142211
 30
0.0
 40
14.659727048148159
 50
166.82074318662399
 51
173.8083538009131
  0
ARC
  5
D75F
  8
0
 10
318.90231598404762
 20
189.74368873142211
 30
0.0
 40
46.909037180294987
 50
98.472731434984567
 51
35.529832988039402
  0
ARC
  5
D76B
  8
0
 10
551.23253617893295
 20
261.44368873142213
 30
0.0
 40
2.9999999999999849
 50
0.0
 51
90.0
  0
ARC
  5
D76C
  8
0
 10
495.18253617893282
 20
261.44368873142213
 30
0.0
 40
2.9999999999999849
 50
90.0
 51
180.0
  0
LINE
  5
D76D
  8
0
 10
492.18253617893288
 20
260.94368873142213
 30
0.0
 11
492.18253617893288
 21
261.44368873142213
 31
0.0
  0
LINE
  5
D76E
  8
0
 10
554.23253617893295
 20
261.44368873142213
 30
0.0
 11
554.23253617893295
 21
260.94368873142213
 31
0.0
  0
ARC
  5
D76F
  8
0
 10
555.70753617893286
 20
256.94368873142213
 30
0.0
 40
4.0000000000000142
 50
0.0
 51
90.0
  0
ARC
  5
D770
  8
0
 10
490.70753617893291
 20
256.94368873142213
 30
0.0
 40
4.0000000000000142
 50
90.0
 51
180.0
  0
LINE
  5
D771
  8
0
 10
486.70753617893291
 20
255.9436887314221
 30
0.0
 11
486.70753617893291
 21
256.94368873142213
 31
0.0
  0
LINE
  5
D772
  8
0
 10
559.70753617893286
 20
256.94368873142213
 30
0.0
 11
559.70753617893286
 21
255.9436887314221
 31
0.0
  0
LINE
  5
D773
  8
0
 10
490.20753617893303
 20
212.85819616578581
 30
0.0
 11
490.20753617893303
 21
255.9436887314221
 31
0.0
  0
LINE
  5
D774
  8
0
 10
556.20753617893297
 20
255.9436887314221
 30
0.0
 11
556.20753617893297
 21
212.85819616578581
 31
0.0
  0
LINE
  5
D775
  8
2
 10
492.70753617893291
 20
212.85819616578581
 30
0.0
 11
492.70753617893291
 21
253.74368873142211
 31
0.0
  0
LINE
  5
D776
  8
2
 10
553.70753617893286
 20
253.74368873142211
 30
0.0
 11
553.70753617893286
 21
212.85819616578581
 31
0.0
  0
LINE
  5
D77B
  8
2
 10
517.20753617893286
 20
253.74368873142211
 30
0.0
 11
517.20753617893286
 21
267.74368873142208
 31
0.0
  0
LINE
  5
D77C
  8
2
 10
529.20753617893286
 20
267.74368873142208
 30
0.0
 11
529.20753617893286
 21
253.74368873142211
 31
0.0
  0
LINE
  5
D77E
  8
0
 10
551.23253617893295
 20
264.44368873142201
 30
0.0
 11
495.18253617893282
 21
264.44368873142201
 31
0.0
  0
LINE
  5
D780
  8
0
 10
555.70753617893286
 20
260.94368873142213
 30
0.0
 11
490.70753617893291
 21
260.94368873142213
 31
0.0
  0
LINE
  5
D782
  8
0
 10
559.70753617893286
 20
255.9436887314221
 30
0.0
 11
486.70753617893291
 21
255.9436887314221
 31
0.0
  0
POLYLINE
  5
D786
  8
0
 66
     1
 10
0.0
 20
0.0
 30
0.0
  0
VERTEX
  5
142AF
  8
0
 10
547.47649751795143
 20
183.66311201779891
 30
0.0
  0
VERTEX
  5
142B0
  8
0
 10
547.93371771825696
 20
184.32459860543281
 30
0.0
  0
VERTEX
  5
142B1
  8
0
 10
548.81624268238818
 20
185.6838931027491
 30
0.0
  0
VERTEX
  5
142B2
  8
0
 10
549.65496336760668
 20
187.08966986774621
 30
0.0
  0
VERTEX
  5
142B3
  8
0
 10
550.05744578232452
 20
187.80924065320349
 30
0.0
  0
VERTEX
  5
142B4
  8
0
 10
550.44844512297232
 20
188.53952428707541
 30
0.0
  0
VERTEX
  5
142B5
  8
0
 10
551.19533067977272
 20
190.03097635155069
 30
0.0
  0
VERTEX
  5
142B6
  8
0
 10
551.89434247315864
 20
191.56147489826159
 30
0.0
  0
VERTEX
  5
142B7
  8
0
 10
552.54428482745061
 20
193.1284019743955
 30
0.0
  0
VERTEX
  5
142B8
  8
0
 10
553.14404600136766
 20
194.72907731530611
 30
0.0
  0
VERTEX
  5
142B9
  8
0
 10
553.69260008968729
 20
196.36076292916721
 30
0.0
  0
VERTEX
  5
142BA
  8
0
 10
553.94737778707747
 20
197.1873643318913
 30
0.0
  0
VERTEX
  5
142BB
  8
0
 10
554.18900877807982
 20
198.02066778037079
 30
0.0
  0
VERTEX
  5
142BC
  8
0
 10
554.63242294811562
 20
199.70595256365701
 30
0.0
  0
VERTEX
  5
142BD
  8
0
 10
555.02208412970322
 20
201.41373456081109
 30
0.0
  0
VERTEX
  5
142BE
  8
0
 10
555.35732579846706
 20
203.1410925716186
 30
0.0
  0
VERTEX
  5
142BF
  8
0
 10
555.63757451585741
 20
204.88507191064559
 30
0.0
  0
VERTEX
  5
142C0
  8
0
 10
555.86235091002391
 20
206.64268946129559
 30
0.0
  0
VERTEX
  5
142C1
  8
0
 10
555.95381310867424
 20
207.52567382277979
 30
0.0
  0
VERTEX
  5
142C2
  8
0
 10
556.03127049579825
 20
208.41093877849869
 30
0.0
  0
VERTEX
  5
142C3
  8
0
 10
556.14404433235939
 20
210.18679523130501
 30
0.0
  0
VERTEX
  5
142C4
  8
0
 10
556.20047951747836
 20
211.96722117658479
 30
0.0
  0
VERTEX
  5
142C5
  8
0
 10
556.20753617893297
 20
212.8581961657859
 30
0.0
  0
SEQEND
  5
142C6
  8
0
  0
POLYLINE
  5
D787
  8
0
 66
     1
 10
0.0
 20
0.0
 30
0.0
  0
VERTEX
  5
142C7
  8
0
 10
556.20753617893297
 20
212.8581961657859
 30
0.0
  0
VERTEX
  5
142C8
  8
0
 10
556.17612749113414
 20
214.73755895583261
 30
0.0
  0
VERTEX
  5
142C9
  8
0
 10
555.92521660426883
 20
218.48198145030369
 30
0.0
  0
VERTEX
  5
142CA
  8
0
 10
555.4253044138909
 20
222.18360354302521
 30
0.0
  0
VERTEX
  5
142CB
  8
0
 10
555.08308844647217
 20
224.00954220939559
 30
0.0
  0
VERTEX
  5
142CC
  8
0
 10
554.68019555362434
 20
225.81425365477091
 30
0.0
  0
VERTEX
  5
142CD
  8
0
 10
553.69556075180515
 20
229.34630034594409
 30
0.0
  0
VERTEX
  5
142CE
  8
0
 10
552.47889367381413
 20
232.75286260851681
 30
0.0
  0
VERTEX
  5
142CF
  8
0
 10
551.03945389075795
 20
236.0080144467322
 30
0.0
  0
VERTEX
  5
142D0
  8
0
 10
549.38819640854354
 20
239.08698218958719
 30
0.0
  0
VERTEX
  5
142D1
  8
0
 10
548.33207776007976
 20
240.7923045697506
 30
0.0
  0
VERTEX
  5
142D2
  8
0
 10
548.01824982573908
 20
241.26643538046329
 30
0.0
  0
VERTEX
  5
142D3
  8
0
 10
547.69917352865957
 20
241.73455682174381
 30
0.0
  0
VERTEX
  5
142D4
  8
0
 10
547.53768829366709
 20
241.96633303342699
 30
0.0
  0
VERTEX
  5
142D5
  8
0
 10
547.37491636501125
 20
242.1965698689869
 30
0.0
  0
VERTEX
  5
142D6
  8
0
 10
547.04554692690488
 20
242.65237678973321
 30
0.0
  0
VERTEX
  5
142D7
  8
0
 10
546.71113488788149
 20
243.1018811643435
 30
0.0
  0
VERTEX
  5
142D8
  8
0
 10
546.54205995808877
 20
243.32424012970981
 30
0.0
  0
VERTEX
  5
142D9
  8
0
 10
546.37175098817534
 20
243.54498790639491
 30
0.0
  0
VERTEX
  5
142DA
  8
0
 10
546.02746701974775
 20
243.98160328279499
 30
0.0
  0
VERTEX
  5
142DB
  8
0
 10
545.6783558111033
 20
244.4116349336098
 30
0.0
  0
VERTEX
  5
142DC
  8
0
 10
545.5020130302496
 20
244.6241533797305
 30
0.0
  0
VERTEX
  5
142DD
  8
0
 10
545.32449121188165
 20
244.8349918916015
 30
0.0
  0
VERTEX
  5
142DE
  8
0
 10
544.96594807723523
 20
245.25158460147071
 30
0.0
  0
VERTEX
  5
142DF
  8
0
 10
544.60280225199767
 20
245.66132493880141
 30
0.0
  0
VERTEX
  5
142E0
  8
0
 10
544.23513055463707
 20
246.0641262287017
 30
0.0
  0
VERTEX
  5
142E1
  8
0
 10
543.86301076100699
 20
246.4599032641392
 30
0.0
  0
VERTEX
  5
142E2
  8
0
 10
543.48652158789434
 20
246.8485723239655
 30
0.0
  0
VERTEX
  5
142E3
  8
0
 10
543.29666333622072
 20
247.04021561082649
 30
0.0
  0
VERTEX
  5
142E4
  8
0
 10
543.10574267636821
 20
247.2300511906254
 30
0.0
  0
VERTEX
  5
142E5
  8
0
 10
542.72075457493099
 20
247.60425916754991
 30
0.0
  0
VERTEX
  5
142E6
  8
0
 10
542.33163872248315
 20
247.9711170962259
 30
0.0
  0
VERTEX
  5
142E7
  8
0
 10
541.93847743109109
 20
248.33054737294091
 30
0.0
  0
VERTEX
  5
142E8
  8
0
 10
541.54135386857979
 20
248.68247396519959
 30
0.0
  0
VERTEX
  5
142E9
  8
0
 10
541.14035204093705
 20
249.02682242780719
 30
0.0
  0
VERTEX
  5
142EA
  8
0
 10
540.93842325437788
 20
249.19613203427809
 30
0.0
  0
VERTEX
  5
142EB
  8
0
 10
540.73555677454351
 20
249.3635199186169
 30
0.0
  0
VERTEX
  5
142EC
  8
0
 10
540.32705369822986
 20
249.69249521393931
 30
0.0
  0
VERTEX
  5
142ED
  8
0
 10
539.91492922516318
 20
250.01367872360831
 30
0.0
  0
VERTEX
  5
142EE
  8
0
 10
539.49927053456474
 20
250.32700250570241
 30
0.0
  0
VERTEX
  5
142EF
  8
0
 10
539.08016555327265
 20
250.6324002809161
 30
0.0
  0
VERTEX
  5
142F0
  8
0
 10
538.65770293713922
 20
250.92980744658109
 30
0.0
  0
VERTEX
  5
142F1
  8
0
 10
538.44524041568911
 20
251.07549482432489
 30
0.0
  0
VERTEX
  5
142F2
  8
0
 10
538.23197205227825
 20
251.21916109033211
 30
0.0
  0
VERTEX
  5
142F3
  8
0
 10
537.80306295615992
 20
251.50040000341431
 30
0.0
  0
VERTEX
  5
142F4
  8
0
 10
537.37106637856141
 20
251.77346469363201
 30
0.0
  0
VERTEX
  5
142F5
  8
0
 10
536.93607370237385
 20
252.03829739793321
 30
0.0
  0
VERTEX
  5
142F6
  8
0
 10
536.49817694427111
 20
252.29484209462831
 30
0.0
  0
VERTEX
  5
142F7
  8
0
 10
536.0574687352464
 20
252.54304451524089
 30
0.0
  0
VERTEX
  5
142F8
  8
0
 10
535.83608944698096
 20
252.6640008953444
 30
0.0
  0
VERTEX
  5
142F9
  8
0
 10
535.61404230101459
 20
252.7828521559876
 30
0.0
  0
VERTEX
  5
142FA
  8
0
 10
535.16799144229515
 20
253.01421428888429
 30
0.0
  0
VERTEX
  5
142FB
  8
0
 10
534.71941051496742
 20
253.23708197247731
 30
0.0
  0
VERTEX
  5
142FC
  8
0
 10
534.2683944101118
 20
253.4514080621955
 30
0.0
  0
VERTEX
  5
142FD
  8
0
 10
533.81503853393724
 20
253.65714722032419
 30
0.0
  0
VERTEX
  5
142FE
  8
0
 10
533.35943878759781
 20
253.85425592559471
 30
0.0
  0
VERTEX
  5
142FF
  8
0
 10
533.13082756257381
 20
253.9495607569699
 30
0.0
  0
VERTEX
  5
14300
  8
0
 10
532.90169154690818
 20
254.04269248239129
 30
0.0
  0
VERTEX
  5
14301
  8
0
 10
532.44189364195563
 20
254.22241702957089
 30
0.0
  0
VERTEX
  5
14302
  8
0
 10
531.98014233661661
 20
254.39339154889569
 30
0.0
  0
VERTEX
  5
14303
  8
0
 10
531.74856466731615
 20
254.4755861733195
 30
0.0
  0
VERTEX
  5
14304
  8
0
 10
531.51653530798194
 20
254.55557987307461
 30
0.0
  0
VERTEX
  5
14305
  8
0
 10
531.05117062569661
 20
254.70894769341481
 30
0.0
  0
VERTEX
  5
14306
  8
0
 10
530.5841467312116
 20
254.85346256707871
 30
0.0
  0
VERTEX
  5
14307
  8
0
 10
530.35004343889022
 20
254.92239052241209
 30
0.0
  0
VERTEX
  5
14308
  8
0
 10
530.11556241696087
 20
254.9890939239468
 30
0.0
  0
VERTEX
  5
14309
  8
0
 10
529.64551680546526
 20
255.11581307308469
 30
0.0
  0
VERTEX
  5
1430A
  8
0
 10
529.17410932836083
 20
255.2335932088119
 30
0.0
  0
VERTEX
  5
1430B
  8
0
 10
528.70143970536935
 20
255.34240941637259
 30
0.0
  0
VERTEX
  5
1430C
  8
0
 10
528.22760792320014
 20
255.44223867720549
 30
0.0
  0
VERTEX
  5
1430D
  8
0
 10
527.75271421440254
 20
255.5330598738137
 30
0.0
  0
VERTEX
  5
1430E
  8
0
 10
527.51490052219469
 20
255.57508636974541
 30
0.0
  0
VERTEX
  5
1430F
  8
0
 10
527.27685903616202
 20
255.6148537942311
 30
0.0
  0
VERTEX
  5
14310
  8
0
 10
526.80014304904762
 20
255.6876031360872
 30
0.0
  0
VERTEX
  5
14311
  8
0
 10
526.32266709572275
 20
255.7512925102665
 30
0.0
  0
VERTEX
  5
14312
  8
0
 10
525.84453217961072
 20
255.80590844416429
 30
0.0
  0
VERTEX
  5
14313
  8
0
 10
525.36583944352776
 20
255.85143938453649
 30
0.0
  0
VERTEX
  5
14314
  8
0
 10
524.88669014829065
 20
255.88787569994329
 30
0.0
  0
VERTEX
  5
14315
  8
0
 10
524.64697596198903
 20
255.90268088946311
 30
0.0
  0
VERTEX
  5
14316
  8
0
 10
524.40718565129509
 20
255.91520968278721
 30
0.0
  0
VERTEX
  5
14317
  8
0
 10
523.92742738507332
 20
255.9334355509427
 30
0.0
  0
VERTEX
  5
14318
  8
0
 10
523.4475168358407
 20
255.9425494489798
 30
0.0
  0
VERTEX
  5
14319
  8
0
 10
523.20753617893297
 20
255.9436887314221
 30
0.0
  0
SEQEND
  5
1431A
  8
0
  0
POLYLINE
  5
D788
  8
0
 66
     1
 10
0.0
 20
0.0
 30
0.0
  0
VERTEX
  5
1431B
  8
0
 10
523.20753617893297
 20
255.9436887314221
 30
0.0
  0
VERTEX
  5
1431C
  8
0
 10
522.96755552202512
 20
255.9425494489798
 30
0.0
  0
VERTEX
  5
1431D
  8
0
 10
522.48764497279262
 20
255.9334355509427
 30
0.0
  0
VERTEX
  5
1431E
  8
0
 10
522.00788670657084
 20
255.91520968278721
 30
0.0
  0
VERTEX
  5
1431F
  8
0
 10
521.76809639587691
 20
255.90268088946311
 30
0.0
  0
VERTEX
  5
14320
  8
0
 10
521.52838220957517
 20
255.88787569994329
 30
0.0
  0
VERTEX
  5
14321
  8
0
 10
521.04923291433795
 20
255.85143938453649
 30
0.0
  0
VERTEX
  5
14322
  8
0
 10
520.57054017825521
 20
255.80590844416429
 30
0.0
  0
VERTEX
  5
14323
  8
0
 10
520.09240526214296
 20
255.7512925102665
 30
0.0
  0
VERTEX
  5
14324
  8
0
 10
519.61492930881832
 20
255.6876031360872
 30
0.0
  0
VERTEX
  5
14325
  8
0
 10
519.13821332170392
 20
255.6148537942311
 30
0.0
  0
VERTEX
  5
14326
  8
0
 10
518.90017183567124
 20
255.57508636974541
 30
0.0
  0
VERTEX
  5
14327
  8
0
 10
518.66235814346317
 20
255.5330598738137
 30
0.0
  0
VERTEX
  5
14328
  8
0
 10
518.1874644346658
 20
255.44223867720549
 30
0.0
  0
VERTEX
  5
14329
  8
0
 10
517.71363265249647
 20
255.34240941637259
 30
0.0
  0
VERTEX
  5
1432A
  8
0
 10
517.240963029505
 20
255.2335932088119
 30
0.0
  0
VERTEX
  5
1432B
  8
0
 10
516.76955555240045
 20
255.11581307308469
 30
0.0
  0
VERTEX
  5
1432C
  8
0
 10
516.29950994090495
 20
254.9890939239468
 30
0.0
  0
VERTEX
  5
1432D
  8
0
 10
516.0650289189756
 20
254.92239052241209
 30
0.0
  0
VERTEX
  5
1432E
  8
0
 10
515.83092562665433
 20
254.85346256707871
 30
0.0
  0
VERTEX
  5
1432F
  8
0
 10
515.36390173216932
 20
254.70894769341481
 30
0.0
  0
VERTEX
  5
14330
  8
0
 10
514.898537049884
 20
254.55557987307461
 30
0.0
  0
VERTEX
  5
14331
  8
0
 10
514.66650769054957
 20
254.4755861733195
 30
0.0
  0
VERTEX
  5
14332
  8
0
 10
514.43493002124933
 20
254.39339154889569
 30
0.0
  0
VERTEX
  5
14333
  8
0
 10
513.97317871591031
 20
254.22241702957089
 30
0.0
  0
VERTEX
  5
14334
  8
0
 10
513.51338081095764
 20
254.04269248239129
 30
0.0
  0
VERTEX
  5
14335
  8
0
 10
513.28424479529212
 20
253.9495607569699
 30
0.0
  0
VERTEX
  5
14336
  8
0
 10
513.05563357026813
 20
253.85425592559471
 30
0.0
  0
VERTEX
  5
14337
  8
0
 10
512.60003382392858
 20
253.65714722032419
 30
0.0
  0
VERTEX
  5
14338
  8
0
 10
512.14667794775357
 20
253.4514080621955
 30
0.0
  0
VERTEX
  5
14339
  8
0
 10
511.69566184289852
 20
253.23708197247731
 30
0.0
  0
VERTEX
  5
1433A
  8
0
 10
511.24708091557062
 20
253.01421428888429
 30
0.0
  0
VERTEX
  5
1433B
  8
0
 10
510.80103005685118
 20
252.7828521559876
 30
0.0
  0
VERTEX
  5
1433C
  8
0
 10
510.5789829108848
 20
252.6640008953444
 30
0.0
  0
VERTEX
  5
1433D
  8
0
 10
510.35760362261948
 20
252.54304451524089
 30
0.0
  0
VERTEX
  5
1433E
  8
0
 10
509.91689541359477
 20
252.29484209462831
 30
0.0
  0
VERTEX
  5
1433F
  8
0
 10
509.47899865549192
 20
252.03829739793321
 30
0.0
  0
VERTEX
  5
14340
  8
0
 10
509.04400597930447
 20
251.77346469363201
 30
0.0
  0
VERTEX
  5
14341
  8
0
 10
508.61200940170602
 20
251.50040000341431
 30
0.0
  0
VERTEX
  5
14342
  8
0
 10
508.18310030558757
 20
251.21916109033211
 30
0.0
  0
VERTEX
  5
14343
  8
0
 10
507.96983194217682
 20
251.07549482432489
 30
0.0
  0
VERTEX
  5
14344
  8
0
 10
507.7573694207266
 20
250.92980744658109
 30
0.0
  0
VERTEX
  5
14345
  8
0
 10
507.33490680459312
 20
250.6324002809161
 30
0.0
  0
VERTEX
  5
14346
  8
0
 10
506.91580182330102
 20
250.32700250570241
 30
0.0
  0
VERTEX
  5
14347
  8
0
 10
506.5001431327027
 20
250.01367872360831
 30
0.0
  0
VERTEX
  5
14348
  8
0
 10
506.08801865963591
 20
249.69249521393931
 30
0.0
  0
VERTEX
  5
14349
  8
0
 10
505.67951558332243
 20
249.3635199186169
 30
0.0
  0
VERTEX
  5
1434A
  8
0
 10
505.47664910348789
 20
249.19613203427809
 30
0.0
  0
VERTEX
  5
1434B
  8
0
 10
505.27472031692872
 20
249.02682242780719
 30
0.0
  0
VERTEX
  5
1434C
  8
0
 10
504.87371848928609
 20
248.68247396519959
 30
0.0
  0
VERTEX
  5
1434D
  8
0
 10
504.47659492677479
 20
248.33054737294091
 30
0.0
  0
VERTEX
  5
1434E
  8
0
 10
504.08343363538268
 20
247.9711170962259
 30
0.0
  0
VERTEX
  5
1434F
  8
0
 10
503.69431778293477
 20
247.60425916754991
 30
0.0
  0
VERTEX
  5
14350
  8
0
 10
503.30932968149767
 20
247.2300511906254
 30
0.0
  0
VERTEX
  5
14351
  8
0
 10
503.11840902164522
 20
247.04021561082649
 30
0.0
  0
VERTEX
  5
14352
  8
0
 10
502.92855076997142
 20
246.8485723239655
 30
0.0
  0
VERTEX
  5
14353
  8
0
 10
502.55206159685889
 20
246.4599032641392
 30
0.0
  0
VERTEX
  5
14354
  8
0
 10
502.1799418032287
 20
246.0641262287017
 30
0.0
  0
VERTEX
  5
14355
  8
0
 10
501.81227010586832
 20
245.66132493880141
 30
0.0
  0
VERTEX
  5
14356
  8
0
 10
501.44912428063071
 20
245.25158460147071
 30
0.0
  0
VERTEX
  5
14357
  8
0
 10
501.09058114598417
 20
244.8349918916015
 30
0.0
  0
VERTEX
  5
14358
  8
0
 10
500.91305932761628
 20
244.62415337973059
 30
0.0
  0
VERTEX
  5
14359
  8
0
 10
500.73671654676258
 20
244.4116349336098
 30
0.0
  0
VERTEX
  5
1435A
  8
0
 10
500.38760533811819
 20
243.98160328279499
 30
0.0
  0
VERTEX
  5
1435B
  8
0
 10
500.0433213696906
 20
243.54498790639491
 30
0.0
  0
VERTEX
  5
1435C
  8
0
 10
499.873012399777
 20
243.32424012970981
 30
0.0
  0
VERTEX
  5
1435D
  8
0
 10
499.70393746998428
 20
243.1018811643435
 30
0.0
  0
VERTEX
  5
1435E
  8
0
 10
499.36952543096089
 20
242.65237678973321
 30
0.0
  0
VERTEX
  5
1435F
  8
0
 10
499.04015599285452
 20
242.1965698689869
 30
0.0
  0
VERTEX
  5
14360
  8
0
 10
498.87738406419891
 20
241.96633303342699
 30
0.0
  0
VERTEX
  5
14361
  8
0
 10
498.7158988292062
 20
241.73455682174381
 30
0.0
  0
VERTEX
  5
14362
  8
0
 10
498.39682253212692
 20
241.26643538046329
 30
0.0
  0
VERTEX
  5
14363
  8
0
 10
498.08299459778618
 20
240.7923045697506
 30
0.0
  0
VERTEX
  5
14364
  8
0
 10
497.77448141213648
 20
240.31226468541041
 30
0.0
  0
VERTEX
  5
14365
  8
0
 10
497.47134823686793
 20
239.82641727322931
 30
0.0
  0
VERTEX
  5
14366
  8
0
 10
497.1736591956037
 20
239.33486510749651
 30
0.0
  0
VERTEX
  5
14367
  8
0
 10
497.02687594932229
 20
239.08698218958719
 30
0.0
  0
VERTEX
  5
14368
  8
0
 10
496.88147726033588
 20
238.8377121692626
 30
0.0
  0
VERTEX
  5
14369
  8
0
 10
496.5948642381058
 20
238.33506362434389
 30
0.0
  0
VERTEX
  5
1436A
  8
0
 10
496.31388075792762
 20
237.82702580107639
 30
0.0
  0
VERTEX
  5
1436B
  8
0
 10
495.37561846710781
 20
236.0080144467322
 30
0.0
  0
VERTEX
  5
1436C
  8
0
 10
493.9361786840517
 20
232.75286260851681
 30
0.0
  0
VERTEX
  5
1436D
  8
0
 10
492.71951160606062
 20
229.34630034594409
 30
0.0
  0
VERTEX
  5
1436E
  8
0
 10
491.73487680424148
 20
225.81425365477091
 30
0.0
  0
VERTEX
  5
1436F
  8
0
 10
491.33198391139371
 20
224.00954220939559
 30
0.0
  0
VERTEX
  5
14370
  8
0
 10
490.98976794397498
 20
222.18360354302521
 30
0.0
  0
VERTEX
  5
14371
  8
0
 10
490.48985575359711
 20
218.48198145030369
 30
0.0
  0
VERTEX
  5
14372
  8
0
 10
490.23894486673169
 20
214.73755895583261
 30
0.0
  0
VERTEX
  5
14373
  8
0
 10
490.20753617893303
 20
212.85819616578581
 30
0.0
  0
SEQEND
  5
14374
  8
0
  0
POLYLINE
  5
D789
  8
0
 66
     1
 10
0.0
 20
0.0
 30
0.0
  0
VERTEX
  5
14375
  8
0
 10
490.20753617893303
 20
212.85819616578581
 30
0.0
  0
VERTEX
  5
14376
  8
0
 10
490.21459284038741
 20
211.96722117658479
 30
0.0
  0
VERTEX
  5
14377
  8
0
 10
490.27102802550638
 20
210.18679523130501
 30
0.0
  0
VERTEX
  5
14378
  8
0
 10
490.38380186206763
 20
208.41093877849869
 30
0.0
  0
VERTEX
  5
14379
  8
0
 10
490.4612592491917
 20
207.52567382277979
 30
0.0
  0
VERTEX
  5
1437A
  8
0
 10
490.55272144784198
 20
206.64268946129559
 30
0.0
  0
VERTEX
  5
1437B
  8
0
 10
490.77749784200842
 20
204.88507191064559
 30
0.0
  0
VERTEX
  5
1437C
  8
0
 10
491.05774655939871
 20
203.1410925716186
 30
0.0
  0
VERTEX
  5
1437D
  8
0
 10
491.39298822816272
 20
201.41373456081109
 30
0.0
  0
VERTEX
  5
1437E
  8
0
 10
491.78264940975032
 20
199.70595256365701
 30
0.0
  0
VERTEX
  5
1437F
  8
0
 10
492.22606357978611
 20
198.0206677803707
 30
0.0
  0
VERTEX
  5
14380
  8
0
 10
492.4676945707883
 20
197.1873643318913
 30
0.0
  0
VERTEX
  5
14381
  8
0
 10
492.72247226817848
 20
196.36076292916709
 30
0.0
  0
VERTEX
  5
14382
  8
0
 10
493.27102635649811
 20
194.729077315306
 30
0.0
  0
VERTEX
  5
14383
  8
0
 10
493.87078753041533
 20
193.1284019743955
 30
0.0
  0
VERTEX
  5
14384
  8
0
 10
494.52072988470718
 20
191.56147489826159
 30
0.0
  0
VERTEX
  5
14385
  8
0
 10
495.21974167809321
 20
190.03097635155069
 30
0.0
  0
VERTEX
  5
14386
  8
0
 10
495.96662723489362
 20
188.53952428707541
 30
0.0
  0
VERTEX
  5
14387
  8
0
 10
496.3576265755413
 20
187.80924065320349
 30
0.0
  0
VERTEX
  5
14388
  8
0
 10
496.76010899025908
 20
187.08966986774621
 30
0.0
  0
VERTEX
  5
14389
  8
0
 10
497.59882967547759
 20
185.6838931027491
 30
0.0
  0
VERTEX
  5
1438A
  8
0
 10
498.48135463960898
 20
184.32459860543281
 30
0.0
  0
VERTEX
  5
1438B
  8
0
 10
498.93857483991439
 20
183.66311201779891
 30
0.0
  0
SEQEND
  5
1438C
  8
0
  0
LINE
  5
D78A
  8
0
 10
543.70753617893297
 20
179.74368873142211
 30
0.0
 11
543.70753617893297
 21
180.7833212407734
 31
0.0
  0
POLYLINE
  5
D78B
  8
0
 66
     1
 10
0.0
 20
0.0
 30
0.0
  0
VERTEX
  5
1438D
  8
0
 10
543.70753617893297
 20
180.7833212407734
 30
0.0
  0
VERTEX
  5
1438E
  8
0
 10
543.82561023896176
 20
180.83053561180901
 30
0.0
  0
VERTEX
  5
1438F
  8
0
 10
544.05951761010874
 20
180.92918500118009
 30
0.0
  0
VERTEX
  5
14390
  8
0
 10
544.29040407990396
 20
181.03364110115919
 30
0.0
  0
VERTEX
  5
14391
  8
0
 10
544.4047021289889
 20
181.08811685520249
 30
0.0
  0
VERTEX
  5
14392
  8
0
 10
544.51823010983514
 20
181.14413022937759
 30
0.0
  0
VERTEX
  5
14393
  8
0
 10
544.7429555987087
 20
181.26089285305309
 30
0.0
  0
VERTEX
  5
14394
  8
0
 10
544.96453857585129
 20
181.3841849401694
 30
0.0
  0
VERTEX
  5
14395
  8
0
 10
545.18293362412714
 20
181.51427924531029
 30
0.0
  0
VERTEX
  5
14396
  8
0
 10
545.39809003472226
 20
181.65146647780691
 30
0.0
  0
VERTEX
  5
14397
  8
0
 10
545.60998649436624
 20
181.79608226925819
 30
0.0
  0
VERTEX
  5
14398
  8
0
 10
545.71533450585684
 20
181.87174948229091
 30
0.0
  0
VERTEX
  5
14399
  8
0
 10
545.82058230407335
 20
181.9499942867177
 30
0.0
  0
VERTEX
  5
1439A
  8
0
 10
546.03022871674227
 20
182.11423814908301
 30
0.0
  0
VERTEX
  5
1439B
  8
0
 10
546.23786468140315
 20
182.28881349400029
 30
0.0
  0
VERTEX
  5
1439C
  8
0
 10
546.44249369757745
 20
182.4736494505928
 30
0.0
  0
VERTEX
  5
1439D
  8
0
 10
546.64319251681025
 20
182.66860439381151
 30
0.0
  0
VERTEX
  5
1439E
  8
0
 10
546.8391071583801
 20
182.87345575714281
 30
0.0
  0
VERTEX
  5
1439F
  8
0
 10
546.93502107829306
 20
182.9794976090665
 30
0.0
  0
VERTEX
  5
143A0
  8
0
 10
547.02944862634922
 20
183.0878880513545
 30
0.0
  0
VERTEX
  5
143A1
  8
0
 10
547.21350188572615
 20
183.31149541501719
 30
0.0
  0
VERTEX
  5
143A2
  8
0
 10
547.39066418220318
 20
183.543829160473
 30
0.0
  0
VERTEX
  5
143A3
  8
0
 10
547.47649751795143
 20
183.66311201779891
 30
0.0
  0
SEQEND
  5
143A4
  8
0
  0
LINE
  5
D78D
  8
0
 10
543.70753617893297
 20
179.74368873142211
 30
0.0
 11
540.70753617893286
 21
179.74368873142211
 31
0.0
  0
POLYLINE
  5
D78F
  8
0
 66
     1
 10
0.0
 20
0.0
 30
0.0
  0
VERTEX
  5
143A5
  8
0
 10
498.93857483991439
 20
183.66311201779891
 30
0.0
  0
VERTEX
  5
143A6
  8
0
 10
499.0244081756627
 20
183.543829160473
 30
0.0
  0
VERTEX
  5
143A7
  8
0
 10
499.20157047213968
 20
183.31149541501719
 30
0.0
  0
VERTEX
  5
143A8
  8
0
 10
499.38562373151672
 20
183.0878880513545
 30
0.0
  0
VERTEX
  5
143A9
  8
0
 10
499.48005127957271
 20
182.9794976090665
 30
0.0
  0
VERTEX
  5
143AA
  8
0
 10
499.57596519948578
 20
182.87345575714281
 30
0.0
  0
VERTEX
  5
143AB
  8
0
 10
499.77187984105558
 20
182.66860439381151
 30
0.0
  0
VERTEX
  5
143AC
  8
0
 10
499.97257866028838
 20
182.4736494505928
 30
0.0
  0
VERTEX
  5
143AD
  8
0
 10
500.17720767646279
 20
182.28881349400029
 30
0.0
  0
VERTEX
  5
143AE
  8
0
 10
500.3848436411235
 20
182.11423814908301
 30
0.0
  0
VERTEX
  5
143AF
  8
0
 10
500.59449005379241
 20
181.9499942867177
 30
0.0
  0
VERTEX
  5
143B0
  8
0
 10
500.69973785200898
 20
181.87174948229091
 30
0.0
  0
VERTEX
  5
143B1
  8
0
 10
500.80508586349958
 20
181.79608226925831
 30
0.0
  0
VERTEX
  5
143B2
  8
0
 10
501.01698232314351
 20
181.65146647780699
 30
0.0
  0
VERTEX
  5
143B3
  8
0
 10
501.23213873373868
 20
181.51427924531029
 30
0.0
  0
VERTEX
  5
143B4
  8
0
 10
501.45053378201459
 20
181.3841849401694
 30
0.0
  0
VERTEX
  5
143B5
  8
0
 10
501.67211675915718
 20
181.26089285305309
 30
0.0
  0
VERTEX
  5
143B6
  8
0
 10
501.89684224803062
 20
181.14413022937759
 30
0.0
  0
VERTEX
  5
143B7
  8
0
 10
502.01037022887698
 20
181.08811685520249
 30
0.0
  0
VERTEX
  5
143B8
  8
0
 10
502.12466827796197
 20
181.03364110115919
 30
0.0
  0
VERTEX
  5
143B9
  8
0
 10
502.35555474775708
 20
180.92918500118009
 30
0.0
  0
VERTEX
  5
143BA
  8
0
 10
502.58946211890401
 20
180.83053561180901
 30
0.0
  0
VERTEX
  5
143BB
  8
0
 10
502.70753617893303
 20
180.7833212407734
 30
0.0
  0
SEQEND
  5
143BC
  8
0
  0
LINE
  5
D790
  8
0
 10
502.70753617893303
 20
180.7833212407734
 30
0.0
 11
502.70753617893303
 21
179.74368873142211
 31
0.0
  0
LINE
  5
D791
  8
0
 10
505.70753617893291
 20
179.74368873142211
 30
0.0
 11
502.70753617893303
 21
179.74368873142211
 31
0.0
  0
POLYLINE
  5
D792
  8
0
 66
     1
 10
0.0
 20
0.0
 30
0.0
  0
VERTEX
  5
143BD
  8
0
 10
540.70753617884884
 20
181.27625022781311
 30
0.0
  0
VERTEX
  5
143BE
  8
0
 10
540.81280731658308
 20
181.32324875671449
 30
0.0
  0
VERTEX
  5
143BF
  8
0
 10
541.0211979386022
 20
181.42032545197591
 30
0.0
  0
VERTEX
  5
143C0
  8
0
 10
541.22662072461969
 20
181.52157214876959
 30
0.0
  0
VERTEX
  5
143C1
  8
0
 10
541.32819152018237
 20
181.57378688156419
 30
0.0
  0
VERTEX
  5
143C2
  8
0
 10
541.42898119707206
 20
181.62707380949959
 30
0.0
  0
VERTEX
  5
143C3
  8
0
 10
541.62815377926415
 20
181.73689482836519
 30
0.0
  0
VERTEX
  5
143C4
  8
0
 10
541.82401390700477
 20
181.85109287074971
 30
0.0
  0
VERTEX
  5
143C5
  8
0
 10
542.01644098966062
 20
181.9697199851168
 30
0.0
  0
VERTEX
  5
143C6
  8
0
 10
542.20531888514324
 20
182.09282262083329
 30
0.0
  0
VERTEX
  5
143C7
  8
0
 10
542.39053634494803
 20
182.22044174244959
 30
0.0
  0
VERTEX
  5
143C8
  8
0
 10
542.48173908602803
 20
182.28595633947839
 30
0.0
  0
VERTEX
  5
143C9
  8
0
 10
542.57198742369474
 20
182.35261305214479
 30
0.0
  0
VERTEX
  5
143CA
  8
0
 10
542.7495718459113
 20
182.4893673315556
 30
0.0
  0
VERTEX
  5
143CB
  8
0
 10
542.92319532104693
 20
182.63073091315539
 30
0.0
  0
VERTEX
  5
143CC
  8
0
 10
543.09276979580181
 20
182.7767262896075
 30
0.0
  0
VERTEX
  5
143CD
  8
0
 10
543.2582141874027
 20
182.92737338803079
 30
0.0
  0
VERTEX
  5
143CE
  8
0
 10
543.41945080989387
 20
183.08268699367181
 30
0.0
  0
VERTEX
  5
143CF
  8
0
 10
543.49846732368633
 20
183.1620964483335
 30
0.0
  0
VERTEX
  5
143D0
  8
0
 10
543.57640372564583
 20
183.242675206548
 30
0.0
  0
VERTEX
  5
143D1
  8
0
 10
543.72900096661795
 20
183.40734169036139
 30
0.0
  0
VERTEX
  5
143D2
  8
0
 10
543.87717461604086
 20
183.57668631036381
 30
0.0
  0
VERTEX
  5
143D3
  8
0
 10
543.94958247323018
 20
183.66311201779891
 30
0.0
  0
SEQEND
  5
143D4
  8
0
  0
POLYLINE
  5
D793
  8
0
 66
     1
 10
0.0
 20
0.0
 30
0.0
  0
VERTEX
  5
143D5
  8
0
 10
543.94958247323018
 20
183.66311201779891
 30
0.0
  0
VERTEX
  5
143D6
  8
0
 10
544.45528176827827
 20
184.2897498133955
 30
0.0
  0
VERTEX
  5
143D7
  8
0
 10
545.43311389223879
 20
185.5874741369667
 30
0.0
  0
VERTEX
  5
143D8
  8
0
 10
546.36449758509787
 20
186.9421905562923
 30
0.0
  0
VERTEX
  5
143D9
  8
0
 10
546.81215909503487
 20
187.6400405527751
 30
0.0
  0
VERTEX
  5
143DA
  8
0
 10
547.24748638175834
 20
188.3510678985196
 30
0.0
  0
VERTEX
  5
143DB
  8
0
 10
548.08023495586667
 20
189.81116180184119
 30
0.0
  0
VERTEX
  5
143DC
  8
0
 10
548.86100297629264
 20
191.31942086881119
 30
0.0
  0
VERTEX
  5
143DD
  8
0
 10
549.58815874418633
 20
192.87269304335001
 30
0.0
  0
VERTEX
  5
143DE
  8
0
 10
550.26018260300452
 20
194.4677321981122
 30
0.0
  0
VERTEX
  5
143DF
  8
0
 10
550.87567011438841
 20
196.101204918451
 30
0.0
  0
VERTEX
  5
143E0
  8
0
 10
551.1618060851215
 20
196.93129001688879
 30
0.0
  0
VERTEX
  5
143E1
  8
0
 10
551.43333499324569
 20
197.7696974688009
 30
0.0
  0
VERTEX
  5
143E2
  8
0
 10
551.93201179591415
 20
199.46972292691979
 30
0.0
  0
VERTEX
  5
143E3
  8
0
 10
552.37065835577732
 20
201.19772847108231
 30
0.0
  0
VERTEX
  5
143E4
  8
0
 10
552.74835796125262
 20
202.95010280499301
 30
0.0
  0
VERTEX
  5
143E5
  8
0
 10
553.06432127159439
 20
204.72318370490379
 30
0.0
  0
VERTEX
  5
143E6
  8
0
 10
553.31788796650653
 20
206.51326567316349
 30
0.0
  0
VERTEX
  5
143E7
  8
0
 10
553.42110185729507
 20
207.4135141613522
 30
0.0
  0
VERTEX
  5
143E8
  8
0
 10
553.50852812612266
 20
208.3166076822028
 30
0.0
  0
VERTEX
  5
143E9
  8
0
 10
553.63584333846836
 20
210.1294409927728
 30
0.0
  0
VERTEX
  5
143EA
  8
0
 10
553.69956753208498
 20
211.94797703009661
 30
0.0
  0
VERTEX
  5
143EB
  8
0
 10
553.70753617893286
 20
212.8581961657859
 30
0.0
  0
SEQEND
  5
143EC
  8
0
  0
POLYLINE
  5
D794
  8
0
 66
     1
 10
0.0
 20
0.0
 30
0.0
  0
VERTEX
  5
143ED
  8
0
 10
553.70753617893286
 20
212.8581961657859
 30
0.0
  0
VERTEX
  5
143EE
  8
0
 10
553.70431025270955
 20
213.43735511491769
 30
0.0
  0
VERTEX
  5
143EF
  8
0
 10
553.67850693717935
 20
214.59518298688971
 30
0.0
  0
VERTEX
  5
143F0
  8
0
 10
553.62692213830042
 20
215.75154119459799
 30
0.0
  0
VERTEX
  5
143F1
  8
0
 10
553.59147447073099
 20
216.32886335485571
 30
0.0
  0
VERTEX
  5
143F2
  8
0
 10
553.54959950196178
 20
216.90545134355301
 30
0.0
  0
VERTEX
  5
143F3
  8
0
 10
553.446604450834
 20
218.0559371105675
 30
0.0
  0
VERTEX
  5
143F4
  8
0
 10
553.31802412901277
 20
219.20202506982309
 30
0.0
  0
VERTEX
  5
143F5
  8
0
 10
553.16396732828696
 20
220.34274551648599
 30
0.0
  0
VERTEX
  5
143F6
  8
0
 10
552.98456439609072
 20
221.4771332871737
 30
0.0
  0
VERTEX
  5
143F7
  8
0
 10
552.77996712521553
 20
222.60422857657991
 30
0.0
  0
VERTEX
  5
143F8
  8
0
 10
552.66827388074944
 20
223.16474326669791
 30
0.0
  0
VERTEX
  5
143F9
  8
0
 10
552.55034862537832
 20
223.7230777495657
 30
0.0
  0
VERTEX
  5
143FA
  8
0
 10
552.295903176754
 20
224.8327341480296
 30
0.0
  0
VERTEX
  5
143FB
  8
0
 10
552.01684606559502
 20
225.93225889187539
 30
0.0
  0
VERTEX
  5
143FC
  8
0
 10
551.71341340207698
 20
227.02072167339799
 30
0.0
  0
VERTEX
  5
143FD
  8
0
 10
551.38586192052696
 20
228.097201544417
 30
0.0
  0
VERTEX
  5
143FE
  8
0
 10
551.03446876220005
 20
229.16078769549031
 30
0.0
  0
VERTEX
  5
143FF
  8
0
 10
550.84992368355086
 20
229.68746396024329
 30
0.0
  0
VERTEX
  5
14400
  8
0
 10
550.65953124078851
 20
230.2105802265506
 30
0.0
  0
VERTEX
  5
14401
  8
0
 10
550.26136659086887
 20
231.24569090830991
 30
0.0
  0
VERTEX
  5
14402
  8
0
 10
549.84031169948491
 20
232.2652439337904
 30
0.0
  0
VERTEX
  5
14403
  8
0
 10
549.62131099435828
 20
232.76891621505709
 30
0.0
  0
VERTEX
  5
14404
  8
0
 10
549.39672282111178
 20
233.26837665934491
 30
0.0
  0
VERTEX
  5
14405
  8
0
 10
548.93097527622604
 20
234.2542403345393
 30
0.0
  0
VERTEX
  5
14406
  8
0
 10
548.44346313374899
 20
235.22200082027999
 30
0.0
  0
VERTEX
  5
14407
  8
0
 10
548.19167352974716
 20
235.69883586787461
 30
0.0
  0
VERTEX
  5
14408
  8
0
 10
547.93459887762435
 20
236.1708392945792
 30
0.0
  0
VERTEX
  5
14409
  8
0
 10
547.40481305781566
 20
237.0999529453598
 30
0.0
  0
VERTEX
  5
1440A
  8
0
 10
546.8545539260175
 20
238.00855564971451
 30
0.0
  0
VERTEX
  5
1440B
  8
0
 10
546.28428705639135
 20
238.8958786390447
 30
0.0
  0
VERTEX
  5
1440C
  8
0
 10
545.6944949516419
 20
239.76117114951481
 30
0.0
  0
VERTEX
  5
1440D
  8
0
 10
545.0856766347714
 20
240.60370105727409
 30
0.0
  0
VERTEX
  5
1440E
  8
0
 10
544.77429300512267
 20
241.01620649607921
 30
0.0
  0
VERTEX
  5
1440F
  8
0
 10
544.45834722685765
 20
241.42275549790611
 30
0.0
  0
VERTEX
  5
14410
  8
0
 10
543.8130375112105
 20
242.21764146958321
 30
0.0
  0
VERTEX
  5
14411
  8
0
 10
543.15029348427379
 20
242.9876864194155
 30
0.0
  0
VERTEX
  5
14412
  8
0
 10
542.47067589365895
 20
243.73223881249751
 30
0.0
  0
VERTEX
  5
14413
  8
0
 10
541.77475976369885
 20
244.4506686831719
 30
0.0
  0
VERTEX
  5
14414
  8
0
 10
541.0631339089158
 20
245.14236816804319
 30
0.0
  0
VERTEX
  5
14415
  8
0
 10
540.70161748763985
 20
245.4780102290386
 30
0.0
  0
VERTEX
  5
14416
  8
0
 10
540.33640043582955
 20
245.8067520202909
 30
0.0
  0
VERTEX
  5
14417
  8
0
 10
539.59517423351087
 20
246.4432581048469
 30
0.0
  0
VERTEX
  5
14418
  8
0
 10
538.84008245332859
 20
247.05134787401769
 30
0.0
  0
VERTEX
  5
14419
  8
0
 10
538.07176397831381
 20
247.63050682314949
 30
0.0
  0
VERTEX
  5
1441A
  8
0
 10
537.29086888260144
 20
248.18024492595069
 30
0.0
  0
VERTEX
  5
1441B
  8
0
 10
536.49805788140384
 20
248.70009704910299
 30
0.0
  0
VERTEX
  5
1441C
  8
0
 10
536.09739316202422
 20
248.9486774181085
 30
0.0
  0
VERTEX
  5
1441D
  8
0
 10
535.69400177197895
 20
249.1896233458103
 30
0.0
  0
VERTEX
  5
1441E
  8
0
 10
534.879380866068
 20
249.64840962795361
 30
0.0
  0
VERTEX
  5
1441F
  8
0
 10
534.05488441428668
 20
250.07606771653479
 30
0.0
  0
VERTEX
  5
14420
  8
0
 10
533.22121002294671
 20
250.4722357701157
 30
0.0
  0
VERTEX
  5
14421
  8
0
 10
532.37906306381308
 20
250.8365785909711
 30
0.0
  0
VERTEX
  5
14422
  8
0
 10
531.52915607729017
 20
251.16878790870021
 30
0.0
  0
VERTEX
  5
14423
  8
0
 10
531.10151705455974
 20
251.32275359699119
 30
0.0
  0
VERTEX
  5
14424
  8
0
 10
530.67220816953966
 20
251.46858264105401
 30
0.0
  0
VERTEX
  5
14425
  8
0
 10
529.80894440404506
 20
251.7357091317586
 30
0.0
  0
VERTEX
  5
14426
  8
0
 10
528.94009518813607
 20
251.96994136513419
 30
0.0
  0
VERTEX
  5
14427
  8
0
 10
528.06639565499245
 20
252.17108115732671
 30
0.0
  0
VERTEX
  5
14428
  8
0
 10
527.18858504164473
 20
252.33895832399091
 30
0.0
  0
VERTEX
  5
14429
  8
0
 10
526.30740606350855
 20
252.4734308242837
 30
0.0
  0
VERTEX
  5
1442A
  8
0
 10
525.86578633273655
 20
252.528103662332
 30
0.0
  0
VERTEX
  5
1442B
  8
0
 10
525.42360428597249
 20
252.57438488104481
 30
0.0
  0
VERTEX
  5
1442C
  8
0
 10
524.53792749357581
 20
252.64173507706329
 30
0.0
  0
VERTEX
  5
1442D
  8
0
 10
523.6511250573061
 20
252.67542442734941
 30
0.0
  0
VERTEX
  5
1442E
  8
0
 10
523.20753617893297
 20
252.67963626432851
 30
0.0
  0
VERTEX
  5
1442F
  8
0
 10
522.76394730055972
 20
252.67542442734941
 30
0.0
  0
VERTEX
  5
14430
  8
0
 10
521.87714486429013
 20
252.64173507706329
 30
0.0
  0
VERTEX
  5
14431
  8
0
 10
520.99146807189345
 20
252.57438488104481
 30
0.0
  0
VERTEX
  5
14432
  8
0
 10
520.54928602512916
 20
252.528103662332
 30
0.0
  0
VERTEX
  5
14433
  8
0
 10
520.10766629435739
 20
252.4734308242837
 30
0.0
  0
VERTEX
  5
14434
  8
0
 10
519.22648731622121
 20
252.33895832399091
 30
0.0
  0
VERTEX
  5
14435
  8
0
 10
518.34867670287349
 20
252.17108115732671
 30
0.0
  0
VERTEX
  5
14436
  8
0
 10
517.47497716972975
 20
251.96994136513419
 30
0.0
  0
VERTEX
  5
14437
  8
0
 10
516.60612795382065
 20
251.7357091317586
 30
0.0
  0
VERTEX
  5
14438
  8
0
 10
515.74286418832605
 20
251.46858264105401
 30
0.0
  0
VERTEX
  5
14439
  8
0
 10
515.31355530330609
 20
251.32275359699119
 30
0.0
  0
VERTEX
  5
1443A
  8
0
 10
514.88591628057509
 20
251.16878790870021
 30
0.0
  0
VERTEX
  5
1443B
  8
0
 10
514.03600929405275
 20
250.8365785909711
 30
0.0
  0
VERTEX
  5
1443C
  8
0
 10
513.19386233491923
 20
250.4722357701157
 30
0.0
  0
VERTEX
  5
1443D
  8
0
 10
512.36018794357915
 20
250.07606771653491
 30
0.0
  0
VERTEX
  5
1443E
  8
0
 10
511.53569149179788
 20
249.64840962795361
 30
0.0
  0
VERTEX
  5
1443F
  8
0
 10
510.72107058588699
 20
249.1896233458103
 30
0.0
  0
VERTEX
  5
14440
  8
0
 10
510.31767919584172
 20
248.9486774181085
 30
0.0
  0
VERTEX
  5
14441
  8
0
 10
509.91701447646199
 20
248.70009704910299
 30
0.0
  0
VERTEX
  5
14442
  8
0
 10
509.12420347526449
 20
248.1802449259508
 30
0.0
  0
VERTEX
  5
14443
  8
0
 10
508.34330837955213
 20
247.63050682314949
 30
0.0
  0
VERTEX
  5
14444
  8
0
 10
507.57498990453718
 20
247.05134787401769
 30
0.0
  0
VERTEX
  5
14445
  8
0
 10
506.81989812435489
 20
246.4432581048469
 30
0.0
  0
VERTEX
  5
14446
  8
0
 10
506.07867192203639
 20
245.8067520202909
 30
0.0
  0
VERTEX
  5
14447
  8
0
 10
505.71345487022597
 20
245.47801022903869
 30
0.0
  0
VERTEX
  5
14448
  8
0
 10
505.35193844895002
 20
245.14236816804319
 30
0.0
  0
VERTEX
  5
14449
  8
0
 10
504.64031259416703
 20
244.45066868317201
 30
0.0
  0
VERTEX
  5
1444A
  8
0
 10
503.94439646420682
 20
243.7322388124976
 30
0.0
  0
VERTEX
  5
1444B
  8
0
 10
503.26477887359209
 20
242.9876864194155
 30
0.0
  0
VERTEX
  5
1444C
  8
0
 10
502.60203484665539
 20
242.21764146958321
 30
0.0
  0
VERTEX
  5
1444D
  8
0
 10
501.95672513100811
 20
241.42275549790611
 30
0.0
  0
VERTEX
  5
1444E
  8
0
 10
501.64077935274332
 20
241.01620649607921
 30
0.0
  0
VERTEX
  5
1444F
  8
0
 10
501.32939572309442
 20
240.60370105727409
 30
0.0
  0
VERTEX
  5
14450
  8
0
 10
500.72057740622398
 20
239.76117114951481
 30
0.0
  0
VERTEX
  5
14451
  8
0
 10
500.13078530147448
 20
238.8958786390447
 30
0.0
  0
VERTEX
  5
14452
  8
0
 10
499.56051843184832
 20
238.00855564971451
 30
0.0
  0
VERTEX
  5
14453
  8
0
 10
499.01025930005011
 20
237.0999529453598
 30
0.0
  0
VERTEX
  5
14454
  8
0
 10
498.48047348024141
 20
236.1708392945792
 30
0.0
  0
VERTEX
  5
14455
  8
0
 10
498.2233988281186
 20
235.69883586787461
 30
0.0
  0
VERTEX
  5
14456
  8
0
 10
497.97160922411689
 20
235.2220008202801
 30
0.0
  0
VERTEX
  5
14457
  8
0
 10
497.4840970816399
 20
234.2542403345393
 30
0.0
  0
VERTEX
  5
14458
  8
0
 10
497.01834953675422
 20
233.26837665934491
 30
0.0
  0
VERTEX
  5
14459
  8
0
 10
496.79376136350771
 20
232.76891621505709
 30
0.0
  0
VERTEX
  5
1445A
  8
0
 10
496.57476065838091
 20
232.2652439337904
 30
0.0
  0
VERTEX
  5
1445B
  8
0
 10
496.15370576699701
 20
231.24569090830991
 30
0.0
  0
VERTEX
  5
1445C
  8
0
 10
495.75554111707743
 20
230.2105802265506
 30
0.0
  0
VERTEX
  5
1445D
  8
0
 10
495.56514867431491
 20
229.68746396024329
 30
0.0
  0
VERTEX
  5
1445E
  8
0
 10
495.38060359566589
 20
229.1607876954904
 30
0.0
  0
VERTEX
  5
1445F
  8
0
 10
495.0292104373388
 20
228.097201544417
 30
0.0
  0
VERTEX
  5
14460
  8
0
 10
494.70165895578879
 20
227.02072167339799
 30
0.0
  0
VERTEX
  5
14461
  8
0
 10
494.39822629227092
 20
225.93225889187539
 30
0.0
  0
VERTEX
  5
14462
  8
0
 10
494.11916918111177
 20
224.8327341480296
 30
0.0
  0
VERTEX
  5
14463
  8
0
 10
493.86472373248762
 20
223.7230777495657
 30
0.0
  0
VERTEX
  5
14464
  8
0
 10
493.74679847711639
 20
223.16474326669791
 30
0.0
  0
VERTEX
  5
14465
  8
0
 10
493.6351052326504
 20
222.60422857657991
 30
0.0
  0
VERTEX
  5
14466
  8
0
 10
493.43050796177522
 20
221.4771332871737
 30
0.0
  0
VERTEX
  5
14467
  8
0
 10
493.25110502957881
 20
220.34274551648599
 30
0.0
  0
VERTEX
  5
14468
  8
0
 10
493.097048228853
 20
219.20202506982309
 30
0.0
  0
VERTEX
  5
14469
  8
0
 10
492.96846790703188
 20
218.0559371105675
 30
0.0
  0
VERTEX
  5
1446A
  8
0
 10
492.86547285590399
 20
216.90545134355301
 30
0.0
  0
VERTEX
  5
1446B
  8
0
 10
492.82359788713478
 20
216.32886335485571
 30
0.0
  0
VERTEX
  5
1446C
  8
0
 10
492.78815021956552
 20
215.75154119459799
 30
0.0
  0
VERTEX
  5
1446D
  8
0
 10
492.73656542068642
 20
214.59518298688971
 30
0.0
  0
VERTEX
  5
1446E
  8
0
 10
492.71076210515639
 20
213.43735511491769
 30
0.0
  0
VERTEX
  5
1446F
  8
0
 10
492.70753617893291
 20
212.85819616578581
 30
0.0
  0
SEQEND
  5
14470
  8
0
  0
POLYLINE
  5
D795
  8
0
 66
     1
 10
0.0
 20
0.0
 30
0.0
  0
VERTEX
  5
14471
  8
0
 10
492.70753617893291
 20
212.85819616578581
 30
0.0
  0
VERTEX
  5
14472
  8
0
 10
492.7155048257809
 20
211.94797703009661
 30
0.0
  0
VERTEX
  5
14473
  8
0
 10
492.77922901939741
 20
210.12944099277269
 30
0.0
  0
VERTEX
  5
14474
  8
0
 10
492.90654423174323
 20
208.3166076822028
 30
0.0
  0
VERTEX
  5
14475
  8
0
 10
492.99397050057081
 20
207.4135141613522
 30
0.0
  0
VERTEX
  5
14476
  8
0
 10
493.09718439135941
 20
206.51326567316349
 30
0.0
  0
VERTEX
  5
14477
  8
0
 10
493.35075108627137
 20
204.72318370490379
 30
0.0
  0
VERTEX
  5
14478
  8
0
 10
493.66671439661332
 20
202.95010280499301
 30
0.0
  0
VERTEX
  5
14479
  8
0
 10
494.0444140020885
 20
201.19772847108231
 30
0.0
  0
VERTEX
  5
1447A
  8
0
 10
494.48306056195167
 20
199.46972292691979
 30
0.0
  0
VERTEX
  5
1447B
  8
0
 10
494.98173736462007
 20
197.7696974688009
 30
0.0
  0
VERTEX
  5
1447C
  8
0
 10
495.25326627274438
 20
196.93129001688879
 30
0.0
  0
VERTEX
  5
1447D
  8
0
 10
495.53940224347753
 20
196.10120491845109
 30
0.0
  0
VERTEX
  5
1447E
  8
0
 10
496.15488975486141
 20
194.4677321981122
 30
0.0
  0
VERTEX
  5
1447F
  8
0
 10
496.82691361367961
 20
192.87269304335001
 30
0.0
  0
VERTEX
  5
14480
  8
0
 10
497.5540693815733
 20
191.31942086881119
 30
0.0
  0
VERTEX
  5
14481
  8
0
 10
498.33483740199932
 20
189.81116180184119
 30
0.0
  0
VERTEX
  5
14482
  8
0
 10
499.1675859761076
 20
188.3510678985196
 30
0.0
  0
VERTEX
  5
14483
  8
0
 10
499.6029132628309
 20
187.64004055277519
 30
0.0
  0
VERTEX
  5
14484
  8
0
 10
500.0505747727679
 20
186.94219055629239
 30
0.0
  0
VERTEX
  5
14485
  8
0
 10
500.98195846562697
 20
185.5874741369667
 30
0.0
  0
VERTEX
  5
14486
  8
0
 10
501.9597905895875
 20
184.28974981339559
 30
0.0
  0
VERTEX
  5
14487
  8
0
 10
502.46548988463559
 20
183.66311201779891
 30
0.0
  0
SEQEND
  5
14488
  8
0
  0
POLYLINE
  5
D796
  8
0
 66
     1
 10
0.0
 20
0.0
 30
0.0
  0
VERTEX
  5
14489
  8
0
 10
502.46548988463559
 20
183.66311201779891
 30
0.0
  0
VERTEX
  5
1448A
  8
0
 10
502.53789774182491
 20
183.57668631036381
 30
0.0
  0
VERTEX
  5
1448B
  8
0
 10
502.68607139124828
 20
183.40734169036139
 30
0.0
  0
VERTEX
  5
1448C
  8
0
 10
502.83866863222011
 20
183.242675206548
 30
0.0
  0
VERTEX
  5
1448D
  8
0
 10
502.91660503417961
 20
183.1620964483335
 30
0.0
  0
VERTEX
  5
1448E
  8
0
 10
502.99562154797189
 20
183.08268699367181
 30
0.0
  0
VERTEX
  5
1448F
  8
0
 10
503.15685817046318
 20
182.92737338803079
 30
0.0
  0
VERTEX
  5
14490
  8
0
 10
503.32230256206412
 20
182.7767262896075
 30
0.0
  0
VERTEX
  5
14491
  8
0
 10
503.49187703681889
 20
182.63073091315539
 30
0.0
  0
VERTEX
  5
14492
  8
0
 10
503.66550051195458
 20
182.4893673315556
 30
0.0
  0
VERTEX
  5
14493
  8
0
 10
503.8430849341712
 20
182.35261305214479
 30
0.0
  0
VERTEX
  5
14494
  8
0
 10
503.93333327183791
 20
182.28595633947839
 30
0.0
  0
VERTEX
  5
14495
  8
0
 10
504.02453601291791
 20
182.22044174244959
 30
0.0
  0
VERTEX
  5
14496
  8
0
 10
504.20975347272258
 20
182.09282262083329
 30
0.0
  0
VERTEX
  5
14497
  8
0
 10
504.39863136820532
 20
181.9697199851168
 30
0.0
  0
VERTEX
  5
14498
  8
0
 10
504.591058450861
 20
181.85109287074971
 30
0.0
  0
VERTEX
  5
14499
  8
0
 10
504.78691857860173
 20
181.73689482836519
 30
0.0
  0
VERTEX
  5
1449A
  8
0
 10
504.98609116079388
 20
181.62707380949959
 30
0.0
  0
VERTEX
  5
1449B
  8
0
 10
505.08688083768362
 20
181.57378688156419
 30
0.0
  0
VERTEX
  5
1449C
  8
0
 10
505.18845163324607
 20
181.52157214876959
 30
0.0
  0
VERTEX
  5
1449D
  8
0
 10
505.39387441926368
 20
181.42032545197591
 30
0.0
  0
VERTEX
  5
1449E
  8
0
 10
505.60226504128281
 20
181.32324875671449
 30
0.0
  0
VERTEX
  5
1449F
  8
0
 10
505.7075361790171
 20
181.27625022781311
 30
0.0
  0
SEQEND
  5
144A0
  8
0
  0
LINE
  5
D797
  8
2
 10
553.70753617893286
 20
253.74368873142211
 30
0.0
 11
492.70753617893291
 21
253.74368873142211
 31
0.0
  0
LINE
  5
D79D
  8
0
 10
505.70753617893291
 20
245.47230389040871
 30
0.0
 11
505.70753617893291
 21
179.74368873142211
 31
0.0
  0
LINE
  5
D79E
  8
0
 10
533.72511466735887
 20
250.24368873142211
 30
0.0
 11
512.68995769050707
 21
250.24368873142211
 31
0.0
  0
LINE
  5
D79F
  8
0
 10
540.70753617893286
 20
179.74368873142211
 30
0.0
 11
540.70753617893286
 21
245.47230389040871
 31
0.0
  0
LINE
  5
D7A1
  8
1
 10
523.20753617893297
 20
279.55988871186582
 30
0.0
 11
523.20753617893297
 21
127.9274887509811
 31
0.0
  0
LINE
  5
D7A4
  8
0
 10
553.94053617893314
 20
185.74368873142211
 30
0.0
 11
551.70753617893297
 21
185.74368873142211
 31
0.0
  0
LINE
  5
D7A6
  8
0
 10
552.78221933825478
 20
193.74368873142211
 30
0.0
 11
553.94053617893314
 21
193.74368873142211
 31
0.0
  0
LINE
  5
D7A7
  8
0
 10
554.70753617893286
 20
186.51068873142211
 30
0.0
 11
553.94053617893314
 21
185.74368873142211
 31
0.0
  0
LINE
  5
D7A8
  8
0
 10
553.94053617893314
 20
193.74368873142211
 30
0.0
 11
554.70753617893286
 21
192.97668873142209
 31
0.0
  0
LINE
  5
D7AA
  8
0
 10
497.66695588834858
 20
182.51718786206521
 30
0.0
 11
497.40753617893279
 21
183.4853553980887
 31
0.0
  0
LINE
  5
D7AF
  8
0
 10
551.70753617893297
 20
183.92868873142211
 30
0.0
 11
549.20753617893286
 21
183.92868873142211
 31
0.0
  0
LINE
  5
D7B4
  8
0
 10
549.20753617893286
 20
183.4853553980887
 30
0.0
 11
548.94811646951757
 21
182.51718786206521
 31
0.0
  0
LINE
  5
D7B7
  8
0
 10
540.70753617893286
 20
183.743688731422
 30
0.0
 11
538.20753617893286
 21
183.743688731422
 31
0.0
  0
LINE
  5
D7B9
  8
0
 10
508.20753617893291
 20
183.743688731422
 30
0.0
 11
505.70753617893291
 21
183.743688731422
 31
0.0
  0
LINE
  5
D7BA
  8
0
 10
505.70753617893291
 20
195.74368873142211
 30
0.0
 11
508.20753617893291
 21
195.74368873142211
 31
0.0
  0
LINE
  5
D7BC
  8
0
 10
538.20753617893286
 20
195.74368873142211
 30
0.0
 11
540.70753617889966
 21
195.74368873142211
 31
0.0
  0
LINE
  5
D7BD
  8
0
 10
553.94053617893314
 20
193.74368873142211
 30
0.0
 11
553.94053617893314
 21
185.74368873142211
 31
0.0
  0
LINE
  5
D7BE
  8
0
 10
554.70753617893286
 20
192.97668873142209
 30
0.0
 11
554.70753617893286
 21
186.51068873142211
 31
0.0
  0
LINE
  5
D7BF
  8
0
 10
497.40753617893279
 20
185.9907106038099
 30
0.0
 11
497.40753617893279
 21
183.4853553980887
 31
0.0
  0
POLYLINE
  5
D7C3
  8
0
 66
     1
 10
0.0
 20
0.0
 30
0.0
  0
VERTEX
  5
144A1
  8
0
 10
497.56869259806439
 20
185.7282531978999
 30
0.0
  0
VERTEX
  5
144A2
  8
0
 10
497.51909688515929
 20
185.48405707058669
 30
0.0
  0
VERTEX
  5
144A3
  8
0
 10
497.4477574086722
 20
185.01326576444541
 30
0.0
  0
VERTEX
  5
144A4
  8
0
 10
497.4120589556664
 20
184.5537895108325
 30
0.0
  0
VERTEX
  5
144A5
  8
0
 10
497.40753617893279
 20
184.32381307940449
 30
0.0
  0
SEQEND
  5
144A6
  8
0
  0
POLYLINE
  5
D7C4
  8
0
 66
     1
 10
0.0
 20
0.0
 30
0.0
  0
VERTEX
  5
144A7
  8
0
 10
497.40753617893279
 20
184.32381307940449
 30
0.0
  0
VERTEX
  5
144A8
  8
0
 10
497.41472631255277
 20
184.033730508085
 30
0.0
  0
VERTEX
  5
144A9
  8
0
 10
497.47150089633709
 20
183.45132233650929
 30
0.0
  0
VERTEX
  5
144AA
  8
0
 10
497.5861112350903
 20
182.8417617577374
 30
0.0
  0
VERTEX
  5
144AB
  8
0
 10
497.66695588834858
 20
182.51718786206521
 30
0.0
  0
SEQEND
  5
144AC
  8
0
  0
LINE
  5
D7C7
  8
0
 10
497.66695588834858
 20
182.51718786206521
 30
0.0
 11
499.9264748263999
 21
182.51718786206521
 31
0.0
  0
LINE
  5
D7E1
  8
0
 10
551.70753617893297
 20
191.14009161769471
 30
0.0
 11
551.70753617893297
 21
183.92868873142211
 31
0.0
  0
LINE
  5
D7E3
  8
0
 10
549.20753617893286
 20
186.3234548145488
 30
0.0
 11
549.20753617893286
 21
183.4853553980887
 31
0.0
  0
POLYLINE
  5
D7E6
  8
0
 66
     1
 10
0.0
 20
0.0
 30
0.0
  0
VERTEX
  5
144AD
  8
0
 10
548.94811646951757
 20
182.51718786206521
 30
0.0
  0
VERTEX
  5
144AE
  8
0
 10
549.0289611227754
 20
182.8417617577374
 30
0.0
  0
VERTEX
  5
144AF
  8
0
 10
549.14357146152861
 20
183.45132233650929
 30
0.0
  0
VERTEX
  5
144B0
  8
0
 10
549.20034604531293
 20
184.033730508085
 30
0.0
  0
VERTEX
  5
144B1
  8
0
 10
549.20753617893286
 20
184.32381307940449
 30
0.0
  0
SEQEND
  5
144B2
  8
0
  0
POLYLINE
  5
D7E7
  8
0
 66
     1
 10
0.0
 20
0.0
 30
0.0
  0
VERTEX
  5
144B3
  8
0
 10
549.20753617893286
 20
184.32381307940449
 30
0.0
  0
VERTEX
  5
144B4
  8
0
 10
549.2015209251889
 20
184.58909289833889
 30
0.0
  0
VERTEX
  5
144B5
  8
0
 10
549.15404044572279
 20
185.12049323010811
 30
0.0
  0
VERTEX
  5
144B6
  8
0
 10
549.05864059775922
 20
185.67141480527539
 30
0.0
  0
VERTEX
  5
144B7
  8
0
 10
548.99178942654044
 20
185.96137636107039
 30
0.0
  0
SEQEND
  5
144B8
  8
0
  0
LINE
  5
D7EA
  8
0
 10
546.48859753146587
 20
182.51718786206521
 30
0.0
 11
548.94811646951757
 21
182.51718786206521
 31
0.0
  0
LINE
  5
D808
  8
1
 10
484.36996164779521
 20
189.74368873142211
 30
0.0
 11
562.04511071007073
 21
189.74368873142211
 31
0.0
  0
ARC
  5
D828
  8
0
 10
510.20753617893303
 20
236.65272591171711
 30
0.0
 40
2.0000000000000009
 50
99.594068226878051
 51
180.0
  0
ARC
  5
D829
  8
0
 10
510.20753617893303
 20
142.83465155112711
 30
0.0
 40
2.000000000000008
 50
180.0
 51
260.40593177317481
  0
ARC
  5
D82A
  8
0
 10
523.20753617893297
 20
159.74368873142311
 30
0.0
 40
79.999999999998934
 50
80.405931773174814
 51
99.594068226878051
  0
ARC
  5
D82B
  8
0
 10
523.20753617893297
 20
219.7436887314216
 30
0.0
 40
79.999999999999432
 50
260.40593177317481
 51
279.59406822687799
  0
ARC
  5
D82C
  8
0
 10
536.20753617893286
 20
236.65272591171711
 30
0.0
 40
1.999999999999966
 50
0.0
 51
80.405931773174814
  0
ARC
  5
D82D
  8
0
 10
536.20753617893286
 20
142.834651551127
 30
0.0
 40
1.9999999999999749
 50
279.59406822687799
 51
0.0
  0
LINE
  5
D838
  8
0
 10
508.20753617893291
 20
236.65272591171711
 30
0.0
 11
508.20753617893291
 21
142.83465155112711
 31
0.0
  0
LINE
  5
D83A
  8
0
 10
538.20753617893286
 20
236.65272591171711
 30
0.0
 11
538.20753617893286
 21
142.83465155112711
 31
0.0
  0
LINE
  5
D840
  8
0
 10
304.2023159840478
 20
395.48045729116279
 30
0.0
 11
304.2023159840478
 21
398.48045729116279
 31
0.0
  0
LINE
  5
D841
  8
0
 10
304.2023159840478
 20
357.48045729116279
 30
0.0
 11
304.2023159840478
 21
360.48045729116279
 31
0.0
  0
CIRCLE
  5
D844
  8
0
 10
353.90231598404762
 20
377.98045729116279
 30
0.0
 40
11.0
  0
CIRCLE
  5
D845
  8
0
 10
353.90231598404762
 20
377.98045729116279
 30
0.0
 40
28.025000000000009
  0
CIRCLE
  5
D846
  8
0
 10
353.90231598404762
 20
377.98045729116279
 30
0.0
 40
31.025000000000009
  0
CIRCLE
  5
D847
  8
0
 10
353.90231598404762
 20
377.98045729116279
 30
0.0
 40
32.5
  0
CIRCLE
  5
D848
  8
0
 10
353.90231598404762
 20
377.98045729116279
 30
0.0
 40
36.5
  0
LINE
  5
D84C
  8
0
 10
314.40231598404762
 20
357.48045729116279
 30
0.0
 11
314.40231598404762
 21
398.48045729116279
 31
0.0
  0
LINE
  5
D852
  8
0
 10
323.70297824296449
 20
398.48045729116279
 30
0.0
 11
304.2023159840478
 21
398.48045729116279
 31
0.0
  0
LINE
  5
D855
  8
0
 10
304.2023159840478
 20
357.48045729116279
 30
0.0
 11
323.70297824296449
 21
357.48045729116279
 31
0.0
  0
LINE
  5
D858
  8
0
 10
304.2023159840478
 20
360.48045729116279
 30
0.0
 11
314.40231598404762
 21
360.48045729116279
 31
0.0
  0
LINE
  5
D85A
  8
0
 10
314.40231598404762
 20
395.48045729116279
 30
0.0
 11
304.2023159840478
 21
395.48045729116279
 31
0.0
  0
CIRCLE
  5
D85C
  8
0
 10
353.90231598404762
 20
377.98045729116279
 30
0.0
 40
6.0
  0
LINE
  5
D85D
  8
1
 10
257.08611600360558
 20
377.98045729116279
 30
0.0
 11
397.73989051518538
 21
377.98045729116279
 31
0.0
  0
LINE
  5
D85E
  8
1
 10
353.90231598404762
 20
421.81803182230038
 30
0.0
 11
353.90231598404762
 21
334.14288276002509
 31
0.0
  0
LINE
  5
D860
  8
0
 10
313.08731598404762
 20
356.88045729116283
 30
0.0
 11
313.08731598404762
 21
357.48045729116279
 31
0.0
  0
LINE
  5
D861
  8
0
 10
322.90231598404762
 20
408.7134572911628
 30
0.0
 11
322.90231598404762
 21
406.48045729116279
 31
0.0
  0
LINE
  5
D862
  8
0
 10
314.90231598404762
 20
406.48045729116279
 30
0.0
 11
314.90231598404762
 21
408.7134572911628
 31
0.0
  0
LINE
  5
D863
  8
0
 10
322.13531598404779
 20
409.48045729116279
 30
0.0
 11
322.90231598404762
 21
408.7134572911628
 31
0.0
  0
LINE
  5
D864
  8
0
 10
314.90231598404762
 20
408.7134572911628
 30
0.0
 11
315.66931598404739
 21
409.48045729116279
 31
0.0
  0
LINE
  5
D867
  8
0
 10
324.71731598404767
 20
406.48045729116279
 30
0.0
 11
324.71731598404767
 21
403.98045729116268
 31
0.0
  0
LINE
  5
D868
  8
0
 10
313.08731598404762
 20
403.98045729116268
 30
0.0
 11
313.08731598404762
 21
406.48045729116279
 31
0.0
  0
LINE
  5
D86C
  8
0
 10
312.90231598404762
 20
360.48045729116279
 30
0.0
 11
312.90231598404762
 21
362.98045729116279
 31
0.0
  0
LINE
  5
D86E
  8
0
 10
312.90231598404762
 20
392.98045729116279
 30
0.0
 11
312.90231598404762
 21
395.48045729116279
 31
0.0
  0
LINE
  5
D86F
  8
0
 10
314.90231598404762
 20
408.7134572911628
 30
0.0
 11
322.90231598404762
 21
408.7134572911628
 31
0.0
  0
LINE
  5
D870
  8
0
 10
315.66931598404739
 20
409.48045729116279
 30
0.0
 11
322.13531598404779
 21
409.48045729116279
 31
0.0
  0
LINE
  5
D871
  8
0
 10
312.64398265071441
 20
352.18045729116278
 30
0.0
 11
325.16064931738077
 21
352.18045729116278
 31
0.0
  0
LINE
  5
D872
  8
0
 10
312.64398265071441
 20
356.88045729116283
 30
0.0
 11
324.1218877603846
 21
356.88045729116283
 31
0.0
  0
POLYLINE
  5
D87E
  8
0
 66
     1
 10
0.0
 20
0.0
 30
0.0
  0
VERTEX
  5
144B9
  8
0
 10
322.03148265071422
 20
356.88045729116283
 30
0.0
  0
VERTEX
  5
144BA
  8
0
 10
321.52904489879887
 20
356.87326715754301
 30
0.0
  0
VERTEX
  5
144BB
  8
0
 10
320.52028435488643
 20
356.81649257375852
 30
0.0
  0
VERTEX
  5
144BC
  8
0
 10
319.46449446216229
 20
356.70188223500543
 30
0.0
  0
VERTEX
  5
144BD
  8
0
 10
318.90231598404762
 20
356.62103758174732
 30
0.0
  0
SEQEND
  5
144BE
  8
0
  0
POLYLINE
  5
D87F
  8
0
 66
     1
 10
0.0
 20
0.0
 30
0.0
  0
VERTEX
  5
144BF
  8
0
 10
318.90231598404762
 20
352.43987700057841
 30
0.0
  0
VERTEX
  5
144C0
  8
0
 10
319.46449446216229
 20
352.35903234732018
 30
0.0
  0
VERTEX
  5
144C1
  8
0
 10
320.52028435488643
 20
352.24442200856708
 30
0.0
  0
VERTEX
  5
144C2
  8
0
 10
321.52904489879887
 20
352.18764742478282
 30
0.0
  0
VERTEX
  5
144C3
  8
0
 10
322.03148265071422
 20
352.18045729116278
 30
0.0
  0
SEQEND
  5
144C4
  8
0
  0
POLYLINE
  5
D880
  8
0
 66
     1
 10
0.0
 20
0.0
 30
0.0
  0
VERTEX
  5
144C5
  8
0
 10
322.03148265071422
 20
352.18045729116278
 30
0.0
  0
VERTEX
  5
144C6
  8
0
 10
322.53392040262997
 20
352.18764742478282
 30
0.0
  0
VERTEX
  5
144C7
  8
0
 10
323.54268094654208
 20
352.24442200856708
 30
0.0
  0
VERTEX
  5
144C8
  8
0
 10
324.59847083926621
 20
352.35903234732018
 30
0.0
  0
VERTEX
  5
144C9
  8
0
 10
325.16064931738077
 20
352.43987700057841
 30
0.0
  0
SEQEND
  5
144CA
  8
0
  0
POLYLINE
  5
D882
  8
0
 66
     1
 10
0.0
 20
0.0
 30
0.0
  0
VERTEX
  5
144CB
  8
0
 10
324.2093631633752
 20
356.75013621118683
 30
0.0
  0
VERTEX
  5
144CC
  8
0
 10
323.83453755500932
 20
356.7900976704164
 30
0.0
  0
VERTEX
  5
144CD
  8
0
 10
323.10592816757338
 20
356.84782362068751
 30
0.0
  0
VERTEX
  5
144CE
  8
0
 10
322.39019119098521
 20
356.87678860020748
 30
0.0
  0
VERTEX
  5
144CF
  8
0
 10
322.03148265071422
 20
356.88045729116283
 30
0.0
  0
SEQEND
  5
144D0
  8
0
  0
POLYLINE
  5
D883
  8
0
 66
     1
 10
0.0
 20
0.0
 30
0.0
  0
VERTEX
  5
144D1
  8
0
 10
315.77314931738101
 20
356.88045729116283
 30
0.0
  0
VERTEX
  5
144D2
  8
0
 10
315.27071156546532
 20
356.87326715754301
 30
0.0
  0
VERTEX
  5
144D3
  8
0
 10
314.26195102155322
 20
356.81649257375852
 30
0.0
  0
VERTEX
  5
144D4
  8
0
 10
313.20616112882908
 20
356.70188223500543
 30
0.0
  0
VERTEX
  5
144D5
  8
0
 10
312.64398265071441
 20
356.62103758174732
 30
0.0
  0
SEQEND
  5
144D6
  8
0
  0
POLYLINE
  5
D885
  8
0
 66
     1
 10
0.0
 20
0.0
 30
0.0
  0
VERTEX
  5
144D7
  8
0
 10
312.64398265071441
 20
352.43987700057841
 30
0.0
  0
VERTEX
  5
144D8
  8
0
 10
313.20616112882908
 20
352.35903234732018
 30
0.0
  0
VERTEX
  5
144D9
  8
0
 10
314.26195102155322
 20
352.24442200856708
 30
0.0
  0
VERTEX
  5
144DA
  8
0
 10
315.27071156546532
 20
352.18764742478282
 30
0.0
  0
VERTEX
  5
144DB
  8
0
 10
315.77314931738101
 20
352.18045729116278
 30
0.0
  0
SEQEND
  5
144DC
  8
0
  0
POLYLINE
  5
D886
  8
0
 66
     1
 10
0.0
 20
0.0
 30
0.0
  0
VERTEX
  5
144DD
  8
0
 10
315.77314931738101
 20
352.18045729116278
 30
0.0
  0
VERTEX
  5
144DE
  8
0
 10
316.27558706929631
 20
352.18764742478282
 30
0.0
  0
VERTEX
  5
144DF
  8
0
 10
317.28434761320892
 20
352.24442200856708
 30
0.0
  0
VERTEX
  5
144E0
  8
0
 10
318.34013750593289
 20
352.35903234732018
 30
0.0
  0
VERTEX
  5
144E1
  8
0
 10
318.90231598404762
 20
352.43987700057841
 30
0.0
  0
SEQEND
  5
144E2
  8
0
  0
LINE
  5
D887
  8
0
 10
318.90231598404762
 20
352.43987700057841
 30
0.0
 11
318.90231598404762
 21
356.62103758174732
 31
0.0
  0
POLYLINE
  5
D888
  8
0
 66
     1
 10
0.0
 20
0.0
 30
0.0
  0
VERTEX
  5
144E3
  8
0
 10
318.90231598404762
 20
356.62103758174732
 30
0.0
  0
VERTEX
  5
144E4
  8
0
 10
318.34013750593289
 20
356.70188223500543
 30
0.0
  0
VERTEX
  5
144E5
  8
0
 10
317.28434761320892
 20
356.81649257375852
 30
0.0
  0
VERTEX
  5
144E6
  8
0
 10
316.27558706929631
 20
356.87326715754301
 30
0.0
  0
VERTEX
  5
144E7
  8
0
 10
315.77314931738101
 20
356.88045729116283
 30
0.0
  0
SEQEND
  5
144E8
  8
0
  0
LINE
  5
D88D
  8
0
 10
313.08731598404762
 20
406.48045729116279
 30
0.0
 11
324.71731598404767
 21
406.48045729116279
 31
0.0
  0
LINE
  5
D88E
  8
0
 10
312.64398265071441
 20
403.98045729116268
 30
0.0
 11
325.16064931738077
 21
403.98045729116268
 31
0.0
  0
POLYLINE
  5
D899
  8
0
 66
     1
 10
0.0
 20
0.0
 30
0.0
  0
VERTEX
  5
144E9
  8
0
 10
322.03148265071422
 20
403.98045729116268
 30
0.0
  0
VERTEX
  5
144EA
  8
0
 10
321.52904489879887
 20
403.97326715754281
 30
0.0
  0
VERTEX
  5
144EB
  8
0
 10
320.52028435488643
 20
403.91649257375849
 30
0.0
  0
VERTEX
  5
144EC
  8
0
 10
319.46449446216229
 20
403.80188223500539
 30
0.0
  0
VERTEX
  5
144ED
  8
0
 10
318.90231598404762
 20
403.72103758174728
 30
0.0
  0
SEQEND
  5
144EE
  8
0
  0
POLYLINE
  5
D89A
  8
0
 66
     1
 10
0.0
 20
0.0
 30
0.0
  0
VERTEX
  5
144EF
  8
0
 10
318.90231598404762
 20
398.7398770005783
 30
0.0
  0
VERTEX
  5
144F0
  8
0
 10
319.4644944621586
 20
398.6590323473207
 30
0.0
  0
VERTEX
  5
144F1
  8
0
 10
320.52028435487642
 20
398.54442200856801
 30
0.0
  0
VERTEX
  5
144F2
  8
0
 10
321.5290448987821
 20
398.48764742478318
 30
0.0
  0
VERTEX
  5
144F3
  8
0
 10
322.03148265069422
 20
398.48045729116279
 30
0.0
  0
SEQEND
  5
144F4
  8
0
  0
POLYLINE
  5
D89B
  8
0
 66
     1
 10
0.0
 20
0.0
 30
0.0
  0
VERTEX
  5
144F5
  8
0
 10
322.03148265071422
 20
398.48045729116279
 30
0.0
  0
VERTEX
  5
144F6
  8
0
 10
322.31785590109121
 20
398.4827964763212
 30
0.0
  0
VERTEX
  5
144F7
  8
0
 10
322.88835196928858
 20
398.50128507181051
 30
0.0
  0
VERTEX
  5
144F8
  8
0
 10
323.46356212106502
 20
398.5380075987253
 30
0.0
  0
VERTEX
  5
144F9
  8
0
 10
323.75579457023611
 20
398.5632781626411
 30
0.0
  0
SEQEND
  5
144FA
  8
0
  0
POLYLINE
  5
D89D
  8
0
 66
     1
 10
0.0
 20
0.0
 30
0.0
  0
VERTEX
  5
144FB
  8
0
 10
325.16064931738077
 20
403.72103758174728
 30
0.0
  0
VERTEX
  5
144FC
  8
0
 10
324.59847083926621
 20
403.80188223500539
 30
0.0
  0
VERTEX
  5
144FD
  8
0
 10
323.54268094654208
 20
403.91649257375849
 30
0.0
  0
VERTEX
  5
144FE
  8
0
 10
322.53392040262997
 20
403.97326715754281
 30
0.0
  0
VERTEX
  5
144FF
  8
0
 10
322.03148265071422
 20
403.98045729116268
 30
0.0
  0
SEQEND
  5
14500
  8
0
  0
POLYLINE
  5
D89E
  8
0
 66
     1
 10
0.0
 20
0.0
 30
0.0
  0
VERTEX
  5
14501
  8
0
 10
315.77314931738101
 20
403.98045729116268
 30
0.0
  0
VERTEX
  5
14502
  8
0
 10
315.27071156546532
 20
403.97326715754281
 30
0.0
  0
VERTEX
  5
14503
  8
0
 10
314.26195102155322
 20
403.91649257375849
 30
0.0
  0
VERTEX
  5
14504
  8
0
 10
313.20616112882908
 20
403.80188223500539
 30
0.0
  0
VERTEX
  5
14505
  8
0
 10
312.64398265071441
 20
403.72103758174728
 30
0.0
  0
SEQEND
  5
14506
  8
0
  0
POLYLINE
  5
D8A0
  8
0
 66
     1
 10
0.0
 20
0.0
 30
0.0
  0
VERTEX
  5
14507
  8
0
 10
312.64398265071441
 20
398.7398770005783
 30
0.0
  0
VERTEX
  5
14508
  8
0
 10
313.20616112882499
 20
398.6590323473207
 30
0.0
  0
VERTEX
  5
14509
  8
0
 10
314.26195102154128
 20
398.54442200856801
 30
0.0
  0
VERTEX
  5
1450A
  8
0
 10
315.27071156544662
 20
398.48764742478329
 30
0.0
  0
VERTEX
  5
1450B
  8
0
 10
315.77314931735827
 20
398.48045729116279
 30
0.0
  0
SEQEND
  5
1450C
  8
0
  0
POLYLINE
  5
D8A1
  8
0
 66
     1
 10
0.0
 20
0.0
 30
0.0
  0
VERTEX
  5
1450D
  8
0
 10
315.77314931738101
 20
398.48045729116279
 30
0.0
  0
VERTEX
  5
1450E
  8
0
 10
316.27558706929631
 20
398.48764742478272
 30
0.0
  0
VERTEX
  5
1450F
  8
0
 10
317.28434761320892
 20
398.54442200856721
 30
0.0
  0
VERTEX
  5
14510
  8
0
 10
318.34013750593289
 20
398.65903234732019
 30
0.0
  0
VERTEX
  5
14511
  8
0
 10
318.90231598404762
 20
398.7398770005783
 30
0.0
  0
SEQEND
  5
14512
  8
0
  0
LINE
  5
D8A2
  8
0
 10
318.90231598404762
 20
398.7398770005783
 30
0.0
 11
318.90231598404762
 21
403.72103758174728
 31
0.0
  0
POLYLINE
  5
D8A3
  8
0
 66
     1
 10
0.0
 20
0.0
 30
0.0
  0
VERTEX
  5
14513
  8
0
 10
318.90231598404762
 20
403.72103758174728
 30
0.0
  0
VERTEX
  5
14514
  8
0
 10
318.34013750593289
 20
403.80188223500539
 30
0.0
  0
VERTEX
  5
14515
  8
0
 10
317.28434761320892
 20
403.91649257375849
 30
0.0
  0
VERTEX
  5
14516
  8
0
 10
316.27558706929631
 20
403.97326715754281
 30
0.0
  0
VERTEX
  5
14517
  8
0
 10
315.77314931738101
 20
403.98045729116268
 30
0.0
  0
SEQEND
  5
14518
  8
0
  0
LINE
  5
D8AD
  8
1
 10
318.90231598404762
 20
344.84288276002519
 30
0.0
 11
318.90231598404762
 21
416.81803182230038
 31
0.0
  0
ARC
  5
D8CC
  8
0
 10
271.99327880375267
 20
364.98045729116279
 30
0.0
 40
2.0000000000000009
 50
189.59406822685841
 51
270.0
  0
ARC
  5
D8CE
  8
0
 10
348.90231598404671
 20
377.98045729116291
 30
0.0
 40
79.999999999998934
 50
170.40593177314159
 51
189.59406822685841
  0
ARC
  5
D8D0
  8
0
 10
271.99327880375267
 20
390.98045729116279
 30
0.0
 40
1.999999999999968
 50
90.0
 51
170.40593177314159
  0
LINE
  5
D8DC
  8
0
 10
271.99327880375267
 20
362.98045729116279
 30
0.0
 11
314.40201125800149
 21
362.98045729116279
 31
0.0
  0
LINE
  5
D8E0
  8
0
 10
271.99327880375267
 20
392.98045729116279
 30
0.0
 11
314.40201125800149
 21
392.98045729116279
 31
0.0
  0
CIRCLE
  5
FFD1
  8
0
 10
318.90231598404807
 20
189.74368873142359
 30
0.0
 40
6.2583333333333311
  0
LINE
  5
FFD2
  8
0
 10
312.6439826507148
 20
193.35693916610191
 30
0.0
 11
318.90231598404807
 21
196.9701896007804
 31
0.0
  0
LINE
  5
FFD3
  8
0
 10
312.6439826507148
 20
193.35693916610191
 30
0.0
 11
312.6439826507148
 21
186.13043829674521
 31
0.0
  0
LINE
  5
FFD4
  8
0
 10
312.6439826507148
 20
186.13043829674521
 30
0.0
 11
318.90231598404807
 21
182.51718786206669
 31
0.0
  0
LINE
  5
FFD5
  8
0
 10
325.16064931738129
 20
193.35693916610191
 30
0.0
 11
318.90231598404807
 21
196.9701896007804
 31
0.0
  0
LINE
  5
FFD6
  8
0
 10
325.16064931738129
 20
193.35693916610191
 30
0.0
 11
325.16064931738129
 21
186.13043829674521
 31
0.0
  0
LINE
  5
FFD7
  8
0
 10
325.16064931738129
 20
186.13043829674521
 30
0.0
 11
318.90231598404807
 21
182.51718786206669
 31
0.0
  0
LINE
  5
FFD8
  8
1
 10
353.90231598404807
 20
279.55988871186582
 30
0.0
 11
353.90231598404807
 21
221.69241257874981
 31
0.0
  0
LINE
  5
FFD9
  8
1
 10
257.08611600360558
 20
189.74368873142359
 30
0.0
 11
380.71851596449051
 21
189.74368873142359
 31
0.0
  0
LINE
  5
FFDA
  8
1
 10
318.90231598404807
 20
127.9274887509811
 30
0.0
 11
318.90231598404807
 21
241.84248576782349
 31
0.0
  0
ARC
  5
FFE9
  8
0
 10
158.7577360124846
 20
261.44368873142213
 30
0.0
 40
2.9999999999999849
 50
0.0
 51
90.0
  0
ARC
  5
FFEA
  8
0
 10
102.7077360124845
 20
261.44368873142213
 30
0.0
 40
2.9999999999999849
 50
90.0
 51
180.0
  0
LINE
  5
FFEB
  8
0
 10
99.707736012484474
 20
260.94368873142213
 30
0.0
 11
99.707736012484474
 21
261.44368873142213
 31
0.0
  0
LINE
  5
FFEC
  8
0
 10
161.7577360124846
 20
261.44368873142213
 30
0.0
 11
161.7577360124846
 21
260.94368873142213
 31
0.0
  0
ARC
  5
FFED
  8
0
 10
163.23273601248451
 20
256.94368873142213
 30
0.0
 40
4.0000000000000142
 50
0.0
 51
90.0
  0
ARC
  5
FFEE
  8
0
 10
98.232736012484565
 20
256.94368873142213
 30
0.0
 40
4.0000000000000142
 50
90.0
 51
180.0
  0
LINE
  5
FFEF
  8
0
 10
94.232736012484565
 20
255.9436887314221
 30
0.0
 11
94.232736012484565
 21
256.94368873142213
 31
0.0
  0
LINE
  5
FFF0
  8
0
 10
167.23273601248451
 20
256.94368873142213
 30
0.0
 11
167.23273601248451
 21
255.9436887314221
 31
0.0
  0
LINE
  5
FFF1
  8
0
 10
97.732736012484565
 20
212.85819616578581
 30
0.0
 11
97.732736012484565
 21
255.9436887314221
 31
0.0
  0
LINE
  5
FFF2
  8
0
 10
163.73273601248451
 20
255.9436887314221
 30
0.0
 11
163.73273601248451
 21
212.85819616578581
 31
0.0
  0
LINE
  5
FFFC
  8
0
 10
158.7577360124846
 20
264.44368873142201
 30
0.0
 11
102.7077360124845
 21
264.44368873142201
 31
0.0
  0
LINE
  5
FFFE
  8
0
 10
163.23273601248451
 20
260.94368873142213
 30
0.0
 11
98.232736012484565
 21
260.94368873142213
 31
0.0
  0
LINE
  5
10000
  8
0
 10
167.23273601248451
 20
255.9436887314221
 30
0.0
 11
94.232736012484565
 21
255.9436887314221
 31
0.0
  0
LINE
  5
10001
  8
0
 10
110.23273601248459
 20
253.9436887314221
 30
0.0
 11
151.23273601248451
 21
253.9436887314221
 31
0.0
  0
LINE
  5
10002
  8
0
 10
110.23273601248459
 20
180.7833212407734
 30
0.0
 11
110.23273601248459
 21
253.9436887314221
 31
0.0
  0
LINE
  5
10003
  8
0
 10
151.23273601248451
 20
253.9436887314221
 30
0.0
 11
151.23273601248451
 21
180.7833212407734
 31
0.0
  0
POLYLINE
  5
10004
  8
0
 66
     1
 10
0.0
 20
0.0
 30
0.0
  0
VERTEX
  5
14519
  8
0
 10
160.30002804369721
 20
193.74368873142211
 30
0.0
  0
VERTEX
  5
1451A
  8
0
 10
160.66924583491931
 20
194.72907731530611
 30
0.0
  0
VERTEX
  5
1451B
  8
0
 10
161.217799923239
 20
196.36076292916721
 30
0.0
  0
VERTEX
  5
1451C
  8
0
 10
161.47257762062921
 20
197.1873643318913
 30
0.0
  0
VERTEX
  5
1451D
  8
0
 10
161.71420861163139
 20
198.02066778037079
 30
0.0
  0
VERTEX
  5
1451E
  8
0
 10
162.15762278166719
 20
199.70595256365701
 30
0.0
  0
VERTEX
  5
1451F
  8
0
 10
162.54728396325481
 20
201.41373456081109
 30
0.0
  0
VERTEX
  5
14520
  8
0
 10
162.88252563201871
 20
203.1410925716186
 30
0.0
  0
VERTEX
  5
14521
  8
0
 10
163.16277434940909
 20
204.88507191064559
 30
0.0
  0
VERTEX
  5
14522
  8
0
 10
163.3875507435755
 20
206.64268946129559
 30
0.0
  0
VERTEX
  5
14523
  8
0
 10
163.47901294222581
 20
207.52567382277979
 30
0.0
  0
VERTEX
  5
14524
  8
0
 10
163.55647032934979
 20
208.41093877849869
 30
0.0
  0
VERTEX
  5
14525
  8
0
 10
163.6692441659111
 20
210.18679523130501
 30
0.0
  0
VERTEX
  5
14526
  8
0
 10
163.72567935103001
 20
211.96722117658479
 30
0.0
  0
VERTEX
  5
14527
  8
0
 10
163.73273601248451
 20
212.8581961657859
 30
0.0
  0
SEQEND
  5
14528
  8
0
  0
POLYLINE
  5
10007
  8
0
 66
     1
 10
0.0
 20
0.0
 30
0.0
  0
VERTEX
  5
14529
  8
0
 10
97.732736012484565
 20
212.85819616578581
 30
0.0
  0
VERTEX
  5
1452A
  8
0
 10
97.739792673939064
 20
211.96722117658479
 30
0.0
  0
VERTEX
  5
1452B
  8
0
 10
97.796227859058035
 20
210.18679523130501
 30
0.0
  0
VERTEX
  5
1452C
  8
0
 10
97.909001695619295
 20
208.41093877849869
 30
0.0
  0
VERTEX
  5
1452D
  8
0
 10
97.986459082743295
 20
207.52567382277979
 30
0.0
  0
VERTEX
  5
1452E
  8
0
 10
98.077921281393628
 20
206.64268946129559
 30
0.0
  0
VERTEX
  5
1452F
  8
0
 10
98.302697675560026
 20
204.88507191064559
 30
0.0
  0
VERTEX
  5
14530
  8
0
 10
98.582946392950376
 20
203.1410925716186
 30
0.0
  0
VERTEX
  5
14531
  8
0
 10
98.918188061714318
 20
201.41373456081109
 30
0.0
  0
VERTEX
  5
14532
  8
0
 10
99.307849243301916
 20
199.70595256365701
 30
0.0
  0
VERTEX
  5
14533
  8
0
 10
99.751263413337711
 20
198.0206677803707
 30
0.0
  0
VERTEX
  5
14534
  8
0
 10
99.992894404339964
 20
197.1873643318913
 30
0.0
  0
VERTEX
  5
14535
  8
0
 10
100.2476721017301
 20
196.36076292916709
 30
0.0
  0
VERTEX
  5
14536
  8
0
 10
100.79622619004969
 20
194.729077315306
 30
0.0
  0
VERTEX
  5
14537
  8
0
 10
101.3959873639669
 20
193.1284019743955
 30
0.0
  0
VERTEX
  5
14538
  8
0
 10
102.0459297182588
 20
191.56147489826159
 30
0.0
  0
VERTEX
  5
14539
  8
0
 10
102.7449415116448
 20
190.03097635155069
 30
0.0
  0
VERTEX
  5
1453A
  8
0
 10
103.4918270684452
 20
188.53952428707541
 30
0.0
  0
VERTEX
  5
1453B
  8
0
 10
103.882826409093
 20
187.80924065320349
 30
0.0
  0
VERTEX
  5
1453C
  8
0
 10
104.28530882381069
 20
187.08966986774621
 30
0.0
  0
VERTEX
  5
1453D
  8
0
 10
104.9327360124844
 20
186.00451945366331
 30
0.0
  0
SEQEND
  5
1453E
  8
0
  0
LINE
  5
10008
  8
0
 10
151.23273601248451
 20
179.74368873142211
 30
0.0
 11
151.23273601248451
 21
180.7833212407734
 31
0.0
  0
POLYLINE
  5
10009
  8
0
 66
     1
 10
0.0
 20
0.0
 30
0.0
  0
VERTEX
  5
1453F
  8
0
 10
151.23273601248451
 20
180.7833212407734
 30
0.0
  0
VERTEX
  5
14540
  8
0
 10
151.35081007251341
 20
180.83053561180901
 30
0.0
  0
VERTEX
  5
14541
  8
0
 10
151.58471744366031
 20
180.92918500118009
 30
0.0
  0
VERTEX
  5
14542
  8
0
 10
151.8156039134555
 20
181.03364110115919
 30
0.0
  0
VERTEX
  5
14543
  8
0
 10
151.9299019625405
 20
181.08811685520249
 30
0.0
  0
VERTEX
  5
14544
  8
0
 10
152.0434299433868
 20
181.14413022937759
 30
0.0
  0
VERTEX
  5
14545
  8
0
 10
152.2681554322603
 20
181.26089285305309
 30
0.0
  0
VERTEX
  5
14546
  8
0
 10
152.48973840940289
 20
181.3841849401694
 30
0.0
  0
VERTEX
  5
14547
  8
0
 10
152.70813345767871
 20
181.51427924531029
 30
0.0
  0
VERTEX
  5
14548
  8
0
 10
152.92328986827391
 20
181.65146647780691
 30
0.0
  0
VERTEX
  5
14549
  8
0
 10
153.13518632791781
 20
181.79608226925819
 30
0.0
  0
VERTEX
  5
1454A
  8
0
 10
153.24053433940841
 20
181.87174948229091
 30
0.0
  0
VERTEX
  5
1454B
  8
0
 10
153.34578213762501
 20
181.9499942867177
 30
0.0
  0
VERTEX
  5
1454C
  8
0
 10
153.5554285502939
 20
182.11423814908301
 30
0.0
  0
VERTEX
  5
1454D
  8
0
 10
153.76306451495469
 20
182.28881349400029
 30
0.0
  0
VERTEX
  5
1454E
  8
0
 10
153.96769353112899
 20
182.4736494505928
 30
0.0
  0
VERTEX
  5
1454F
  8
0
 10
154.01251469662239
 20
182.51718786206521
 30
0.0
  0
SEQEND
  5
14550
  8
0
  0
LINE
  5
1000B
  8
0
 10
151.23273601248451
 20
179.74368873142211
 30
0.0
 11
148.23273601248451
 21
179.74368873142211
 31
0.0
  0
POLYLINE
  5
1000D
  8
0
 66
     1
 10
0.0
 20
0.0
 30
0.0
  0
VERTEX
  5
14551
  8
0
 10
107.4529573283466
 20
182.51718786206521
 30
0.0
  0
VERTEX
  5
14552
  8
0
 10
107.4977784938401
 20
182.4736494505928
 30
0.0
  0
VERTEX
  5
14553
  8
0
 10
107.7024075100144
 20
182.28881349400029
 30
0.0
  0
VERTEX
  5
14554
  8
0
 10
107.91004347467511
 20
182.11423814908301
 30
0.0
  0
VERTEX
  5
14555
  8
0
 10
108.11968988734399
 20
181.9499942867177
 30
0.0
  0
VERTEX
  5
14556
  8
0
 10
108.2249376855607
 20
181.87174948229091
 30
0.0
  0
VERTEX
  5
14557
  8
0
 10
108.33028569705129
 20
181.79608226925831
 30
0.0
  0
VERTEX
  5
14558
  8
0
 10
108.54218215669511
 20
181.65146647780699
 30
0.0
  0
VERTEX
  5
14559
  8
0
 10
108.7573385672904
 20
181.51427924531029
 30
0.0
  0
VERTEX
  5
1455A
  8
0
 10
108.9757336155662
 20
181.3841849401694
 30
0.0
  0
VERTEX
  5
1455B
  8
0
 10
109.1973165927088
 20
181.26089285305309
 30
0.0
  0
VERTEX
  5
1455C
  8
0
 10
109.4220420815823
 20
181.14413022937759
 30
0.0
  0
VERTEX
  5
1455D
  8
0
 10
109.5355700624286
 20
181.08811685520249
 30
0.0
  0
VERTEX
  5
1455E
  8
0
 10
109.6498681115136
 20
181.03364110115919
 30
0.0
  0
VERTEX
  5
1455F
  8
0
 10
109.88075458130881
 20
180.92918500118009
 30
0.0
  0
VERTEX
  5
14560
  8
0
 10
110.11466195245561
 20
180.83053561180901
 30
0.0
  0
VERTEX
  5
14561
  8
0
 10
110.23273601248459
 20
180.7833212407734
 30
0.0
  0
SEQEND
  5
14562
  8
0
  0
LINE
  5
1000E
  8
0
 10
110.23273601248459
 20
180.7833212407734
 30
0.0
 11
110.23273601248459
 21
179.74368873142211
 31
0.0
  0
LINE
  5
1000F
  8
0
 10
113.23273601248449
 20
179.74368873142211
 30
0.0
 11
110.23273601248459
 21
179.74368873142211
 31
0.0
  0
POLYLINE
  5
10012
  8
0
 66
     1
 10
0.0
 20
0.0
 30
0.0
  0
VERTEX
  5
14563
  8
0
 10
148.23273601248411
 20
245.47251514879619
 30
0.0
  0
VERTEX
  5
14564
  8
0
 10
148.22681732119139
 20
245.4780102290386
 30
0.0
  0
VERTEX
  5
14565
  8
0
 10
147.86160026938111
 20
245.8067520202909
 30
0.0
  0
VERTEX
  5
14566
  8
0
 10
147.12037406706261
 20
246.4432581048469
 30
0.0
  0
VERTEX
  5
14567
  8
0
 10
146.3652822868803
 20
247.05134787401769
 30
0.0
  0
VERTEX
  5
14568
  8
0
 10
145.59696381186541
 20
247.63050682314949
 30
0.0
  0
VERTEX
  5
14569
  8
0
 10
144.81606871615301
 20
248.18024492595069
 30
0.0
  0
VERTEX
  5
1456A
  8
0
 10
144.02325771495541
 20
248.70009704910299
 30
0.0
  0
VERTEX
  5
1456B
  8
0
 10
143.62259299557579
 20
248.9486774181085
 30
0.0
  0
VERTEX
  5
1456C
  8
0
 10
143.21920160553049
 20
249.1896233458103
 30
0.0
  0
VERTEX
  5
1456D
  8
0
 10
142.4045806996196
 20
249.64840962795361
 30
0.0
  0
VERTEX
  5
1456E
  8
0
 10
141.58008424783841
 20
250.07606771653479
 30
0.0
  0
VERTEX
  5
1456F
  8
0
 10
141.22735174884241
 20
250.24368873142211
 30
0.0
  0
SEQEND
  5
14570
  8
0
  0
LINE
  5
1001B
  8
0
 10
113.23273601248449
 20
250.24368873142211
 30
0.0
 11
113.23273601248449
 21
179.74368873142211
 31
0.0
  0
LINE
  5
1001C
  8
0
 10
148.23273601248451
 20
250.24368873142211
 30
0.0
 11
113.23273601248449
 21
250.24368873142211
 31
0.0
  0
LINE
  5
1001D
  8
0
 10
148.23273601248451
 20
179.74368873142211
 30
0.0
 11
148.23273601248411
 21
250.24368873142211
 31
0.0
  0
LINE
  5
10020
  8
0
 10
110.23273601248459
 20
183.92868873142211
 30
0.0
 11
109.6327360124846
 21
183.92868873142211
 31
0.0
  0
LINE
  5
10021
  8
0
 10
109.6327360124846
 20
195.558688731422
 30
0.0
 11
110.23273601248459
 21
195.558688731422
 31
0.0
  0
LINE
  5
10022
  8
0
 10
161.46573601248471
 20
185.74368873142211
 30
0.0
 11
159.23273601248451
 21
185.74368873142211
 31
0.0
  0
LINE
  5
10024
  8
0
 10
159.23273601248451
 20
193.74368873142211
 30
0.0
 11
161.46573601248471
 21
193.74368873142211
 31
0.0
  0
LINE
  5
10025
  8
0
 10
162.23273601248451
 20
186.51068873142211
 30
0.0
 11
161.46573601248471
 21
185.74368873142211
 31
0.0
  0
LINE
  5
10026
  8
0
 10
161.46573601248471
 20
193.74368873142211
 30
0.0
 11
162.23273601248451
 21
192.97668873142209
 31
0.0
  0
LINE
  5
10027
  8
0
 10
104.9327360124844
 20
196.00202206475541
 30
0.0
 11
105.19215572190021
 21
196.97018960077889
 31
0.0
  0
LINE
  5
10028
  8
0
 10
105.19215572190021
 20
182.51718786206521
 30
0.0
 11
104.9327360124844
 21
183.4853553980887
 31
0.0
  0
LINE
  5
10029
  8
0
 10
109.3733163030692
 20
196.97018960077889
 30
0.0
 11
109.6327360124846
 21
196.00202206475541
 31
0.0
  0
LINE
  5
1002A
  8
0
 10
109.6327360124846
 20
183.4853553980887
 30
0.0
 11
109.3733163030692
 21
182.51718786206521
 31
0.0
  0
LINE
  5
1002D
  8
0
 10
159.23273601248451
 20
183.92868873142211
 30
0.0
 11
156.73273601248451
 21
183.92868873142211
 31
0.0
  0
LINE
  5
1002E
  8
0
 10
156.73273601248451
 20
195.558688731422
 30
0.0
 11
159.23273601248451
 21
195.558688731422
 31
0.0
  0
LINE
  5
1002F
  8
0
 10
151.23273601248451
 20
196.00202206475541
 30
0.0
 11
151.49215572189991
 21
196.97018960077889
 31
0.0
  0
LINE
  5
10030
  8
0
 10
151.49215572189991
 20
182.51718786206521
 30
0.0
 11
151.23273601248451
 21
183.4853553980887
 31
0.0
  0
LINE
  5
10031
  8
0
 10
156.47331630306911
 20
196.97018960077889
 30
0.0
 11
156.73273601248451
 21
196.00202206475541
 31
0.0
  0
LINE
  5
10032
  8
0
 10
156.73273601248451
 20
183.4853553980887
 30
0.0
 11
156.47331630306911
 21
182.51718786206521
 31
0.0
  0
LINE
  5
10035
  8
0
 10
148.23273601248451
 20
183.743688731422
 30
0.0
 11
145.73273601248451
 21
183.743688731422
 31
0.0
  0
LINE
  5
10037
  8
0
 10
115.73273601248449
 20
183.743688731422
 30
0.0
 11
113.23273601248449
 21
183.743688731422
 31
0.0
  0
LINE
  5
1003A
  8
0
 10
145.73273601248451
 20
195.74368873142211
 30
0.0
 11
148.23273601245131
 21
195.74368873142211
 31
0.0
  0
LINE
  5
1003B
  8
0
 10
161.46573601248471
 20
193.74368873142211
 30
0.0
 11
161.46573601248471
 21
185.74368873142211
 31
0.0
  0
LINE
  5
1003C
  8
0
 10
162.23273601248451
 20
192.97668873142209
 30
0.0
 11
162.23273601248451
 21
186.51068873142211
 31
0.0
  0
LINE
  5
1003D
  8
0
 10
104.9327360124844
 20
196.00202206475541
 30
0.0
 11
104.9327360124844
 21
183.4853553980887
 31
0.0
  0
LINE
  5
1003F
  8
0
 10
109.6327360124846
 20
196.00202206475541
 30
0.0
 11
109.6327360124846
 21
183.4853553980887
 31
0.0
  0
POLYLINE
  5
10042
  8
0
 66
     1
 10
0.0
 20
0.0
 30
0.0
  0
VERTEX
  5
14571
  8
0
 10
104.9327360124844
 20
184.32381307940449
 30
0.0
  0
VERTEX
  5
14572
  8
0
 10
104.9399261461044
 20
184.033730508085
 30
0.0
  0
VERTEX
  5
14573
  8
0
 10
104.9967007298887
 20
183.45132233650929
 30
0.0
  0
VERTEX
  5
14574
  8
0
 10
105.1113110686419
 20
182.8417617577374
 30
0.0
  0
VERTEX
  5
14575
  8
0
 10
105.19215572190021
 20
182.51718786206521
 30
0.0
  0
SEQEND
  5
14576
  8
0
  0
POLYLINE
  5
10043
  8
0
 66
     1
 10
0.0
 20
0.0
 30
0.0
  0
VERTEX
  5
14577
  8
0
 10
109.3733163030692
 20
182.51718786206521
 30
0.0
  0
VERTEX
  5
14578
  8
0
 10
109.4541609563271
 20
182.8417617577374
 30
0.0
  0
VERTEX
  5
14579
  8
0
 10
109.5687712950803
 20
183.45132233650929
 30
0.0
  0
VERTEX
  5
1457A
  8
0
 10
109.6255458788646
 20
184.033730508085
 30
0.0
  0
VERTEX
  5
1457B
  8
0
 10
109.6327360124846
 20
184.32381307940449
 30
0.0
  0
SEQEND
  5
1457C
  8
0
  0
POLYLINE
  5
10044
  8
0
 66
     1
 10
0.0
 20
0.0
 30
0.0
  0
VERTEX
  5
1457D
  8
0
 10
109.6327360124846
 20
184.32381307940449
 30
0.0
  0
VERTEX
  5
1457E
  8
0
 10
109.6255458788646
 20
184.61389565072389
 30
0.0
  0
VERTEX
  5
1457F
  8
0
 10
109.5687712950803
 20
185.1963038222996
 30
0.0
  0
VERTEX
  5
14580
  8
0
 10
109.4541609563271
 20
185.8058644010714
 30
0.0
  0
VERTEX
  5
14581
  8
0
 10
109.3733163030692
 20
186.13043829674359
 30
0.0
  0
SEQEND
  5
14582
  8
0
  0
LINE
  5
10045
  8
0
 10
105.19215572190021
 20
182.51718786206521
 30
0.0
 11
109.3733163030692
 21
182.51718786206521
 31
0.0
  0
POLYLINE
  5
1004B
  8
0
 66
     1
 10
0.0
 20
0.0
 30
0.0
  0
VERTEX
  5
14583
  8
0
 10
105.19215572190021
 20
186.13043829674359
 30
0.0
  0
VERTEX
  5
14584
  8
0
 10
105.1113110686419
 20
186.77958608808811
 30
0.0
  0
VERTEX
  5
14585
  8
0
 10
104.9967007298887
 20
187.99870724563181
 30
0.0
  0
VERTEX
  5
14586
  8
0
 10
104.9399261461044
 20
189.16352358878311
 30
0.0
  0
VERTEX
  5
14587
  8
0
 10
104.9327360124844
 20
189.74368873142211
 30
0.0
  0
SEQEND
  5
14588
  8
0
  0
POLYLINE
  5
1004C
  8
0
 66
     1
 10
0.0
 20
0.0
 30
0.0
  0
VERTEX
  5
14589
  8
0
 10
104.9327360124844
 20
189.74368873142211
 30
0.0
  0
VERTEX
  5
1458A
  8
0
 10
104.9399261461044
 20
190.323853874061
 30
0.0
  0
VERTEX
  5
1458B
  8
0
 10
104.9967007298887
 20
191.4886702172123
 30
0.0
  0
VERTEX
  5
1458C
  8
0
 10
105.1113110686419
 20
192.70779137475611
 30
0.0
  0
VERTEX
  5
1458D
  8
0
 10
105.19215572190021
 20
193.35693916610049
 30
0.0
  0
SEQEND
  5
1458E
  8
0
  0
POLYLINE
  5
1004D
  8
0
 66
     1
 10
0.0
 20
0.0
 30
0.0
  0
VERTEX
  5
1458F
  8
0
 10
109.3733163030692
 20
193.35693916610049
 30
0.0
  0
VERTEX
  5
14590
  8
0
 10
109.4541609563271
 20
192.70779137475611
 30
0.0
  0
VERTEX
  5
14591
  8
0
 10
109.5687712950803
 20
191.4886702172123
 30
0.0
  0
VERTEX
  5
14592
  8
0
 10
109.6255458788646
 20
190.323853874061
 30
0.0
  0
VERTEX
  5
14593
  8
0
 10
109.6327360124846
 20
189.74368873142211
 30
0.0
  0
SEQEND
  5
14594
  8
0
  0
POLYLINE
  5
1004E
  8
0
 66
     1
 10
0.0
 20
0.0
 30
0.0
  0
VERTEX
  5
14595
  8
0
 10
109.6327360124846
 20
189.74368873142211
 30
0.0
  0
VERTEX
  5
14596
  8
0
 10
109.6255458788646
 20
189.16352358878311
 30
0.0
  0
VERTEX
  5
14597
  8
0
 10
109.5687712950803
 20
187.99870724563181
 30
0.0
  0
VERTEX
  5
14598
  8
0
 10
109.4541609563271
 20
186.77958608808811
 30
0.0
  0
VERTEX
  5
14599
  8
0
 10
109.3733163030692
 20
186.13043829674359
 30
0.0
  0
SEQEND
  5
1459A
  8
0
  0
POLYLINE
  5
1004F
  8
0
 66
     1
 10
0.0
 20
0.0
 30
0.0
  0
VERTEX
  5
1459B
  8
0
 10
109.6327360124846
 20
195.16356438343971
 30
0.0
  0
VERTEX
  5
1459C
  8
0
 10
109.6255458788646
 20
195.45364695475911
 30
0.0
  0
VERTEX
  5
1459D
  8
0
 10
109.5687712950803
 20
196.03605512633479
 30
0.0
  0
VERTEX
  5
1459E
  8
0
 10
109.4541609563271
 20
196.64561570510671
 30
0.0
  0
VERTEX
  5
1459F
  8
0
 10
109.3733163030692
 20
196.97018960077889
 30
0.0
  0
SEQEND
  5
145A0
  8
0
  0
POLYLINE
  5
10050
  8
0
 66
     1
 10
0.0
 20
0.0
 30
0.0
  0
VERTEX
  5
145A1
  8
0
 10
105.19215572190021
 20
196.97018960077889
 30
0.0
  0
VERTEX
  5
145A2
  8
0
 10
105.1113110686419
 20
196.64561570510671
 30
0.0
  0
VERTEX
  5
145A3
  8
0
 10
104.9967007298887
 20
196.03605512633479
 30
0.0
  0
VERTEX
  5
145A4
  8
0
 10
104.9399261461044
 20
195.45364695475911
 30
0.0
  0
VERTEX
  5
145A5
  8
0
 10
104.9327360124844
 20
195.16356438343971
 30
0.0
  0
SEQEND
  5
145A6
  8
0
  0
POLYLINE
  5
10051
  8
0
 66
     1
 10
0.0
 20
0.0
 30
0.0
  0
VERTEX
  5
145A7
  8
0
 10
104.9327360124844
 20
195.16356438343971
 30
0.0
  0
VERTEX
  5
145A8
  8
0
 10
104.9399261461044
 20
194.87348181212019
 30
0.0
  0
VERTEX
  5
145A9
  8
0
 10
104.9967007298887
 20
194.29107364054451
 30
0.0
  0
VERTEX
  5
145AA
  8
0
 10
105.1113110686419
 20
193.6815130617727
 30
0.0
  0
VERTEX
  5
145AB
  8
0
 10
105.19215572190021
 20
193.35693916610049
 30
0.0
  0
SEQEND
  5
145AC
  8
0
  0
POLYLINE
  5
10052
  8
0
 66
     1
 10
0.0
 20
0.0
 30
0.0
  0
VERTEX
  5
145AD
  8
0
 10
109.3733163030692
 20
193.35693916610049
 30
0.0
  0
VERTEX
  5
145AE
  8
0
 10
109.4541609563271
 20
193.6815130617727
 30
0.0
  0
VERTEX
  5
145AF
  8
0
 10
109.5687712950803
 20
194.29107364054451
 30
0.0
  0
VERTEX
  5
145B0
  8
0
 10
109.6255458788646
 20
194.87348181212019
 30
0.0
  0
VERTEX
  5
145B1
  8
0
 10
109.6327360124846
 20
195.16356438343971
 30
0.0
  0
SEQEND
  5
145B2
  8
0
  0
LINE
  5
10056
  8
0
 10
105.19215572190021
 20
196.97018960077889
 30
0.0
 11
109.3733163030692
 21
196.97018960077889
 31
0.0
  0
LINE
  5
10059
  8
0
 10
105.19215572190021
 20
193.35693916610049
 30
0.0
 11
109.3733163030692
 21
193.35693916610049
 31
0.0
  0
LINE
  5
1005C
  8
0
 10
105.19215572190021
 20
186.13043829674359
 30
0.0
 11
109.3733163030692
 21
186.13043829674359
 31
0.0
  0
LINE
  5
1005F
  8
0
 10
159.23273601248451
 20
195.558688731422
 30
0.0
 11
159.23273601248451
 21
183.92868873142211
 31
0.0
  0
LINE
  5
10060
  8
0
 10
156.73273601248451
 20
196.00202206475541
 30
0.0
 11
156.73273601248451
 21
186.3234548145488
 31
0.0
  0
LINE
  5
10061
  8
0
 10
156.73273601248451
 20
186.3234548145488
 30
0.0
 11
156.73273601248451
 21
183.4853553980887
 31
0.0
  0
POLYLINE
  5
10062
  8
0
 66
     1
 10
0.0
 20
0.0
 30
0.0
  0
VERTEX
  5
145B3
  8
0
 10
151.49215572189991
 20
186.13043829674359
 30
0.0
  0
VERTEX
  5
145B4
  8
0
 10
151.41131106864211
 20
185.8058644010714
 30
0.0
  0
VERTEX
  5
145B5
  8
0
 10
151.2967007298889
 20
185.1963038222996
 30
0.0
  0
VERTEX
  5
145B6
  8
0
 10
151.23992614610461
 20
184.61389565072389
 30
0.0
  0
VERTEX
  5
145B7
  8
0
 10
151.23273601248451
 20
184.32381307940449
 30
0.0
  0
SEQEND
  5
145B8
  8
0
  0
POLYLINE
  5
10063
  8
0
 66
     1
 10
0.0
 20
0.0
 30
0.0
  0
VERTEX
  5
145B9
  8
0
 10
151.23273601248451
 20
184.32381307940449
 30
0.0
  0
VERTEX
  5
145BA
  8
0
 10
151.23992614610461
 20
184.033730508085
 30
0.0
  0
VERTEX
  5
145BB
  8
0
 10
151.2967007298889
 20
183.45132233650929
 30
0.0
  0
VERTEX
  5
145BC
  8
0
 10
151.41131106864211
 20
182.8417617577374
 30
0.0
  0
VERTEX
  5
145BD
  8
0
 10
151.49215572189991
 20
182.51718786206521
 30
0.0
  0
SEQEND
  5
145BE
  8
0
  0
POLYLINE
  5
10064
  8
0
 66
     1
 10
0.0
 20
0.0
 30
0.0
  0
VERTEX
  5
145BF
  8
0
 10
156.47331630306911
 20
182.51718786206521
 30
0.0
  0
VERTEX
  5
145C0
  8
0
 10
156.554160956327
 20
182.8417617577374
 30
0.0
  0
VERTEX
  5
145C1
  8
0
 10
156.66877129508021
 20
183.45132233650929
 30
0.0
  0
VERTEX
  5
145C2
  8
0
 10
156.72554587886449
 20
184.033730508085
 30
0.0
  0
VERTEX
  5
145C3
  8
0
 10
156.73273601248451
 20
184.32381307940449
 30
0.0
  0
SEQEND
  5
145C4
  8
0
  0
LINE
  5
10067
  8
0
 10
151.49215572189991
 20
182.51718786206521
 30
0.0
 11
156.47331630306911
 21
182.51718786206521
 31
0.0
  0
POLYLINE
  5
1006D
  8
0
 66
     1
 10
0.0
 20
0.0
 30
0.0
  0
VERTEX
  5
145C5
  8
0
 10
151.49215572189991
 20
186.13043829674359
 30
0.0
  0
VERTEX
  5
145C6
  8
0
 10
151.41131106864211
 20
186.77958608808811
 30
0.0
  0
VERTEX
  5
145C7
  8
0
 10
151.2967007298889
 20
187.99870724563181
 30
0.0
  0
VERTEX
  5
145C8
  8
0
 10
151.23992614610461
 20
189.16352358878311
 30
0.0
  0
VERTEX
  5
145C9
  8
0
 10
151.23273601248451
 20
189.74368873142211
 30
0.0
  0
SEQEND
  5
145CA
  8
0
  0
POLYLINE
  5
1006E
  8
0
 66
     1
 10
0.0
 20
0.0
 30
0.0
  0
VERTEX
  5
145CB
  8
0
 10
151.23273601248451
 20
189.74368873142211
 30
0.0
  0
VERTEX
  5
145CC
  8
0
 10
151.23992614610461
 20
190.323853874061
 30
0.0
  0
VERTEX
  5
145CD
  8
0
 10
151.2967007298889
 20
191.4886702172123
 30
0.0
  0
VERTEX
  5
145CE
  8
0
 10
151.41131106864211
 20
192.70779137475611
 30
0.0
  0
VERTEX
  5
145CF
  8
0
 10
151.49215572189991
 20
193.35693916610049
 30
0.0
  0
SEQEND
  5
145D0
  8
0
  0
POLYLINE
  5
1006F
  8
0
 66
     1
 10
0.0
 20
0.0
 30
0.0
  0
VERTEX
  5
145D1
  8
0
 10
156.47331630306911
 20
193.35693916610049
 30
0.0
  0
VERTEX
  5
145D2
  8
0
 10
156.554160956327
 20
192.70779137475611
 30
0.0
  0
VERTEX
  5
145D3
  8
0
 10
156.66877129508021
 20
191.4886702172123
 30
0.0
  0
VERTEX
  5
145D4
  8
0
 10
156.72554587886449
 20
190.323853874061
 30
0.0
  0
VERTEX
  5
145D5
  8
0
 10
156.73273601248451
 20
189.74368873142211
 30
0.0
  0
SEQEND
  5
145D6
  8
0
  0
POLYLINE
  5
10070
  8
0
 66
     1
 10
0.0
 20
0.0
 30
0.0
  0
VERTEX
  5
145D7
  8
0
 10
156.73273601248451
 20
189.74368873142211
 30
0.0
  0
VERTEX
  5
145D8
  8
0
 10
156.72554587886449
 20
189.16352358878311
 30
0.0
  0
VERTEX
  5
145D9
  8
0
 10
156.66877129508021
 20
187.99870724563181
 30
0.0
  0
VERTEX
  5
145DA
  8
0
 10
156.554160956327
 20
186.77958608808811
 30
0.0
  0
VERTEX
  5
145DB
  8
0
 10
156.47331630306911
 20
186.13043829674359
 30
0.0
  0
SEQEND
  5
145DC
  8
0
  0
POLYLINE
  5
10071
  8
0
 66
     1
 10
0.0
 20
0.0
 30
0.0
  0
VERTEX
  5
145DD
  8
0
 10
156.73273601248451
 20
195.16356438343971
 30
0.0
  0
VERTEX
  5
145DE
  8
0
 10
156.72554587886449
 20
195.45364695475911
 30
0.0
  0
VERTEX
  5
145DF
  8
0
 10
156.66877129508021
 20
196.03605512633479
 30
0.0
  0
VERTEX
  5
145E0
  8
0
 10
156.554160956327
 20
196.64561570510671
 30
0.0
  0
VERTEX
  5
145E1
  8
0
 10
156.47331630306911
 20
196.97018960077889
 30
0.0
  0
SEQEND
  5
145E2
  8
0
  0
POLYLINE
  5
10072
  8
0
 66
     1
 10
0.0
 20
0.0
 30
0.0
  0
VERTEX
  5
145E3
  8
0
 10
151.49215572189991
 20
196.97018960077889
 30
0.0
  0
VERTEX
  5
145E4
  8
0
 10
151.41131106864211
 20
196.64561570510671
 30
0.0
  0
VERTEX
  5
145E5
  8
0
 10
151.2967007298889
 20
196.03605512633479
 30
0.0
  0
VERTEX
  5
145E6
  8
0
 10
151.23992614610461
 20
195.45364695475911
 30
0.0
  0
VERTEX
  5
145E7
  8
0
 10
151.23273601248451
 20
195.16356438343971
 30
0.0
  0
SEQEND
  5
145E8
  8
0
  0
POLYLINE
  5
10073
  8
0
 66
     1
 10
0.0
 20
0.0
 30
0.0
  0
VERTEX
  5
145E9
  8
0
 10
151.23273601248451
 20
195.16356438343971
 30
0.0
  0
VERTEX
  5
145EA
  8
0
 10
151.23992614610461
 20
194.87348181212019
 30
0.0
  0
VERTEX
  5
145EB
  8
0
 10
151.2967007298889
 20
194.29107364054451
 30
0.0
  0
VERTEX
  5
145EC
  8
0
 10
151.41131106864211
 20
193.6815130617727
 30
0.0
  0
VERTEX
  5
145ED
  8
0
 10
151.49215572189991
 20
193.35693916610049
 30
0.0
  0
SEQEND
  5
145EE
  8
0
  0
POLYLINE
  5
10074
  8
0
 66
     1
 10
0.0
 20
0.0
 30
0.0
  0
VERTEX
  5
145EF
  8
0
 10
156.47331630306911
 20
193.35693916610049
 30
0.0
  0
VERTEX
  5
145F0
  8
0
 10
156.554160956327
 20
193.6815130617727
 30
0.0
  0
VERTEX
  5
145F1
  8
0
 10
156.66877129508021
 20
194.29107364054451
 30
0.0
  0
VERTEX
  5
145F2
  8
0
 10
156.72554587886449
 20
194.87348181212019
 30
0.0
  0
VERTEX
  5
145F3
  8
0
 10
156.73273601248451
 20
195.16356438343971
 30
0.0
  0
SEQEND
  5
145F4
  8
0
  0
LINE
  5
10078
  8
0
 10
151.49215572189991
 20
196.97018960077889
 30
0.0
 11
156.47331630306911
 21
196.97018960077889
 31
0.0
  0
LINE
  5
1007B
  8
0
 10
151.49215572189991
 20
193.35693916610049
 30
0.0
 11
156.47331630306911
 21
193.35693916610049
 31
0.0
  0
LINE
  5
1007E
  8
0
 10
151.49215572189991
 20
186.13043829674359
 30
0.0
 11
156.47331630306911
 21
186.13043829674359
 31
0.0
  0
ARC
  5
100A6
  8
0
 10
117.73273601248449
 20
236.65272591171711
 30
0.0
 40
2.0000000000000009
 50
99.594068226878051
 51
180.0
  0
ARC
  5
100A7
  8
0
 10
117.73273601248449
 20
142.83465155112711
 30
0.0
 40
2.000000000000008
 50
180.0
 51
260.40593177317481
  0
ARC
  5
100A8
  8
0
 10
130.73273601248451
 20
159.74368873142311
 30
0.0
 40
79.999999999998934
 50
80.405931773174814
 51
99.594068226878051
  0
ARC
  5
100A9
  8
0
 10
130.73273601248451
 20
219.7436887314216
 30
0.0
 40
79.999999999999432
 50
260.40593177317481
 51
279.59406822687799
  0
ARC
  5
100AA
  8
0
 10
143.73273601248459
 20
236.65272591171711
 30
0.0
 40
1.999999999999966
 50
0.0
 51
80.405931773174814
  0
ARC
  5
100AB
  8
0
 10
143.73273601248459
 20
142.834651551127
 30
0.0
 40
1.9999999999999749
 50
279.59406822687799
 51
0.0
  0
LINE
  5
100B6
  8
0
 10
115.73273601248449
 20
236.65272591171711
 30
0.0
 11
115.73273601248449
 21
142.83465155112711
 31
0.0
  0
LINE
  5
100B8
  8
0
 10
145.73273601248451
 20
236.65272591171711
 30
0.0
 11
145.73273601248451
 21
142.83465155112711
 31
0.0
  0
LINE
  5
100BE
  8
3
 10
554.70753617893286
 20
186.51068873142211
 30
0.0
 11
551.70753617893297
 21
186.51068873142211
 31
0.0
  0
LINE
  5
100BF
  8
3
 10
554.70753617893286
 20
192.97668873142209
 30
0.0
 11
552.48743900095485
 21
192.97668873142209
 31
0.0
  0
LINE
  5
10143
  8
1
 10
130.73273601252049
 20
279.55988871186582
 30
0.0
 11
130.73273601252049
 21
127.9274887509811
 31
0.0
  0
LINE
  5
10144
  8
1
 10
91.895161481382715
 20
189.74368873142211
 30
0.0
 11
169.5703105436582
 21
189.74368873142211
 31
0.0
  0
POLYLINE
  5
101AE
  8
0
 66
     1
 10
0.0
 20
0.0
 30
0.0
  0
VERTEX
  5
145F5
  8
0
 10
120.23812027612659
 20
250.24368873142211
 30
0.0
  0
VERTEX
  5
145F6
  8
0
 10
119.8853877771307
 20
250.07606771653491
 30
0.0
  0
VERTEX
  5
145F7
  8
0
 10
119.0608913253495
 20
249.64840962795361
 30
0.0
  0
VERTEX
  5
145F8
  8
0
 10
118.2462704194386
 20
249.1896233458103
 30
0.0
  0
VERTEX
  5
145F9
  8
0
 10
117.8428790293933
 20
248.9486774181085
 30
0.0
  0
VERTEX
  5
145FA
  8
0
 10
117.4422143100137
 20
248.70009704910299
 30
0.0
  0
VERTEX
  5
145FB
  8
0
 10
116.6494033088161
 20
248.1802449259508
 30
0.0
  0
VERTEX
  5
145FC
  8
0
 10
115.86850821310369
 20
247.63050682314949
 30
0.0
  0
VERTEX
  5
145FD
  8
0
 10
115.1001897380888
 20
247.05134787401769
 30
0.0
  0
VERTEX
  5
145FE
  8
0
 10
114.3450979579065
 20
246.4432581048469
 30
0.0
  0
VERTEX
  5
145FF
  8
0
 10
113.603871755588
 20
245.8067520202909
 30
0.0
  0
VERTEX
  5
14600
  8
0
 10
113.2386547037777
 20
245.47801022903869
 30
0.0
  0
VERTEX
  5
14601
  8
0
 10
113.23273601248449
 20
245.47251514879579
 30
0.0
  0
SEQEND
  5
14602
  8
0
  0
POLYLINE
  5
101AF
  8
0
 66
     1
 10
0.0
 20
0.0
 30
0.0
  0
VERTEX
  5
14603
  8
0
 10
110.2327360125564
 20
180.7833212407734
 30
0.0
  0
VERTEX
  5
14604
  8
0
 10
110.1146619525275
 20
180.83053561180901
 30
0.0
  0
VERTEX
  5
14605
  8
0
 10
109.8807545813806
 20
180.92918500118009
 30
0.0
  0
VERTEX
  5
14606
  8
0
 10
109.64986811158541
 20
181.03364110115919
 30
0.0
  0
VERTEX
  5
14607
  8
0
 10
109.5355700625004
 20
181.08811685520249
 30
0.0
  0
VERTEX
  5
14608
  8
0
 10
109.4220420816541
 20
181.14413022937759
 30
0.0
  0
VERTEX
  5
14609
  8
0
 10
109.19731659278069
 20
181.26089285305309
 30
0.0
  0
VERTEX
  5
1460A
  8
0
 10
108.97573361563811
 20
181.3841849401694
 30
0.0
  0
VERTEX
  5
1460B
  8
0
 10
108.7573385673622
 20
181.51427924531029
 30
0.0
  0
VERTEX
  5
1460C
  8
0
 10
108.542182156767
 20
181.65146647780691
 30
0.0
  0
VERTEX
  5
1460D
  8
0
 10
108.3302856971231
 20
181.79608226925819
 30
0.0
  0
VERTEX
  5
1460E
  8
0
 10
108.2249376856325
 20
181.87174948229091
 30
0.0
  0
VERTEX
  5
1460F
  8
0
 10
108.1196898874159
 20
181.9499942867177
 30
0.0
  0
VERTEX
  5
14610
  8
0
 10
107.910043474747
 20
182.11423814908301
 30
0.0
  0
VERTEX
  5
14611
  8
0
 10
107.7024075100862
 20
182.28881349400029
 30
0.0
  0
VERTEX
  5
14612
  8
0
 10
107.49777849391189
 20
182.4736494505928
 30
0.0
  0
VERTEX
  5
14613
  8
0
 10
107.45295732841851
 20
182.51718786206521
 30
0.0
  0
SEQEND
  5
14614
  8
0
  0
POLYLINE
  5
101B0
  8
0
 66
     1
 10
0.0
 20
0.0
 30
0.0
  0
VERTEX
  5
14615
  8
0
 10
104.9327360124844
 20
184.32381307940449
 30
0.0
  0
VERTEX
  5
14616
  8
0
 10
104.9399261461044
 20
184.61389565072389
 30
0.0
  0
VERTEX
  5
14617
  8
0
 10
104.9967007298887
 20
185.1963038222996
 30
0.0
  0
VERTEX
  5
14618
  8
0
 10
105.1113110686419
 20
185.8058644010714
 30
0.0
  0
VERTEX
  5
14619
  8
0
 10
105.19215572190021
 20
186.13043829674359
 30
0.0
  0
SEQEND
  5
1461A
  8
0
  0
POLYLINE
  5
101B1
  8
0
 66
     1
 10
0.0
 20
0.0
 30
0.0
  0
VERTEX
  5
1461B
  8
0
 10
156.47331630306911
 20
186.13043829674359
 30
0.0
  0
VERTEX
  5
1461C
  8
0
 10
156.554160956327
 20
185.8058644010714
 30
0.0
  0
VERTEX
  5
1461D
  8
0
 10
156.66877129508021
 20
185.1963038222996
 30
0.0
  0
VERTEX
  5
1461E
  8
0
 10
156.72554587886449
 20
184.61389565072389
 30
0.0
  0
VERTEX
  5
1461F
  8
0
 10
156.73273601248451
 20
184.32381307940449
 30
0.0
  0
SEQEND
  5
14620
  8
0
  0
LINE
  5
101B2
  8
3
 10
162.23273601248451
 20
192.97668873142209
 30
0.0
 11
159.23273601248451
 21
192.97668873142209
 31
0.0
  0
LINE
  5
101B3
  8
3
 10
162.23273601248451
 20
186.51068873142211
 30
0.0
 11
159.23273601248451
 21
186.51068873142211
 31
0.0
  0
LINE
  5
10396
  8
3
 10
322.13531598404779
 20
409.48045729116279
 30
0.0
 11
322.13531598404779
 21
406.48045729116279
 31
0.0
  0
LINE
  5
10397
  8
3
 10
315.66931598404739
 20
409.48045729116279
 30
0.0
 11
315.66931598404739
 21
406.48045729116279
 31
0.0
  0
LINE
  5
14121
  8
0
 10
115.73273601248449
 20
195.74368873142211
 30
0.0
 11
113.23273601248449
 21
195.74368873142211
 31
0.0
  0
LINE
  5
1412E
  8
0
 10
312.64398265071441
 20
403.98045729116268
 30
0.0
 11
312.64398265071441
 21
398.48045729116279
 31
0.0
  0
LINE
  5
1412F
  8
0
 10
325.16064931738077
 20
403.98045729116268
 30
0.0
 11
325.16064931738077
 21
400.47860381975971
 31
0.0
  0
LINE
  5
14130
  8
0
 10
325.16064931738077
 20
352.18045729116278
 30
0.0
 11
325.16064931738077
 21
355.48231076256587
 31
0.0
  0
LINE
  5
14131
  8
0
 10
312.64398265071441
 20
356.88045729116283
 30
0.0
 11
312.64398265071441
 21
352.18045729116278
 31
0.0
  0
TEXT
  5
1418D
  8
0
 62
     3
 10
0.0
 20
0.0
 30
0.0
 40
10.0
  1
CAFF-100FBL-SUS
  7
STANDARD1
  0
LINE
  5
141B2
  8
0
 10
141.73273601252049
 20
264.44368873142201
 30
0.0
 11
141.73273601252049
 21
267.74368873142208
 31
0.0
  0
LINE
  5
141B3
  8
0
 10
119.7327360125205
 20
267.74368873142208
 30
0.0
 11
119.7327360125205
 21
264.44368873142201
 31
0.0
  0
LINE
  5
141B4
  8
0
 10
119.7327360125205
 20
267.74368873142208
 30
0.0
 11
141.73273601252049
 21
267.74368873142208
 31
0.0
  0
LINE
  5
141B5
  8
0
 10
534.20753617893286
 20
264.44368873142201
 30
0.0
 11
534.20753617893286
 21
267.74368873142208
 31
0.0
  0
LINE
  5
141B6
  8
0
 10
512.20753617893286
 20
267.74368873142208
 30
0.0
 11
512.20753617893286
 21
264.44368873142201
 31
0.0
  0
LINE
  5
141B7
  8
0
 10
512.20753617893286
 20
267.74368873142208
 30
0.0
 11
534.20753617893286
 21
267.74368873142208
 31
0.0
  0
ENDSEC
  0
EOF
