  0
SECTION
  2
HEADER
  9
$ACADVER
  1
AC1009
  9
$INSBASE
 10
0.0
 20
0.0
 30
0.0
  9
$EXTMIN
 10
0.0
 20
-2.960436562073669
 30
0.0
  9
$EXTMAX
 10
585.62148507479583
 20
435.2966572716054
 30
0.0
  9
$LIMMIN
 10
0.0
 20
0.0
  9
$LIMMAX
 10
375.0
 20
270.0
  9
$ORTHOMODE
 70
     1
  9
$REGENMODE
 70
     1
  9
$FILLMODE
 70
     1
  9
$QTEXTMODE
 70
     0
  9
$MIRRTEXT
 70
     1
  9
$DRAGMODE
 70
     2
  9
$LTSCALE
 40
10.0
  9
$OSMODE
 70
  3071
  9
$ATTMODE
 70
     1
  9
$TEXTSIZE
 40
5.0
  9
$TRACEWID
 40
0.05
  9
$TEXTSTYLE
  7
STANDARD
  9
$CLAYER
  8
0
  9
$CELTYPE
  6
BYLAYER
  9
$CECOLOR
 62
     6
  9
$DIMSCALE
 40
1.0
  9
$DIMASZ
 40
3.0
  9
$DIMEXO
 40
2.0
  9
$DIMDLI
 40
0.38
  9
$DIMRND
 40
0.0
  9
$DIMDLE
 40
0.0
  9
$DIMEXE
 40
2.0
  9
$DIMTP
 40
0.0
  9
$DIMTM
 40
0.0
  9
$DIMTXT
 40
3.2000000000000002
  9
$DIMCEN
 40
0.0
  9
$DIMTSZ
 40
0.0
  9
$DIMTOL
 70
     0
  9
$DIMLIM
 70
     0
  9
$DIMTIH
 70
     0
  9
$DIMTOH
 70
     0
  9
$DIMSE1
 70
     0
  9
$DIMSE2
 70
     0
  9
$DIMTAD
 70
     1
  9
$DIMZIN
 70
     8
  9
$DIMBLK
  1

  9
$DIMASO
 70
     0
  9
$DIMSHO
 70
     0
  9
$DIMPOST
  1

  9
$DIMAPOST
  1

  9
$DIMALT
 70
     0
  9
$DIMALTD
 70
     2
  9
$DIMALTF
 40
25.399999999999999
  9
$DIMLFAC
 40
1.0
  9
$DIMTOFL
 70
     0
  9
$DIMTVP
 40
1.6000000000000001
  9
$DIMTIX
 70
     1
  9
$DIMSOXD
 70
     0
  9
$DIMSAH
 70
     0
  9
$DIMBLK1
  1

  9
$DIMBLK2
  1

  9
$DIMSTYLE
  2
STANDARD
  9
$DIMCLRD
 70
     0
  9
$DIMCLRE
 70
     0
  9
$DIMCLRT
 70
     0
  9
$DIMTFAC
 40
1.0
  9
$DIMGAP
 40
1.1999999999999991
  9
$LUNITS
 70
     2
  9
$LUPREC
 70
     4
  9
$SKETCHINC
 40
0.1
  9
$FILLETRAD
 40
0.0
  9
$AUNITS
 70
     0
  9
$AUPREC
 70
     4
  9
$MENU
  1
ACAD
  9
$ELEVATION
 40
0.0
  9
$PELEVATION
 40
0.0
  9
$THICKNESS
 40
0.0
  9
$LIMCHECK
 70
     0
  9
$BLIPMODE
 70
     0
  9
$CHAMFERA
 40
0.0
  9
$CHAMFERB
 40
0.0
  9
$SKPOLY
 70
     0
  9
$TDCREATE
 40
2448055.7149187499
  9
$TDUPDATE
 40
2456598.5767233912
  9
$TDINDWG
 40
2.0671057407000002
  9
$TDUSRTIMER
 40
2.0671057407000002
  9
$USRTIMER
 70
     1
  9
$ANGBASE
 50
0.0
  9
$ANGDIR
 70
     0
  9
$PDMODE
 70
     0
  9
$PDSIZE
 40
0.0
  9
$PLINEWID
 40
0.0
  9
$COORDS
 70
     1
  9
$SPLFRAME
 70
     0
  9
$SPLINETYPE
 70
     6
  9
$SPLINESEGS
 70
     8
  9
$ATTDIA
 70
     0
  9
$ATTREQ
 70
     1
  9
$HANDLING
 70
     1
  9
$HANDSEED
  5
143E3
  9
$SURFTAB1
 70
     6
  9
$SURFTAB2
 70
     6
  9
$SURFTYPE
 70
     6
  9
$SURFU
 70
     6
  9
$SURFV
 70
     6
  9
$UCSNAME
  2

  9
$UCSORG
 10
0.0
 20
0.0
 30
0.0
  9
$UCSXDIR
 10
1.0
 20
0.0
 30
0.0
  9
$UCSYDIR
 10
0.0
 20
1.0
 30
0.0
  9
$PUCSNAME
  2

  9
$PUCSORG
 10
0.0
 20
0.0
 30
0.0
  9
$PUCSXDIR
 10
1.0
 20
0.0
 30
0.0
  9
$PUCSYDIR
 10
0.0
 20
1.0
 30
0.0
  9
$USERI1
 70
     0
  9
$USERI2
 70
     0
  9
$USERI3
 70
     0
  9
$USERI4
 70
     0
  9
$USERI5
 70
     0
  9
$USERR1
 40
0.0
  9
$USERR2
 40
0.0
  9
$USERR3
 40
0.0
  9
$USERR4
 40
0.0
  9
$USERR5
 40
0.0
  9
$WORLDVIEW
 70
     1
  9
$SHADEDGE
 70
     3
  9
$SHADEDIF
 70
    70
  9
$TILEMODE
 70
     1
  9
$MAXACTVP
 70
    16
  9
$PLIMCHECK
 70
     0
  9
$PEXTMIN
 10
1.0000000000000000E+020
 20
1.0000000000000000E+020
 30
1.0000000000000000E+020
  9
$PEXTMAX
 10
-1.0000000000000000E+020
 20
-1.0000000000000000E+020
 30
-1.0000000000000000E+020
  9
$PLIMMIN
 10
0.0
 20
0.0
  9
$PLIMMAX
 10
12.0
 20
9.0
  9
$UNITMODE
 70
     0
  9
$VISRETAIN
 70
     0
  9
$PLINEGEN
 70
     1
  9
$PSLTSCALE
 70
     0
  0
ENDSEC
  0
SECTION
  2
TABLES
  0
TABLE
  2
VPORT
 70
     1
  0
VPORT
  2
*ACTIVE
 70
     0
 10
0.0
 20
0.0
 11
1.0
 21
1.0
 12
304.95498060353918
 22
216.1704624258617
 13
0.0
 23
0.0
 14
5.0
 24
5.0
 15
10.0
 25
10.0
 16
0.0
 26
0.0
 36
1.0
 17
0.0
 27
0.0
 37
0.0
 40
442.20971312356028
 41
1.831871345029239
 42
50.0
 43
0.0
 44
0.0
 50
0.0
 51
0.0
 71
     0
 72
   500
 73
     1
 74
     1
 75
     0
 76
     0
 77
     0
 78
     2
  0
ENDTAB
  0
TABLE
  2
LTYPE
 70
     7
  0
LTYPE
  2
CONTINUOUS
 70
     0
  3
実線
 72
    65
 73
     0
 40
0.0
  0
LTYPE
  2
CENTER
 70
     0
  3
____ _ ____ _ ____ _ ____ _ ____ _ ____ _ ____
 72
    65
 73
     4
 40
2.0
 49
1.25
 49
-0.25
 49
0.25
 49
-0.25
  0
LTYPE
  2
HIDDEN
 70
     0
  3
_ _ _ _ _ _ _ _ _ _ _ _ _ _ _ _ _ _ _ _ _ _ _
 72
    65
 73
     2
 40
0.375
 49
0.25
 49
-0.125
  0
LTYPE
  2
CNS_DASHED
 70
     0
  3

 72
    65
 73
     2
 40
2.0
 49
1.0
 49
-1.0
  0
LTYPE
  2
CNS_CENTER
 70
     0
  3

 72
    65
 73
     4
 40
2.0
 49
0.45
 49
-0.5
 49
0.05
 49
-0.5
  0
LTYPE
  2
CNS_SOLID
 70
     0
  3

 72
    65
 73
     0
 40
0.0
  0
LTYPE
  2
PHANTOM2
 70
     0
  3
___ _ _ ___ _ _ ___ _ _ ___ _ _
 72
    65
 73
     6
 40
1.25
 49
0.625
 49
-0.125
 49
0.125
 49
-0.125
 49
0.125
 49
-0.125
  0
ENDTAB
  0
TABLE
  2
LAYER
 70
     6
  0
LAYER
  2
0
 70
     0
 62
     7
  6
CONTINUOUS
  0
LAYER
  2
1
 70
     0
 62
     1
  6
CENTER
  0
LAYER
  2
2
 70
     0
 62
     2
  6
HIDDEN
  0
LAYER
  2
4
 70
     0
 62
     4
  6
CONTINUOUS
  0
LAYER
  2
DEFPOINTS
 70
     0
 62
     7
  6
CONTINUOUS
  0
LAYER
  2
3
 70
     0
 62
     3
  6
CONTINUOUS
  0
ENDTAB
  0
TABLE
  2
STYLE
 70
     3
  0
STYLE
  2
STANDARD
 70
     0
 40
0.0
 41
1.0
 50
0.0
 71
     0
 42
5.0
  3
simplex.shx
  4
bigfont.shx
  0
STYLE
  2
07500
 70
     0
 40
0.0
 41
0.75
 50
0.0
 71
     0
 42
0.2
  3
simplex.shx
  4
bigfont.shx
  0
STYLE
  2
STANDARD1
 70
     0
 40
0.0
 41
1.0
 50
0.0
 71
     0
 42
3.0
  3
txt
  4

  0
ENDTAB
  0
TABLE
  2
VIEW
 70
     2
  0
VIEW
  2
ALL
 70
     0
 40
270.0
 10
220.99159663865549
 20
135.0
 41
0.0
 11
0.0
 21
0.0
 31
1.0
 12
0.0
 22
0.0
 32
0.0
 42
0.0
 43
0.0
 44
0.0
 50
0.0
 71
     0
  0
VIEW
  2
OLE1
 70
     0
 40
168.2487151179721
 10
2892.3009567448912
 20
702.51600084347126
 41
162.5749581879237
 11
0.0
 21
0.0
 31
1.0
 12
0.0
 22
0.0
 32
0.0
 42
50.0
 43
0.0
 44
0.0
 50
0.0
 71
     0
  0
ENDTAB
  0
TABLE
  2
UCS
 70
     0
  0
ENDTAB
  0
TABLE
  2
APPID
 70
    48
  0
APPID
  2
ACAD
 70
     0
  0
APPID
  2
DCO15
 70
     0
  0
APPID
  2
GENIUS_GENOREF_13
 70
     0
  0
APPID
  2
GENIUS_GENOENT_13
 70
     0
  0
APPID
  2
GENIUS_GENBH_13
 70
     0
  0
APPID
  2
GENIUS_GENOBJ_13
 70
     0
  0
APPID
  2
GENIUS_GENODEF_13
 70
     0
  0
APPID
  2
GENIUS_GENOLIS_13
 70
     0
  0
APPID
  2
GENIUS_GENOBJ-NBEHI-BHF_13
 70
     0
  0
APPID
  2
GENIUS_GENOBJ-NBEHI-BHB_13
 70
     0
  0
APPID
  2
GENIUS_GENOBJ-F-PART_13
 70
     0
  0
APPID
  2
GENIUS_GEFSTDP_13
 70
     0
  0
APPID
  2
GENIUS_GENOBJ-N-RSSYM_13
 70
     0
  0
APPID
  2
GENIUS_GENSYMENT_13
 70
     0
  0
APPID
  2
GENIUS_GENOBJ-N-TIT_13
 70
     0
  0
APPID
  2
GENIUS_GENTITLE_13
 70
     0
  0
APPID
  2
GENIUS_GENZVEED_13
 70
     0
  0
APPID
  2
GENIUS_GENOBJ-N-LEADER_13
 70
     0
  0
APPID
  2
GENIUS_GENOBJ-N-FIL_13
 70
     0
  0
APPID
  2
GENIUS_GENOBJ-N-SEC_13
 70
     0
  0
APPID
  2
GENIUS_GENOBJ-N-CRS_13
 70
     0
  0
APPID
  2
GENIUS_GENOBJ-N-ZOO_13
 70
     0
  0
APPID
  2
GENIUS_GENZOO_13
 70
     0
  0
APPID
  2
GENIUS_GENOBJ-F-TOL_13
 70
     0
  0
APPID
  2
GENIUS_GENFIL_13
 70
     0
  0
APPID
  2
GENIUS_GENOBJ-N-CHA_13
 70
     0
  0
APPID
  2
_CALL_MAC$
 70
     0
  0
APPID
  2
ASM_BASE
 70
     0
  0
APPID
  2
ASM_EXPLO_VER_2_00
 70
     0
  0
APPID
  2
ASM_CADM_VER_12_00
 70
     0
  0
APPID
  2
ASM_BASEFORO
 70
     0
  0
APPID
  2
ASM_BASETRAVI
 70
     0
  0
APPID
  2
ASM_BASETRAVI1
 70
     0
  0
APPID
  2
ASM_GRUPPI
 70
     0
  0
APPID
  2
ASM_CADM_ALBERO
 70
     0
  0
APPID
  2
ASM_GOLE
 70
     0
  0
APPID
  2
ACAD_MLEADERVER
 70
     0
  0
APPID
  2
ACAD_DSTYLE_DIMJAG
 70
     0
  0
APPID
  2
ACAD_DSTYLE_DIMTALN
 70
     0
  0
APPID
  2
ACAD_EXEMPT_FROM_CAD_STANDARDS
 70
     0
  0
APPID
  2
ACAD_DSTYLE_DIMRADIAL_EXTENSION
 70
     0
  0
APPID
  2
ACAD_PSEXT
 70
     0
  0
APPID
  2
ACAD_DSTYLE_DIMBREAK
 70
     0
  0
APPID
  2
ACAECLAYERSTANDARD
 70
     0
  0
APPID
  2
ACCMTRANSPARENCY
 70
     0
  0
APPID
  2
GRADIENTCOLOR1ACI
 70
     0
  0
APPID
  2
GRADIENTCOLOR2ACI
 70
     0
  0
APPID
  2
ACAD_NAV_VCDISPLAY
 70
     0
  0
ENDTAB
  0
TABLE
  2
DIMSTYLE
 70
     2
  0
DIMSTYLE
  2
STANDARD
 70
     0
  3

  4

  5

  6

  7

 40
1.0
 41
0.18
 42
0.0625
 43
0.38
 44
0.18
 45
0.0
 46
0.0
 47
0.0
 48
0.0
140
0.18
141
0.09
142
0.0
143
25.399999999999999
144
1.0
145
0.0
146
1.0
147
0.09
 71
     0
 72
     0
 73
     1
 74
     1
 75
     0
 76
     0
 77
     0
 78
     0
170
     0
171
     2
172
     0
173
     0
174
     0
175
     0
176
     0
177
     0
178
     0
  0
DIMSTYLE
  2
ISO-25
 70
     0
  3

  4

  5

  6

  7

 40
1.0
 41
2.5
 42
0.625
 43
3.75
 44
1.25
 45
0.0
 46
0.0
 47
0.0
 48
0.0
140
2.5
141
2.5
142
0.0
143
0.03937007874016
144
1.0
145
0.0
146
1.0
147
0.625
 71
     0
 72
     0
 73
     0
 74
     0
 75
     0
 76
     0
 77
     1
 78
     8
170
     0
171
     3
172
     1
173
     0
174
     0
175
     0
176
     0
177
     0
178
     0
  0
ENDTAB
  0
ENDSEC
  0
SECTION
  2
BLOCKS
  0
BLOCK
  8
0
  2
$MODEL_SPACE
 70
     0
 10
0.0
 20
0.0
 30
0.0
  3
$MODEL_SPACE
  1

  0
ENDBLK
  5
36
  8
0
  0
BLOCK
 67
     1
  8
0
  2
$PAPER_SPACE
 70
     0
 10
0.0
 20
0.0
 30
0.0
  3
$PAPER_SPACE
  1

  0
ENDBLK
  5
34
 67
     1
  8
0
  0
ENDSEC
  0
SECTION
  2
ENTITIES
  0
CIRCLE
  5
31D6
  8
0
 10
353.90231598404739
 20
380.98045729116279
 30
0.0
 40
8.9249999999999972
  0
LINE
  5
31DD
  8
0
 10
303.90231598404739
 20
347.48045729116279
 30
0.0
 11
303.90231598404739
 21
414.48045729116279
 31
0.0
  0
ARC
  5
31DE
  8
0
 10
312.90231598404739
 20
347.48045729116279
 30
0.0
 40
8.9999999999999911
 50
180.0
 51
270.0
  0
LINE
  5
31DF
  8
0
 10
394.90231598404762
 20
338.48045729116279
 30
0.0
 11
312.90231598404739
 21
338.48045729116279
 31
0.0
  0
ARC
  5
31E0
  8
0
 10
394.90231598404762
 20
347.48045729116279
 30
0.0
 40
9.0000000000000142
 50
270.0
 51
0.0
  0
LINE
  5
31E1
  8
0
 10
403.90231598404762
 20
414.48045729116279
 30
0.0
 11
403.90231598404762
 21
347.48045729116279
 31
0.0
  0
ARC
  5
31E2
  8
0
 10
394.90231598404762
 20
414.48045729116279
 30
0.0
 40
9.0
 50
0.0
 51
90.0
  0
LINE
  5
31E3
  8
0
 10
312.90231598404739
 20
423.48045729116279
 30
0.0
 11
394.90231598404762
 21
423.48045729116279
 31
0.0
  0
ARC
  5
31E4
  8
0
 10
312.90231598404739
 20
414.48045729116279
 30
0.0
 40
8.9999999999999947
 50
90.0
 51
180.0
  0
LINE
  5
31E5
  8
0
 10
398.1713908252745
 20
409.55743234408709
 30
0.0
 11
395.67139082527461
 21
402.05743234408709
 31
0.0
  0
ARC
  5
31E6
  8
0
 10
391.40231598404739
 20
403.48045729116268
 30
0.0
 40
4.499999999999968
 50
161.56505117707181
 51
341.56505117707178
  0
LINE
  5
31E7
  8
0
 10
387.13324114282022
 20
404.90348223823838
 30
0.0
 11
389.63324114282022
 21
412.40348223823838
 31
0.0
  0
ARC
  5
31E8
  8
0
 10
393.90231598404739
 20
410.98045729116268
 30
0.0
 40
4.499999999999968
 50
341.56505117707178
 51
161.56505117707181
  0
LINE
  5
31E9
  8
0
 10
389.63324114282022
 20
349.55743234408709
 30
0.0
 11
387.13324114282022
 21
357.05743234408709
 31
0.0
  0
ARC
  5
31EA
  8
0
 10
391.40231598404739
 20
358.48045729116279
 30
0.0
 40
4.4999999999999938
 50
18.434948822928192
 51
198.43494882292819
  0
LINE
  5
31EB
  8
0
 10
395.67139082527461
 20
359.90348223823838
 30
0.0
 11
398.1713908252745
 21
352.40348223823838
 31
0.0
  0
ARC
  5
31EC
  8
0
 10
393.90231598404739
 20
350.98045729116279
 30
0.0
 40
4.4999999999999929
 50
198.43494882292819
 51
18.434948822928192
  0
LINE
  5
31ED
  8
0
 10
312.13324114282011
 20
402.05743234408709
 30
0.0
 11
309.63324114282011
 21
409.55743234408709
 31
0.0
  0
ARC
  5
31EE
  8
0
 10
313.90231598404739
 20
410.98045729116268
 30
0.0
 40
4.4999999999999956
 50
18.434948822928192
 51
198.43494882292819
  0
LINE
  5
31EF
  8
0
 10
318.17139082527473
 20
412.40348223823838
 30
0.0
 11
320.67139082527473
 21
404.90348223823838
 31
0.0
  0
ARC
  5
31F0
  8
0
 10
316.40231598404739
 20
403.48045729116268
 30
0.0
 40
4.4999999999999956
 50
198.43494882292819
 51
18.434948822928192
  0
LINE
  5
31F1
  8
0
 10
320.67139082527473
 20
357.05743234408709
 30
0.0
 11
318.17139082527473
 21
349.55743234408709
 31
0.0
  0
ARC
  5
31F2
  8
0
 10
313.90231598404739
 20
350.98045729116279
 30
0.0
 40
4.5
 50
161.56505117707181
 51
341.56505117707178
  0
LINE
  5
31F3
  8
0
 10
309.63324114282011
 20
352.40348223823838
 30
0.0
 11
312.13324114282011
 21
359.90348223823838
 31
0.0
  0
ARC
  5
31F4
  8
0
 10
316.40231598404739
 20
358.48045729116279
 30
0.0
 40
4.4999999999999956
 50
341.56505117707178
 51
161.56505117707181
  0
CIRCLE
  5
31F9
  8
0
 10
353.90231598404739
 20
380.98045729116279
 30
0.0
 40
13.57900689360916
  0
CIRCLE
  5
31FD
  8
0
 10
353.90231598404739
 20
380.98045729116279
 30
0.0
 40
20.175000000000001
  0
CIRCLE
  5
31FF
  8
0
 10
353.90231598404739
 20
380.98045729116279
 30
0.0
 40
23.802288713680468
  0
CIRCLE
  5
3200
  8
0
 10
353.90231598404739
 20
380.98045729116279
 30
0.0
 40
25.668546822706869
  0
CIRCLE
  5
3202
  8
0
 10
353.90231598404739
 20
380.98045729116279
 30
0.0
 40
27.189555828815632
  0
CIRCLE
  5
3203
  8
0
 10
353.90231598404739
 20
380.98045729116279
 30
0.0
 40
31.175000000000001
  0
LINE
  5
3209
  8
0
 10
320.43344485819659
 20
360.48045729116279
 30
0.0
 11
312.37118710989819
 21
360.48045729116279
 31
0.0
  0
LINE
  5
320C
  8
0
 10
320.43344485819659
 20
401.48045729116279
 30
0.0
 11
312.37118710989819
 21
401.48045729116279
 31
0.0
  0
LINE
  5
322F
  8
0
 10
313.08731598404739
 20
355.88045729116288
 30
0.0
 11
313.08731598404739
 21
356.48045729116279
 31
0.0
  0
LINE
  5
3231
  8
0
 10
314.90231598404739
 20
413.48045729116279
 30
0.0
 11
314.90231598404739
 21
415.36793948485882
 31
0.0
  0
LINE
  5
3236
  8
0
 10
314.90231598404739
 20
403.48045729116268
 30
0.0
 11
314.90231598404739
 21
405.48045729116279
 31
0.0
  0
LINE
  5
3238
  8
0
 10
313.08731598404739
 20
410.98045729116268
 30
0.0
 11
313.08731598404739
 21
413.48045729116279
 31
0.0
  0
LINE
  5
323A
  8
0
 10
314.90231598404739
 20
356.48045729116279
 30
0.0
 11
314.90231598404739
 21
358.48045729116279
 31
0.0
  0
LINE
  5
323C
  8
0
 10
312.90231598404739
 20
358.48045729116279
 30
0.0
 11
312.90231598404739
 21
360.48045729116279
 31
0.0
  0
LINE
  5
323E
  8
0
 10
312.90231598404739
 20
401.48045729116279
 30
0.0
 11
312.90231598404739
 21
403.48045729116268
 31
0.0
  0
LINE
  5
323F
  8
0
 10
313.08731598404739
 20
356.48045729116279
 30
0.0
 11
320.48020168900291
 21
356.48045729116279
 31
0.0
  0
LINE
  5
3243
  8
0
 10
312.64398265071412
 20
351.18045729116278
 30
0.0
 11
318.71235658525029
 21
351.18045729116278
 31
0.0
  0
LINE
  5
3245
  8
0
 10
312.64398265071412
 20
355.88045729116288
 30
0.0
 11
320.27985965721649
 21
355.88045729116288
 31
0.0
  0
POLYLINE
  5
324F
  8
0
 66
     1
 10
0.0
 20
0.0
 30
0.0
  0
VERTEX
  5
13FB9
  8
0
 10
312.64398265071412
 20
351.18045729116278
 30
0.0
  0
VERTEX
  5
13FBA
  8
0
 10
312.64398265071412
 20
351.18764742478271
 30
0.0
  0
VERTEX
  5
13FBB
  8
0
 10
312.64398265071412
 20
351.2444220085672
 30
0.0
  0
VERTEX
  5
13FBC
  8
0
 10
312.64398265071412
 20
351.35903234732018
 30
0.0
  0
VERTEX
  5
13FBD
  8
0
 10
312.64398265071412
 20
351.43987700057829
 30
0.0
  0
SEQEND
  5
13FBE
  8
0
  0
POLYLINE
  5
3250
  8
0
 66
     1
 10
0.0
 20
0.0
 30
0.0
  0
VERTEX
  5
13FBF
  8
0
 10
312.64398265071412
 20
355.62103758174732
 30
0.0
  0
VERTEX
  5
13FC0
  8
0
 10
312.64398265071412
 20
355.70188223500531
 30
0.0
  0
VERTEX
  5
13FC1
  8
0
 10
312.64398265071412
 20
355.81649257375852
 30
0.0
  0
VERTEX
  5
13FC2
  8
0
 10
312.64398265071412
 20
355.8732671575429
 30
0.0
  0
VERTEX
  5
13FC3
  8
0
 10
312.64398265071412
 20
355.88045729116288
 30
0.0
  0
SEQEND
  5
13FC4
  8
0
  0
POLYLINE
  5
3252
  8
0
 66
     1
 10
0.0
 20
0.0
 30
0.0
  0
VERTEX
  5
13FC5
  8
0
 10
320.25401964604441
 20
355.79258116460028
 30
0.0
  0
VERTEX
  5
13FC6
  8
0
 10
320.03795413170678
 20
355.77061939341701
 30
0.0
  0
VERTEX
  5
13FC7
  8
0
 10
319.59625710068161
 20
355.71896322557518
 30
0.0
  0
VERTEX
  5
13FC8
  8
0
 10
319.1385173099722
 20
355.65652412231589
 30
0.0
  0
VERTEX
  5
13FC9
  8
0
 10
318.90231598404739
 20
355.62103758174732
 30
0.0
  0
SEQEND
  5
13FCA
  8
0
  0
POLYLINE
  5
3256
  8
0
 66
     1
 10
0.0
 20
0.0
 30
0.0
  0
VERTEX
  5
13FCB
  8
0
 10
315.77314931738073
 20
355.88045729116288
 30
0.0
  0
VERTEX
  5
13FCC
  8
0
 10
315.27071156546521
 20
355.8732671575429
 30
0.0
  0
VERTEX
  5
13FCD
  8
0
 10
314.26195102155282
 20
355.81649257375852
 30
0.0
  0
VERTEX
  5
13FCE
  8
0
 10
313.20616112882891
 20
355.70188223500531
 30
0.0
  0
VERTEX
  5
13FCF
  8
0
 10
312.64398265071412
 20
355.62103758174732
 30
0.0
  0
SEQEND
  5
13FD0
  8
0
  0
LINE
  5
3257
  8
0
 10
312.64398265071412
 20
351.43987700057829
 30
0.0
 11
312.64398265071412
 21
355.62103758174732
 31
0.0
  0
POLYLINE
  5
3258
  8
0
 66
     1
 10
0.0
 20
0.0
 30
0.0
  0
VERTEX
  5
13FD1
  8
0
 10
312.64398265071412
 20
351.43987700057829
 30
0.0
  0
VERTEX
  5
13FD2
  8
0
 10
313.20616112882891
 20
351.35903234732018
 30
0.0
  0
VERTEX
  5
13FD3
  8
0
 10
314.26195102155282
 20
351.24442200856703
 30
0.0
  0
VERTEX
  5
13FD4
  8
0
 10
315.27071156546521
 20
351.18764742478271
 30
0.0
  0
VERTEX
  5
13FD5
  8
0
 10
315.77314931738073
 20
351.18045729116278
 30
0.0
  0
SEQEND
  5
13FD6
  8
0
  0
POLYLINE
  5
3259
  8
0
 66
     1
 10
0.0
 20
0.0
 30
0.0
  0
VERTEX
  5
13FD7
  8
0
 10
315.77314931738073
 20
351.18045729116278
 30
0.0
  0
VERTEX
  5
13FD8
  8
0
 10
316.25917040733412
 20
351.18718616320763
 30
0.0
  0
VERTEX
  5
13FD9
  8
0
 10
317.2340813734404
 20
351.24030954267067
 30
0.0
  0
VERTEX
  5
13FDA
  8
0
 10
318.2506279929691
 20
351.34734787825602
 30
0.0
  0
VERTEX
  5
13FDB
  8
0
 10
318.78944124368741
 20
351.42265355650648
 30
0.0
  0
SEQEND
  5
13FDC
  8
0
  0
LINE
  5
325C
  8
0
 10
318.90231598404739
 20
351.75020782040519
 30
0.0
 11
318.90231598404739
 21
355.62103758174732
 31
0.0
  0
POLYLINE
  5
325D
  8
0
 66
     1
 10
0.0
 20
0.0
 30
0.0
  0
VERTEX
  5
13FDD
  8
0
 10
318.90231598404739
 20
355.62103758174732
 30
0.0
  0
VERTEX
  5
13FDE
  8
0
 10
318.3401375059326
 20
355.70188223500531
 30
0.0
  0
VERTEX
  5
13FDF
  8
0
 10
317.28434761320858
 20
355.81649257375852
 30
0.0
  0
VERTEX
  5
13FE0
  8
0
 10
316.27558706929631
 20
355.8732671575429
 30
0.0
  0
VERTEX
  5
13FE1
  8
0
 10
315.77314931738073
 20
355.88045729116288
 30
0.0
  0
SEQEND
  5
13FE2
  8
0
  0
LINE
  5
3262
  8
0
 10
313.08731598404739
 20
413.48045729116279
 30
0.0
 11
317.6428334749213
 21
413.48045729116279
 31
0.0
  0
LINE
  5
3263
  8
0
 10
312.64398265071412
 20
405.48045729116279
 30
0.0
 11
320.48019006956639
 21
405.48045729116279
 31
0.0
  0
LINE
  5
3265
  8
0
 10
312.64398265071412
 20
410.98045729116268
 30
0.0
 11
318.64570751336822
 21
410.98045729116268
 31
0.0
  0
POLYLINE
  5
326F
  8
0
 66
     1
 10
0.0
 20
0.0
 30
0.0
  0
VERTEX
  5
13FE3
  8
0
 10
312.64398265071412
 20
405.48045729116279
 30
0.0
  0
VERTEX
  5
13FE4
  8
0
 10
312.64398265071412
 20
405.48764742478261
 30
0.0
  0
VERTEX
  5
13FE5
  8
0
 10
312.64398265071412
 20
405.5444220085671
 30
0.0
  0
VERTEX
  5
13FE6
  8
0
 10
312.64398265071412
 20
405.65903234732008
 30
0.0
  0
VERTEX
  5
13FE7
  8
0
 10
312.64398265071412
 20
405.73987700057808
 30
0.0
  0
SEQEND
  5
13FE8
  8
0
  0
POLYLINE
  5
3270
  8
0
 66
     1
 10
0.0
 20
0.0
 30
0.0
  0
VERTEX
  5
13FE9
  8
0
 10
312.64398265071412
 20
410.72103758174711
 30
0.0
  0
VERTEX
  5
13FEA
  8
0
 10
312.64398265071412
 20
410.80188223500539
 30
0.0
  0
VERTEX
  5
13FEB
  8
0
 10
312.64398265071412
 20
410.91649257375838
 30
0.0
  0
VERTEX
  5
13FEC
  8
0
 10
312.64398265071412
 20
410.97326715754298
 30
0.0
  0
VERTEX
  5
13FED
  8
0
 10
312.64398265071412
 20
410.98045729116268
 30
0.0
  0
SEQEND
  5
13FEE
  8
0
  0
POLYLINE
  5
3272
  8
0
 66
     1
 10
0.0
 20
0.0
 30
0.0
  0
VERTEX
  5
13FEF
  8
0
 10
318.90231598404739
 20
405.73987700057808
 30
0.0
  0
VERTEX
  5
13FF0
  8
0
 10
319.1755110303987
 20
405.69902762102191
 30
0.0
  0
VERTEX
  5
13FF1
  8
0
 10
319.7026752515377
 20
405.62870399380051
 30
0.0
  0
VERTEX
  5
13FF2
  8
0
 10
320.209576682418
 20
405.57266669787919
 30
0.0
  0
VERTEX
  5
13FF3
  8
0
 10
320.45730684097691
 20
405.54975625749751
 30
0.0
  0
SEQEND
  5
13FF4
  8
0
  0
POLYLINE
  5
3276
  8
0
 66
     1
 10
0.0
 20
0.0
 30
0.0
  0
VERTEX
  5
13FF5
  8
0
 10
315.77314931738073
 20
410.98045729116268
 30
0.0
  0
VERTEX
  5
13FF6
  8
0
 10
315.27071156546521
 20
410.97326715754298
 30
0.0
  0
VERTEX
  5
13FF7
  8
0
 10
314.26195102155282
 20
410.91649257375838
 30
0.0
  0
VERTEX
  5
13FF8
  8
0
 10
313.20616112882891
 20
410.80188223500539
 30
0.0
  0
VERTEX
  5
13FF9
  8
0
 10
312.64398265071412
 20
410.72103758174711
 30
0.0
  0
SEQEND
  5
13FFA
  8
0
  0
LINE
  5
3277
  8
0
 10
312.64398265071412
 20
405.73987700057808
 30
0.0
 11
312.64398265071412
 21
410.72103758174711
 31
0.0
  0
POLYLINE
  5
3278
  8
0
 66
     1
 10
0.0
 20
0.0
 30
0.0
  0
VERTEX
  5
13FFB
  8
0
 10
312.64398265071412
 20
405.73987700057808
 30
0.0
  0
VERTEX
  5
13FFC
  8
0
 10
313.20616112882891
 20
405.65903234732008
 30
0.0
  0
VERTEX
  5
13FFD
  8
0
 10
314.26195102155282
 20
405.5444220085671
 30
0.0
  0
VERTEX
  5
13FFE
  8
0
 10
315.27071156546521
 20
405.48764742478261
 30
0.0
  0
VERTEX
  5
13FFF
  8
0
 10
315.77314931738073
 20
405.48045729116279
 30
0.0
  0
SEQEND
  5
14000
  8
0
  0
POLYLINE
  5
3279
  8
0
 66
     1
 10
0.0
 20
0.0
 30
0.0
  0
VERTEX
  5
14001
  8
0
 10
315.77314931738073
 20
405.48045729116279
 30
0.0
  0
VERTEX
  5
14002
  8
0
 10
316.27558706929619
 20
405.48764742478261
 30
0.0
  0
VERTEX
  5
14003
  8
0
 10
317.28434761320852
 20
405.5444220085671
 30
0.0
  0
VERTEX
  5
14004
  8
0
 10
318.3401375059326
 20
405.65903234732008
 30
0.0
  0
VERTEX
  5
14005
  8
0
 10
318.90231598404739
 20
405.73987700057808
 30
0.0
  0
SEQEND
  5
14006
  8
0
  0
LINE
  5
327A
  8
0
 10
318.90231598404739
 20
405.73987700057808
 30
0.0
 11
318.90231598404739
 21
410.21070676192028
 31
0.0
  0
POLYLINE
  5
327D
  8
0
 66
     1
 10
0.0
 20
0.0
 30
0.0
  0
VERTEX
  5
14007
  8
0
 10
318.7174737055841
 20
410.74898996790262
 30
0.0
  0
VERTEX
  5
14008
  8
0
 10
318.19338884678939
 20
410.82085867635232
 30
0.0
  0
VERTEX
  5
14009
  8
0
 10
317.2018023804834
 20
410.92317750276709
 30
0.0
  0
VERTEX
  5
1400A
  8
0
 10
316.24860917315192
 20
410.97401712518479
 30
0.0
  0
VERTEX
  5
1400B
  8
0
 10
315.77314931738073
 20
410.98045729116268
 30
0.0
  0
SEQEND
  5
1400C
  8
0
  0
LINE
  5
3281
  8
0
 10
312.90231598404739
 20
358.48045729116279
 30
0.0
 11
320.9047318903269
 21
358.48045729116279
 31
0.0
  0
LINE
  5
3283
  8
0
 10
312.90231598404739
 20
403.48045729116268
 30
0.0
 11
320.9047318903269
 21
403.48045729116268
 31
0.0
  0
LINE
  5
328A
  8
1
 10
318.90231598404739
 20
330.8398838382742
 30
0.0
 11
318.90231598404739
 21
431.12103074405138
 31
0.0
  0
ARC
  5
32A9
  8
0
 10
271.99327880375228
 20
367.98045729116279
 30
0.0
 40
2.0000000000000009
 50
189.59406822686481
 51
270.0
  0
ARC
  5
32AB
  8
0
 10
348.90231598404642
 20
380.98045729116279
 30
0.0
 40
79.999999999998934
 50
170.40593177313519
 51
189.59406822686481
  0
ARC
  5
32AD
  8
0
 10
271.99327880375228
 20
393.98045729116279
 30
0.0
 40
1.999999999999968
 50
90.0
 51
170.40593177313519
  0
LINE
  5
32B9
  8
0
 10
271.99327880375228
 20
365.98045729116279
 30
0.0
 11
303.8860466906907
 21
365.98045729116279
 31
0.0
  0
LINE
  5
32BD
  8
0
 10
271.99327880375228
 20
395.98045729116279
 30
0.0
 11
303.8860466906907
 21
395.98045729116279
 31
0.0
  0
LINE
  5
32E5
  8
0
 10
508.32148507479599
 20
267.44368873142042
 30
0.0
 11
508.32148507479599
 21
268.24368873142038
 31
0.0
  0
LINE
  5
32E6
  8
0
 10
577.92148507479601
 20
268.24368873142038
 30
0.0
 11
577.92148507479601
 21
267.44368873142042
 31
0.0
  0
LINE
  5
32E7
  8
0
 10
508.6202644108177
 20
258.94368873142042
 30
0.0
 11
507.12148507479583
 21
267.44368873142042
 31
0.0
  0
LINE
  5
32E8
  8
0
 10
579.12148507479583
 20
267.44368873142042
 30
0.0
 11
577.6227057387739
 21
258.94368873142042
 31
0.0
  0
LINE
  5
32E9
  8
0
 10
510.12148507479571
 20
213.54845231650981
 30
0.0
 11
510.12148507479571
 21
258.94368873142042
 31
0.0
  0
LINE
  5
32EA
  8
0
 10
576.12148507479583
 20
258.94368873142042
 30
0.0
 11
576.12148507479583
 21
213.54845231650981
 31
0.0
  0
LINE
  5
32F1
  8
0
 10
500.62148507479583
 20
270.74368873142038
 30
0.0
 11
500.62148507479583
 21
268.24368873142038
 31
0.0
  0
LINE
  5
32F3
  8
0
 10
585.62148507479583
 20
270.74368873142038
 30
0.0
 11
500.62148507479583
 21
270.74368873142038
 31
0.0
  0
LINE
  5
32F5
  8
0
 10
585.62148507479583
 20
268.24368873142038
 30
0.0
 11
500.62148507479583
 21
268.24368873142038
 31
0.0
  0
LINE
  5
32F6
  8
0
 10
585.62148507479583
 20
270.74368873142038
 30
0.0
 11
585.62148507479583
 21
268.24368873142038
 31
0.0
  0
LINE
  5
3309
  8
0
 10
579.12148507479583
 20
267.44368873142042
 30
0.0
 11
507.12148507479583
 21
267.44368873142042
 31
0.0
  0
LINE
  5
330A
  8
0
 10
577.6227057387739
 20
258.94368873142042
 30
0.0
 11
508.6202644108177
 21
258.94368873142042
 31
0.0
  0
POLYLINE
  5
330E
  8
0
 66
     1
 10
0.0
 20
0.0
 30
0.0
  0
VERTEX
  5
1400D
  8
0
 10
567.15848646160725
 20
186.3509225849142
 30
0.0
  0
VERTEX
  5
1400E
  8
0
 10
567.62724284854187
 20
186.96309884198371
 30
0.0
  0
VERTEX
  5
1400F
  8
0
 10
568.53223537197368
 20
188.22223864821481
 30
0.0
  0
VERTEX
  5
14010
  8
0
 10
569.39254954318199
 20
189.52590817047229
 30
0.0
  0
VERTEX
  5
14011
  8
0
 10
569.80547640318105
 20
190.19372822048939
 30
0.0
  0
VERTEX
  5
14012
  8
0
 10
570.20667271814432
 20
190.8718152369226
 30
0.0
  0
VERTEX
  5
14013
  8
0
 10
570.97317346797456
 20
192.25759341173571
 30
0.0
  0
VERTEX
  5
14014
  8
0
 10
571.69070409573135
 20
193.68080615586129
 30
0.0
  0
VERTEX
  5
14015
  8
0
 10
572.3580030059976
 20
195.1389511110639
 30
0.0
  0
VERTEX
  5
14016
  8
0
 10
572.97389692307638
 20
196.6294644996853
 30
0.0
  0
VERTEX
  5
14017
  8
0
 10
573.53730295389926
 20
198.14972563239519
 30
0.0
  0
VERTEX
  5
14018
  8
0
 10
573.79900979375554
 20
198.92017820761541
 30
0.0
  0
VERTEX
  5
14019
  8
0
 10
574.04723049201925
 20
199.69706151600909
 30
0.0
  0
VERTEX
  5
1401A
  8
0
 10
574.50278295933799
 20
201.26875155326769
 30
0.0
  0
VERTEX
  5
1401B
  8
0
 10
574.90315938251365
 20
202.86203232631641
 30
0.0
  0
VERTEX
  5
1401C
  8
0
 10
575.24765580126746
 20
204.47410245547411
 30
0.0
  0
VERTEX
  5
1401D
  8
0
 10
575.53566650612061
 20
206.10212752474729
 30
0.0
  0
VERTEX
  5
1401E
  8
0
 10
575.76668510337845
 20
207.74324506543249
 30
0.0
  0
VERTEX
  5
1401F
  8
0
 10
575.86069149300988
 20
208.56781255812319
 30
0.0
  0
VERTEX
  5
14020
  8
0
 10
575.9403054054967
 20
209.3945695890383
 30
0.0
  0
VERTEX
  5
14021
  8
0
 10
576.05622214525886
 20
211.05319766068689
 30
0.0
  0
VERTEX
  5
14022
  8
0
 10
576.11423151251131
 20
212.7162130040646
 30
0.0
  0
VERTEX
  5
14023
  8
0
 10
576.12148507479583
 20
213.54845231650981
 30
0.0
  0
SEQEND
  5
14024
  8
0
  0
POLYLINE
  5
330F
  8
0
 66
     1
 10
0.0
 20
0.0
 30
0.0
  0
VERTEX
  5
14025
  8
0
 10
576.12148507479583
 20
213.54845231650981
 30
0.0
  0
VERTEX
  5
14026
  8
0
 10
576.1179947283905
 20
214.12577577218369
 30
0.0
  0
VERTEX
  5
14027
  8
0
 10
576.090076386997
 20
215.2799342102505
 30
0.0
  0
VERTEX
  5
14028
  8
0
 10
576.03426332591494
 20
216.4326276417716
 30
0.0
  0
VERTEX
  5
14029
  8
0
 10
575.99591011182349
 20
217.00812012979529
 30
0.0
  0
VERTEX
  5
1402A
  8
0
 10
575.95060276856498
 20
217.58288077302399
 30
0.0
  0
VERTEX
  5
1402B
  8
0
 10
575.83916550013157
 20
218.72972037502291
 30
0.0
  0
VERTEX
  5
1402C
  8
0
 10
575.70004580766931
 20
219.87217610696911
 30
0.0
  0
VERTEX
  5
1402D
  8
0
 10
575.53336140032684
 20
221.00928133725591
 30
0.0
  0
VERTEX
  5
1402E
  8
0
 10
575.33925330975364
 20
222.14007396133471
 30
0.0
  0
VERTEX
  5
1402F
  8
0
 10
575.1178857707738
 20
223.26359721575241
 30
0.0
  0
VERTEX
  5
14030
  8
0
 10
574.99703734233503
 20
223.8223355005359
 30
0.0
  0
VERTEX
  5
14031
  8
0
 10
574.86944608242516
 20
224.3789004876682
 30
0.0
  0
VERTEX
  5
14032
  8
0
 10
574.5941444494872
 20
225.48504011916671
 30
0.0
  0
VERTEX
  5
14033
  8
0
 10
574.29221380462661
 20
226.58108020568781
 30
0.0
  0
VERTEX
  5
14034
  8
0
 10
573.96390961131249
 20
227.66609338789451
 30
0.0
  0
VERTEX
  5
14035
  8
0
 10
573.60950964766846
 20
228.73916163631151
 30
0.0
  0
VERTEX
  5
14036
  8
0
 10
573.22931377144516
 20
229.79937702807041
 30
0.0
  0
VERTEX
  5
14037
  8
0
 10
573.02964204700515
 20
230.3243841295654
 30
0.0
  0
VERTEX
  5
14038
  8
0
 10
572.82364366631168
 20
230.8458425151027
 30
0.0
  0
VERTEX
  5
14039
  8
0
 10
572.39284256967744
 20
231.87767268313149
 30
0.0
  0
VERTEX
  5
1403A
  8
0
 10
571.9372749822785
 20
232.89399450082161
 30
0.0
  0
VERTEX
  5
1403B
  8
0
 10
571.70032339968225
 20
233.39607052396511
 30
0.0
  0
VERTEX
  5
1403C
  8
0
 10
571.45732635977606
 20
233.89394805844989
 30
0.0
  0
VERTEX
  5
1403D
  8
0
 10
570.95340278662093
 20
234.8766872954759
 30
0.0
  0
VERTEX
  5
1403E
  8
0
 10
570.42593063246591
 20
235.84138071639239
 30
0.0
  0
VERTEX
  5
1403F
  8
0
 10
570.15350253633255
 20
236.3167045594866
 30
0.0
  0
VERTEX
  5
14040
  8
0
 10
569.87535619141295
 20
236.7872120942549
 30
0.0
  0
VERTEX
  5
14041
  8
0
 10
569.30214530440685
 20
237.7133811612897
 30
0.0
  0
VERTEX
  5
14042
  8
0
 10
568.70678296508424
 20
238.6191042860018
 30
0.0
  0
VERTEX
  5
14043
  8
0
 10
568.08977290942335
 20
239.5036151362043
 30
0.0
  0
VERTEX
  5
14044
  8
0
 10
567.45163718952995
 20
240.36616532741201
 30
0.0
  0
VERTEX
  5
14045
  8
0
 10
566.79291573193245
 20
241.20602505605001
 30
0.0
  0
VERTEX
  5
14046
  8
0
 10
566.45600885395174
 20
241.6172231662963
 30
0.0
  0
VERTEX
  5
14047
  8
0
 10
566.11416588074746
 20
242.02248371694
 30
0.0
  0
VERTEX
  5
14048
  8
0
 10
565.41596192611235
 20
242.81485050454319
 30
0.0
  0
VERTEX
  5
14049
  8
0
 10
564.69889461827927
 20
243.58245499745109
 30
0.0
  0
VERTEX
  5
1404A
  8
0
 10
563.96357066777841
 20
244.3246477256281
 30
0.0
  0
VERTEX
  5
1404B
  8
0
 10
563.21061223208346
 20
245.04080071992931
 30
0.0
  0
VERTEX
  5
1404C
  8
0
 10
562.44065638920415
 20
245.73030804342369
 30
0.0
  0
VERTEX
  5
1404D
  8
0
 10
562.04950747438045
 20
246.0648863743188
 30
0.0
  0
VERTEX
  5
1404E
  8
0
 10
561.65435459865125
 20
246.39258630407829
 30
0.0
  0
VERTEX
  5
1404F
  8
0
 10
560.85237215024131
 20
247.0270751483655
 30
0.0
  0
VERTEX
  5
14050
  8
0
 10
560.03538760119147
 20
247.63323773537871
 30
0.0
  0
VERTEX
  5
14051
  8
0
 10
559.20409220199485
 20
248.21056119105259
 30
0.0
  0
VERTEX
  5
14052
  8
0
 10
558.35918931155186
 20
248.75855704210619
 30
0.0
  0
VERTEX
  5
14053
  8
0
 10
557.50139380205951
 20
249.27676162933989
 30
0.0
  0
VERTEX
  5
14054
  8
0
 10
557.06788771223876
 20
249.524554187604
 30
0.0
  0
VERTEX
  5
14055
  8
0
 10
556.631431454157
 20
249.7647364999379
 30
0.0
  0
VERTEX
  5
14056
  8
0
 10
555.75003834284394
 20
250.22206877844241
 30
0.0
  0
VERTEX
  5
14057
  8
0
 10
554.85796021468673
 20
250.64837151608751
 30
0.0
  0
VERTEX
  5
14058
  8
0
 10
553.95595185684328
 20
251.0432840181972
 30
0.0
  0
VERTEX
  5
14059
  8
0
 10
553.04477645843713
 20
251.4064721493682
 30
0.0
  0
VERTEX
  5
1405A
  8
0
 10
552.12520496482216
 20
251.73762861618269
 30
0.0
  0
VERTEX
  5
1405B
  8
0
 10
551.66251356317912
 20
251.8911063503221
 30
0.0
  0
VERTEX
  5
1405C
  8
0
 10
551.19801542528853
 20
252.03647322720821
 30
0.0
  0
VERTEX
  5
1405D
  8
0
 10
550.26399233475308
 20
252.30275313006879
 30
0.0
  0
VERTEX
  5
1405E
  8
0
 10
549.32392596999955
 20
252.53624302538211
 30
0.0
  0
VERTEX
  5
1405F
  8
0
 10
548.37861172102396
 20
252.7367453573865
 30
0.0
  0
VERTEX
  5
14060
  8
0
 10
547.42884941805755
 20
252.90409048109149
 30
0.0
  0
VERTEX
  5
14061
  8
0
 10
546.47544265482804
 20
253.03813680581561
 30
0.0
  0
VERTEX
  5
14062
  8
0
 10
545.99762458546843
 20
253.09263637254199
 30
0.0
  0
VERTEX
  5
14063
  8
0
 10
545.51919810864206
 20
253.13877091498529
 30
0.0
  0
VERTEX
  5
14064
  8
0
 10
544.56092485785177
 20
253.20590766209759
 30
0.0
  0
VERTEX
  5
14065
  8
0
 10
543.60143369729815
 20
253.23949024276169
 30
0.0
  0
VERTEX
  5
14066
  8
0
 10
543.12148507479583
 20
253.24368873142041
 30
0.0
  0
VERTEX
  5
14067
  8
0
 10
542.64153645229385
 20
253.23949024276169
 30
0.0
  0
VERTEX
  5
14068
  8
0
 10
541.68204529173977
 20
253.20590766209759
 30
0.0
  0
VERTEX
  5
14069
  8
0
 10
540.72377204094948
 20
253.13877091498529
 30
0.0
  0
VERTEX
  5
1406A
  8
0
 10
540.24534556412323
 20
253.09263637254199
 30
0.0
  0
VERTEX
  5
1406B
  8
0
 10
539.76752749476339
 20
253.03813680581561
 30
0.0
  0
VERTEX
  5
1406C
  8
0
 10
538.81412073153399
 20
252.90409048109149
 30
0.0
  0
VERTEX
  5
1406D
  8
0
 10
537.86435842856758
 20
252.7367453573865
 30
0.0
  0
VERTEX
  5
1406E
  8
0
 10
536.91904417959199
 20
252.53624302538211
 30
0.0
  0
VERTEX
  5
1406F
  8
0
 10
535.97897781483846
 20
252.30275313006879
 30
0.0
  0
VERTEX
  5
14070
  8
0
 10
535.04495472430312
 20
252.03647322720821
 30
0.0
  0
VERTEX
  5
14071
  8
0
 10
534.58045658641254
 20
251.8911063503221
 30
0.0
  0
VERTEX
  5
14072
  8
0
 10
534.11776518476938
 20
251.73762861618269
 30
0.0
  0
VERTEX
  5
14073
  8
0
 10
533.19819369115487
 20
251.4064721493682
 30
0.0
  0
VERTEX
  5
14074
  8
0
 10
532.28701829274826
 20
251.0432840181972
 30
0.0
  0
VERTEX
  5
14075
  8
0
 10
531.38500993490493
 20
250.64837151608751
 30
0.0
  0
VERTEX
  5
14076
  8
0
 10
530.49293180674772
 20
250.22206877844241
 30
0.0
  0
VERTEX
  5
14077
  8
0
 10
529.61153869543489
 20
249.7647364999379
 30
0.0
  0
VERTEX
  5
14078
  8
0
 10
529.17508243735278
 20
249.524554187604
 30
0.0
  0
VERTEX
  5
14079
  8
0
 10
528.74157634753215
 20
249.27676162933989
 30
0.0
  0
VERTEX
  5
1407A
  8
0
 10
527.88378083803957
 20
248.75855704210619
 30
0.0
  0
VERTEX
  5
1407B
  8
0
 10
527.03887794759669
 20
248.21056119105259
 30
0.0
  0
VERTEX
  5
1407C
  8
0
 10
526.20758254840041
 20
247.63323773537871
 30
0.0
  0
VERTEX
  5
1407D
  8
0
 10
525.3905979993508
 20
247.0270751483655
 30
0.0
  0
VERTEX
  5
1407E
  8
0
 10
524.58861555094074
 20
246.39258630407829
 30
0.0
  0
VERTEX
  5
1407F
  8
0
 10
524.19346267521155
 20
246.0648863743188
 30
0.0
  0
VERTEX
  5
14080
  8
0
 10
523.80231376038785
 20
245.73030804342369
 30
0.0
  0
VERTEX
  5
14081
  8
0
 10
523.03235791750797
 20
245.04080071992931
 30
0.0
  0
VERTEX
  5
14082
  8
0
 10
522.2793994818137
 20
244.32464772562841
 30
0.0
  0
VERTEX
  5
14083
  8
0
 10
521.54407553131273
 20
243.58245499745109
 30
0.0
  0
VERTEX
  5
14084
  8
0
 10
520.8270082234792
 20
242.8148505045435
 30
0.0
  0
VERTEX
  5
14085
  8
0
 10
520.12880426884408
 20
242.02248371694
 30
0.0
  0
VERTEX
  5
14086
  8
0
 10
519.78696129563991
 20
241.6172231662963
 30
0.0
  0
VERTEX
  5
14087
  8
0
 10
519.4500544176592
 20
241.20602505605001
 30
0.0
  0
VERTEX
  5
14088
  8
0
 10
518.79133296006171
 20
240.36616532741201
 30
0.0
  0
VERTEX
  5
14089
  8
0
 10
518.15319724016865
 20
239.5036151362043
 30
0.0
  0
VERTEX
  5
1408A
  8
0
 10
517.53618718450775
 20
238.619104286002
 30
0.0
  0
VERTEX
  5
1408B
  8
0
 10
516.94082484518515
 20
237.7133811612897
 30
0.0
  0
VERTEX
  5
1408C
  8
0
 10
516.36761395817871
 20
236.7872120942549
 30
0.0
  0
VERTEX
  5
1408D
  8
0
 10
516.0894676132591
 20
236.3167045594866
 30
0.0
  0
VERTEX
  5
1408E
  8
0
 10
515.8170395171262
 20
235.84138071639239
 30
0.0
  0
VERTEX
  5
1408F
  8
0
 10
515.28956736297073
 20
234.8766872954759
 30
0.0
  0
VERTEX
  5
14090
  8
0
 10
514.78564378981548
 20
233.89394805844989
 30
0.0
  0
VERTEX
  5
14091
  8
0
 10
514.54264674990941
 20
233.39607052396511
 30
0.0
  0
VERTEX
  5
14092
  8
0
 10
514.30569516731362
 20
232.89399450082161
 30
0.0
  0
VERTEX
  5
14093
  8
0
 10
513.85012757991456
 20
231.87767268313169
 30
0.0
  0
VERTEX
  5
14094
  8
0
 10
513.41932648327986
 20
230.8458425151027
 30
0.0
  0
VERTEX
  5
14095
  8
0
 10
513.2133281025865
 20
230.3243841295654
 30
0.0
  0
VERTEX
  5
14096
  8
0
 10
513.01365637814627
 20
229.79937702807041
 30
0.0
  0
VERTEX
  5
14097
  8
0
 10
512.63346050192354
 20
228.73916163631151
 30
0.0
  0
VERTEX
  5
14098
  8
0
 10
512.27906053827951
 20
227.66609338789451
 30
0.0
  0
VERTEX
  5
14099
  8
0
 10
511.95075634496487
 20
226.58108020568781
 30
0.0
  0
VERTEX
  5
1409A
  8
0
 10
511.6488257001044
 20
225.48504011916671
 30
0.0
  0
VERTEX
  5
1409B
  8
0
 10
511.37352406716639
 20
224.3789004876682
 30
0.0
  0
VERTEX
  5
1409C
  8
0
 10
511.24593280725662
 20
223.8223355005359
 30
0.0
  0
VERTEX
  5
1409D
  8
0
 10
511.1250843788182
 20
223.26359721575241
 30
0.0
  0
VERTEX
  5
1409E
  8
0
 10
510.9037168398379
 20
222.14007396133471
 30
0.0
  0
VERTEX
  5
1409F
  8
0
 10
510.70960874926521
 20
221.00928133725591
 30
0.0
  0
VERTEX
  5
140A0
  8
0
 10
510.54292434192229
 20
219.87217610696911
 30
0.0
  0
VERTEX
  5
140A1
  8
0
 10
510.40380464946003
 20
218.72972037502291
 30
0.0
  0
VERTEX
  5
140A2
  8
0
 10
510.29236738102662
 20
217.58288077302399
 30
0.0
  0
VERTEX
  5
140A3
  8
0
 10
510.24706003776839
 20
217.00812012979529
 30
0.0
  0
VERTEX
  5
140A4
  8
0
 10
510.20870682367712
 20
216.4326276417716
 30
0.0
  0
VERTEX
  5
140A5
  8
0
 10
510.1528937625946
 20
215.2799342102505
 30
0.0
  0
VERTEX
  5
140A6
  8
0
 10
510.12497542120138
 20
214.12577577218369
 30
0.0
  0
VERTEX
  5
140A7
  8
0
 10
510.12148507479571
 20
213.54845231650981
 30
0.0
  0
SEQEND
  5
140A8
  8
0
  0
POLYLINE
  5
3310
  8
0
 66
     1
 10
0.0
 20
0.0
 30
0.0
  0
VERTEX
  5
140A9
  8
0
 10
510.12148507479571
 20
213.54845231650981
 30
0.0
  0
VERTEX
  5
140AA
  8
0
 10
510.12873863708018
 20
212.7162130040646
 30
0.0
  0
VERTEX
  5
140AB
  8
0
 10
510.18674800433269
 20
211.05319766068689
 30
0.0
  0
VERTEX
  5
140AC
  8
0
 10
510.30266474409541
 20
209.3945695890383
 30
0.0
  0
VERTEX
  5
140AD
  8
0
 10
510.38227865658172
 20
208.56781255812319
 30
0.0
  0
VERTEX
  5
140AE
  8
0
 10
510.4762850462136
 20
207.74324506543249
 30
0.0
  0
VERTEX
  5
140AF
  8
0
 10
510.70730364347099
 20
206.10212752474729
 30
0.0
  0
VERTEX
  5
140B0
  8
0
 10
510.9953143483242
 20
204.47410245547411
 30
0.0
  0
VERTEX
  5
140B1
  8
0
 10
511.3398107670784
 20
202.86203232631641
 30
0.0
  0
VERTEX
  5
140B2
  8
0
 10
511.74018719025412
 20
201.26875155326769
 30
0.0
  0
VERTEX
  5
140B3
  8
0
 10
512.19573965757274
 20
199.69706151600909
 30
0.0
  0
VERTEX
  5
140B4
  8
0
 10
512.443960355836
 20
198.92017820761541
 30
0.0
  0
VERTEX
  5
140B5
  8
0
 10
512.70566719569217
 20
198.14972563239519
 30
0.0
  0
VERTEX
  5
140B6
  8
0
 10
513.26907322651516
 20
196.6294644996853
 30
0.0
  0
VERTEX
  5
140B7
  8
0
 10
513.88496714359428
 20
195.1389511110639
 30
0.0
  0
VERTEX
  5
140B8
  8
0
 10
514.55226605386019
 20
193.68080615586129
 30
0.0
  0
VERTEX
  5
140B9
  8
0
 10
515.26979668161698
 20
192.25759341173571
 30
0.0
  0
VERTEX
  5
140BA
  8
0
 10
516.03629743144779
 20
190.8718152369226
 30
0.0
  0
VERTEX
  5
140BB
  8
0
 10
516.4374937464105
 20
190.19372822048939
 30
0.0
  0
VERTEX
  5
140BC
  8
0
 10
516.85042060640956
 20
189.52590817047229
 30
0.0
  0
VERTEX
  5
140BD
  8
0
 10
517.71073477761786
 20
188.22223864821481
 30
0.0
  0
VERTEX
  5
140BE
  8
0
 10
518.61572730104956
 20
186.96309884198371
 30
0.0
  0
VERTEX
  5
140BF
  8
0
 10
519.08448368798474
 20
186.3509225849142
 30
0.0
  0
SEQEND
  5
140C0
  8
0
  0
LINE
  5
3311
  8
0
 10
563.62148507479583
 20
182.74368873142029
 30
0.0
 11
563.62148507479583
 21
183.7833212407717
 31
0.0
  0
POLYLINE
  5
3312
  8
0
 66
     1
 10
0.0
 20
0.0
 30
0.0
  0
VERTEX
  5
140C1
  8
0
 10
563.62148507479583
 20
183.7833212407717
 30
0.0
  0
VERTEX
  5
140C2
  8
0
 10
563.7308754634962
 20
183.82700566841601
 30
0.0
  0
VERTEX
  5
140C3
  8
0
 10
563.94773512479355
 20
183.91798883817421
 30
0.0
  0
VERTEX
  5
140C4
  8
0
 10
564.16200684711396
 20
184.01393279588461
 30
0.0
  0
VERTEX
  5
140C5
  8
0
 10
564.26816241508516
 20
184.0638203865181
 30
0.0
  0
VERTEX
  5
140C6
  8
0
 10
564.37365921655942
 20
184.1150157972119
 30
0.0
  0
VERTEX
  5
140C7
  8
0
 10
564.58266056555544
 20
184.22142632665111
 30
0.0
  0
VERTEX
  5
140C8
  8
0
 10
564.78897812252649
 20
184.33336402505569
 30
0.0
  0
VERTEX
  5
140C9
  8
0
 10
564.99257699125224
 20
184.45104058392249
 30
0.0
  0
VERTEX
  5
140CA
  8
0
 10
565.19341895970842
 20
184.5746805769067
 30
0.0
  0
VERTEX
  5
140CB
  8
0
 10
565.39146114252446
 20
184.70452219573889
 30
0.0
  0
VERTEX
  5
140CC
  8
0
 10
565.48941726498992
 20
184.77184692560371
 30
0.0
  0
VERTEX
  5
140CD
  8
0
 10
565.58699797508666
 20
184.84106539043361
 30
0.0
  0
VERTEX
  5
140CE
  8
0
 10
565.78193378188837
 20
184.98613228153039
 30
0.0
  0
VERTEX
  5
140CF
  8
0
 10
565.97584480520231
 20
185.14006893429351
 30
0.0
  0
VERTEX
  5
140D0
  8
0
 10
566.16789682854073
 20
185.30286459435649
 30
0.0
  0
VERTEX
  5
140D1
  8
0
 10
566.35730424572444
 20
185.4744564790889
 30
0.0
  0
VERTEX
  5
140D2
  8
0
 10
566.54333592630724
 20
185.6547298262177
 30
0.0
  0
VERTEX
  5
140D3
  8
0
 10
566.63487152877917
 20
185.748070244703
 30
0.0
  0
VERTEX
  5
140D4
  8
0
 10
566.72531170352079
 20
185.84351031710429
 30
0.0
  0
VERTEX
  5
140D5
  8
0
 10
566.90259868213855
 20
186.0405550784659
 30
0.0
  0
VERTEX
  5
140D6
  8
0
 10
567.07461736065511
 20
186.2455540567488
 30
0.0
  0
VERTEX
  5
140D7
  8
0
 10
567.15848646160725
 20
186.3509225849142
 30
0.0
  0
SEQEND
  5
140D8
  8
0
  0
LINE
  5
3314
  8
0
 10
563.62148507479583
 20
182.74368873142029
 30
0.0
 11
560.62148507479583
 21
182.74368873142029
 31
0.0
  0
POLYLINE
  5
3316
  8
0
 66
     1
 10
0.0
 20
0.0
 30
0.0
  0
VERTEX
  5
140D9
  8
0
 10
519.08448368798474
 20
186.3509225849142
 30
0.0
  0
VERTEX
  5
140DA
  8
0
 10
519.16835278893655
 20
186.2455540567488
 30
0.0
  0
VERTEX
  5
140DB
  8
0
 10
519.34037146745345
 20
186.0405550784659
 30
0.0
  0
VERTEX
  5
140DC
  8
0
 10
519.5176584460711
 20
185.84351031710429
 30
0.0
  0
VERTEX
  5
140DD
  8
0
 10
519.60809862081226
 20
185.748070244703
 30
0.0
  0
VERTEX
  5
140DE
  8
0
 10
519.69963422328442
 20
185.6547298262177
 30
0.0
  0
VERTEX
  5
140DF
  8
0
 10
519.88566590386722
 20
185.4744564790889
 30
0.0
  0
VERTEX
  5
140E0
  8
0
 10
520.07507332105092
 20
185.30286459435649
 30
0.0
  0
VERTEX
  5
140E1
  8
0
 10
520.26712534438934
 20
185.14006893429351
 30
0.0
  0
VERTEX
  5
140E2
  8
0
 10
520.46103636770363
 20
184.98613228153039
 30
0.0
  0
VERTEX
  5
140E3
  8
0
 10
520.65597217450545
 20
184.84106539043361
 30
0.0
  0
VERTEX
  5
140E4
  8
0
 10
520.75355288460173
 20
184.77184692560371
 30
0.0
  0
VERTEX
  5
140E5
  8
0
 10
520.85150900706708
 20
184.70452219573889
 30
0.0
  0
VERTEX
  5
140E6
  8
0
 10
521.04955118988323
 20
184.5746805769067
 30
0.0
  0
VERTEX
  5
140E7
  8
0
 10
521.25039315833942
 20
184.45104058392249
 30
0.0
  0
VERTEX
  5
140E8
  8
0
 10
521.45399202706506
 20
184.33336402505569
 30
0.0
  0
VERTEX
  5
140E9
  8
0
 10
521.66030958403621
 20
184.22142632665111
 30
0.0
  0
VERTEX
  5
140EA
  8
0
 10
521.86931093303224
 20
184.1150157972119
 30
0.0
  0
VERTEX
  5
140EB
  8
0
 10
521.97480773450684
 20
184.0638203865181
 30
0.0
  0
VERTEX
  5
140EC
  8
0
 10
522.08096330247747
 20
184.01393279588461
 30
0.0
  0
VERTEX
  5
140ED
  8
0
 10
522.2952350247981
 20
183.91798883817421
 30
0.0
  0
VERTEX
  5
140EE
  8
0
 10
522.51209468609579
 20
183.82700566841601
 30
0.0
  0
VERTEX
  5
140EF
  8
0
 10
522.62148507479571
 20
183.7833212407717
 30
0.0
  0
SEQEND
  5
140F0
  8
0
  0
LINE
  5
3317
  8
0
 10
522.62148507479571
 20
183.7833212407717
 30
0.0
 11
522.62148507479571
 21
182.74368873142029
 31
0.0
  0
LINE
  5
3318
  8
0
 10
525.62148507479583
 20
182.74368873142029
 30
0.0
 11
522.62148507479571
 21
182.74368873142029
 31
0.0
  0
POLYLINE
  5
3319
  8
0
 66
     1
 10
0.0
 20
0.0
 30
0.0
  0
VERTEX
  5
140F1
  8
0
 10
560.62148507479401
 20
184.27625022784761
 30
0.0
  0
VERTEX
  5
140F2
  8
0
 10
560.71613059955928
 20
184.31844418362991
 30
0.0
  0
VERTEX
  5
140F3
  8
0
 10
560.90368366944415
 20
184.40531424274781
 30
0.0
  0
VERTEX
  5
140F4
  8
0
 10
561.08886060612417
 20
184.49554662300591
 30
0.0
  0
VERTEX
  5
140F5
  8
0
 10
561.18052828851592
 20
184.5419391254795
 30
0.0
  0
VERTEX
  5
140F6
  8
0
 10
561.2715663365027
 20
184.58919021773471
 30
0.0
  0
VERTEX
  5
140F7
  8
0
 10
561.45170708861735
 20
184.68628997805439
 30
0.0
  0
VERTEX
  5
140F8
  8
0
 10
561.62919161356672
 20
184.7868872598057
 30
0.0
  0
VERTEX
  5
140F9
  8
0
 10
561.803931474965
 20
184.8910197948818
 30
0.0
  0
VERTEX
  5
140FA
  8
0
 10
561.97584132644045
 20
184.99872170889279
 30
0.0
  0
VERTEX
  5
140FB
  8
0
 10
562.14483917522796
 20
185.1100235910059
 30
0.0
  0
VERTEX
  5
140FC
  8
0
 10
562.22822145406758
 20
185.167033142409
 30
0.0
  0
VERTEX
  5
140FD
  8
0
 10
562.31084662923206
 20
185.22495262183631
 30
0.0
  0
VERTEX
  5
140FE
  8
0
 10
562.47378912419686
 20
185.34353276511271
 30
0.0
  0
VERTEX
  5
140FF
  8
0
 10
562.633596126817
 20
185.465785028494
 30
0.0
  0
VERTEX
  5
14100
  8
0
 10
562.79020130903905
 20
185.5917277984874
 30
0.0
  0
VERTEX
  5
14101
  8
0
 10
562.94354337799155
 20
185.7213778518427
 30
0.0
  0
VERTEX
  5
14102
  8
0
 10
563.0935626716107
 20
185.8547478103041
 30
0.0
  0
VERTEX
  5
14103
  8
0
 10
563.16730788813459
 20
185.92283035411009
 30
0.0
  0
VERTEX
  5
14104
  8
0
 10
563.24020069367612
 20
185.99184557648979
 30
0.0
  0
VERTEX
  5
14105
  8
0
 10
563.38340178807096
 20
186.13267580170091
 30
0.0
  0
VERTEX
  5
14106
  8
0
 10
563.5231132468781
 20
186.27724021749299
 30
0.0
  0
VERTEX
  5
14107
  8
0
 10
563.59164471436793
 20
186.3509225849142
 30
0.0
  0
SEQEND
  5
14108
  8
0
  0
POLYLINE
  5
331A
  8
0
 66
     1
 10
0.0
 20
0.0
 30
0.0
  0
VERTEX
  5
14109
  8
0
 10
563.59164471436793
 20
186.3509225849142
 30
0.0
  0
VERTEX
  5
1410A
  8
0
 10
564.11054405876598
 20
186.9293335166625
 30
0.0
  0
VERTEX
  5
1410B
  8
0
 10
565.11419322307995
 20
188.12879986120259
 30
0.0
  0
VERTEX
  5
1410C
  8
0
 10
566.07052031957585
 20
189.3829620853632
 30
0.0
  0
VERTEX
  5
1410D
  8
0
 10
566.53029094711849
 20
190.02971527957709
 30
0.0
  0
VERTEX
  5
1410E
  8
0
 10
566.97746760368648
 20
190.68912158788859
 30
0.0
  0
VERTEX
  5
1410F
  8
0
 10
567.83308358218915
 20
192.0444678841333
 30
0.0
  0
VERTEX
  5
14110
  8
0
 10
568.63552721226665
 20
193.4460846534277
 30
0.0
  0
VERTEX
  5
14111
  8
0
 10
569.3830718629099
 20
194.8909560141737
 30
0.0
  0
VERTEX
  5
14112
  8
0
 10
570.07410903013511
 20
196.3759730131639
 30
0.0
  0
VERTEX
  5
14113
  8
0
 10
570.7071517980304
 20
197.89794031516919
 30
0.0
  0
VERTEX
  5
14114
  8
0
 10
571.00149466058076
 20
198.67175985589091
 30
0.0
  0
VERTEX
  5
14115
  8
0
 10
571.28083803817685
 20
199.4535830783922
 30
0.0
  0
VERTEX
  5
14116
  8
0
 10
571.79393334055999
 20
201.03955400099781
 30
0.0
  0
VERTEX
  5
14117
  8
0
 10
572.24533366967285
 20
202.652440523557
 30
0.0
  0
VERTEX
  5
14118
  8
0
 10
572.63406774008604
 20
204.2887721719068
 30
0.0
  0
VERTEX
  5
14119
  8
0
 10
572.95929910637699
 20
205.94502802462591
 30
0.0
  0
VERTEX
  5
1411A
  8
0
 10
573.22032796292592
 20
207.61764428905821
 30
0.0
  0
VERTEX
  5
1411B
  8
0
 10
573.32658549988378
 20
208.4589640533454
 30
0.0
  0
VERTEX
  5
1411C
  8
0
 10
573.41659264969644
 20
209.30302196958331
 30
0.0
  0
VERTEX
  5
1411D
  8
0
 10
573.54767086076959
 20
210.99753461163471
 30
0.0
  0
VERTEX
  5
1411E
  8
0
 10
573.61328055302715
 20
212.69753610480069
 30
0.0
  0
VERTEX
  5
1411F
  8
0
 10
573.62148507479583
 20
213.54845231650981
 30
0.0
  0
SEQEND
  5
14120
  8
0
  0
POLYLINE
  5
331B
  8
0
 66
     1
 10
0.0
 20
0.0
 30
0.0
  0
VERTEX
  5
14121
  8
0
 10
573.62148507479583
 20
213.54845231650981
 30
0.0
  0
VERTEX
  5
14122
  8
0
 10
573.61825914857275
 20
214.0820391467538
 30
0.0
  0
VERTEX
  5
14123
  8
0
 10
573.59245583304266
 20
215.14876133951239
 30
0.0
  0
VERTEX
  5
14124
  8
0
 10
573.54087103416327
 20
216.21412951106981
 30
0.0
  0
VERTEX
  5
14125
  8
0
 10
573.50542336659385
 20
216.74602408333419
 30
0.0
  0
VERTEX
  5
14126
  8
0
 10
573.46354839782475
 20
217.277242253591
 30
0.0
  0
VERTEX
  5
14127
  8
0
 10
573.36055334669732
 20
218.33720006755959
 30
0.0
  0
VERTEX
  5
14128
  8
0
 10
573.23197302487574
 20
219.39310612284331
 30
0.0
  0
VERTEX
  5
14129
  8
0
 10
573.07791622414993
 20
220.44406701750239
 30
0.0
  0
VERTEX
  5
1412A
  8
0
 10
572.89851329195403
 20
221.48919353369649
 30
0.0
  0
VERTEX
  5
1412B
  8
0
 10
572.69391602107828
 20
222.52760139005221
 30
0.0
  0
VERTEX
  5
1412C
  8
0
 10
572.5822227766123
 20
223.0440110168974
 30
0.0
  0
VERTEX
  5
1412D
  8
0
 10
572.46429752124106
 20
223.558411989853
 30
0.0
  0
VERTEX
  5
1412E
  8
0
 10
572.20985207261685
 20
224.58075316441989
 30
0.0
  0
VERTEX
  5
1412F
  8
0
 10
571.93079496145776
 20
225.59375991105321
 30
0.0
  0
VERTEX
  5
14130
  8
0
 10
571.62736229793995
 20
226.5965751249106
 30
0.0
  0
VERTEX
  5
14131
  8
0
 10
571.29981081638994
 20
227.58835032420521
 30
0.0
  0
VERTEX
  5
14132
  8
0
 10
570.94841765806291
 20
228.5682463681039
 30
0.0
  0
VERTEX
  5
14133
  8
0
 10
570.76387257941383
 20
229.05348020433391
 30
0.0
  0
VERTEX
  5
14134
  8
0
 10
570.57348013665137
 20
229.53543416672451
 30
0.0
  0
VERTEX
  5
14135
  8
0
 10
570.17531548673173
 20
230.48909538263001
 30
0.0
  0
VERTEX
  5
14136
  8
0
 10
569.75426059534777
 20
231.42842312322219
 30
0.0
  0
VERTEX
  5
14137
  8
0
 10
569.53525989022114
 20
231.89246308400621
 30
0.0
  0
VERTEX
  5
14138
  8
0
 10
569.31067171697464
 20
232.35262262345461
 30
0.0
  0
VERTEX
  5
14139
  8
0
 10
568.84492417208878
 20
233.26091191828129
 30
0.0
  0
VERTEX
  5
1413A
  8
0
 10
568.35741202961185
 20
234.15252250428011
 30
0.0
  0
VERTEX
  5
1413B
  8
0
 10
568.10562242561014
 20
234.59183696532151
 30
0.0
  0
VERTEX
  5
1413C
  8
0
 10
567.84854777348733
 20
235.02669998988009
 30
0.0
  0
VERTEX
  5
1413D
  8
0
 10
567.31876195367863
 20
235.88270473365489
 30
0.0
  0
VERTEX
  5
1413E
  8
0
 10
566.76850282188036
 20
236.71981247013119
 30
0.0
  0
VERTEX
  5
1413F
  8
0
 10
566.19823595225421
 20
237.53731492259109
 30
0.0
  0
VERTEX
  5
14140
  8
0
 10
565.60844384750465
 20
238.33452040234371
 30
0.0
  0
VERTEX
  5
14141
  8
0
 10
564.99962553063426
 20
239.1107543939635
 30
0.0
  0
VERTEX
  5
14142
  8
0
 10
564.68824190098542
 20
239.49080113222149
 30
0.0
  0
VERTEX
  5
14143
  8
0
 10
564.37229612272108
 20
239.86536012599839
 30
0.0
  0
VERTEX
  5
14144
  8
0
 10
563.72698640707335
 20
240.59769912666201
 30
0.0
  0
VERTEX
  5
14145
  8
0
 10
563.06424238013665
 20
241.30715176404661
 30
0.0
  0
VERTEX
  5
14146
  8
0
 10
562.38462478952192
 20
241.99311777039199
 30
0.0
  0
VERTEX
  5
14147
  8
0
 10
561.68870865956171
 20
242.6550167499733
 30
0.0
  0
VERTEX
  5
14148
  8
0
 10
560.97708280477923
 20
243.29228867017281
 30
0.0
  0
VERTEX
  5
14149
  8
0
 10
560.61556638350271
 20
243.6015201578179
 30
0.0
  0
VERTEX
  5
1414A
  8
0
 10
560.25034933169229
 20
243.90439433532299
 30
0.0
  0
VERTEX
  5
1414B
  8
0
 10
559.50912312937385
 20
244.49081584292199
 30
0.0
  0
VERTEX
  5
1414C
  8
0
 10
558.75403134919145
 20
245.051057021828
 30
0.0
  0
VERTEX
  5
1414D
  8
0
 10
557.98571287417667
 20
245.58464385207199
 30
0.0
  0
VERTEX
  5
1414E
  8
0
 10
557.2048177784643
 20
246.09112486592471
 30
0.0
  0
VERTEX
  5
1414F
  8
0
 10
556.4120067772667
 20
246.57007152988331
 30
0.0
  0
VERTEX
  5
14150
  8
0
 10
556.01134205788696
 20
246.7990919246424
 30
0.0
  0
VERTEX
  5
14151
  8
0
 10
555.60795066784169
 20
247.02107860725411
 30
0.0
  0
VERTEX
  5
14152
  8
0
 10
554.79332976193132
 20
247.4437645010232
 30
0.0
  0
VERTEX
  5
14153
  8
0
 10
553.96883331014965
 20
247.83777157672549
 30
0.0
  0
VERTEX
  5
14154
  8
0
 10
553.13515891880945
 20
248.20276646503899
 30
0.0
  0
VERTEX
  5
14155
  8
0
 10
552.29301195967605
 20
248.53844034384881
 30
0.0
  0
VERTEX
  5
14156
  8
0
 10
551.44310497315359
 20
248.84450919954079
 30
0.0
  0
VERTEX
  5
14157
  8
0
 10
551.01546595042259
 20
248.98635983260911
 30
0.0
  0
VERTEX
  5
14158
  8
0
 10
550.58615706540263
 20
249.12071406730681
 30
0.0
  0
VERTEX
  5
14159
  8
0
 10
549.72289329990804
 20
249.36682125025359
 30
0.0
  0
VERTEX
  5
1415A
  8
0
 10
548.8540440839995
 20
249.58262251713421
 30
0.0
  0
VERTEX
  5
1415B
  8
0
 10
547.98034455085531
 20
249.76793527853209
 30
0.0
  0
VERTEX
  5
1415C
  8
0
 10
547.10253393750747
 20
249.92260274135029
 30
0.0
  0
VERTEX
  5
1415D
  8
0
 10
546.2213549593713
 20
250.0464940414742
 30
0.0
  0
VERTEX
  5
1415E
  8
0
 10
545.77973522859952
 20
250.0968648531456
 30
0.0
  0
VERTEX
  5
1415F
  8
0
 10
545.33755318183535
 20
250.13950435449479
 30
0.0
  0
VERTEX
  5
14160
  8
0
 10
544.45187638943855
 20
250.2015549844015
 30
0.0
  0
VERTEX
  5
14161
  8
0
 10
543.56507395316896
 20
250.23259343016679
 30
0.0
  0
VERTEX
  5
14162
  8
0
 10
543.12148507479583
 20
250.23647385150289
 30
0.0
  0
VERTEX
  5
14163
  8
0
 10
542.67789619642258
 20
250.23259343016699
 30
0.0
  0
VERTEX
  5
14164
  8
0
 10
541.79109376015288
 20
250.2015549844015
 30
0.0
  0
VERTEX
  5
14165
  8
0
 10
540.9054169677562
 20
250.13950435449479
 30
0.0
  0
VERTEX
  5
14166
  8
0
 10
540.46323492099214
 20
250.0968648531456
 30
0.0
  0
VERTEX
  5
14167
  8
0
 10
540.02161519022025
 20
250.0464940414742
 30
0.0
  0
VERTEX
  5
14168
  8
0
 10
539.14043621208441
 20
249.92260274135029
 30
0.0
  0
VERTEX
  5
14169
  8
0
 10
538.26262559873635
 20
249.76793527853209
 30
0.0
  0
VERTEX
  5
1416A
  8
0
 10
537.38892606559261
 20
249.58262251713421
 30
0.0
  0
VERTEX
  5
1416B
  8
0
 10
536.52007684968362
 20
249.36682125025359
 30
0.0
  0
VERTEX
  5
1416C
  8
0
 10
535.65681308418903
 20
249.12071406730681
 30
0.0
  0
VERTEX
  5
1416D
  8
0
 10
535.22750419916895
 20
248.98635983260911
 30
0.0
  0
VERTEX
  5
1416E
  8
0
 10
534.79986517643852
 20
248.84450919954079
 30
0.0
  0
VERTEX
  5
1416F
  8
0
 10
533.94995818991561
 20
248.53844034384881
 30
0.0
  0
VERTEX
  5
14170
  8
0
 10
533.10781123078198
 20
248.20276646503899
 30
0.0
  0
VERTEX
  5
14171
  8
0
 10
532.27413683944201
 20
247.83777157672569
 30
0.0
  0
VERTEX
  5
14172
  8
0
 10
531.44964038766068
 20
247.4437645010232
 30
0.0
  0
VERTEX
  5
14173
  8
0
 10
530.63501948175031
 20
247.02107860725411
 30
0.0
  0
VERTEX
  5
14174
  8
0
 10
530.23162809170458
 20
246.7990919246424
 30
0.0
  0
VERTEX
  5
14175
  8
0
 10
529.83096337232485
 20
246.57007152988331
 30
0.0
  0
VERTEX
  5
14176
  8
0
 10
529.03815237112735
 20
246.09112486592471
 30
0.0
  0
VERTEX
  5
14177
  8
0
 10
528.25725727541487
 20
245.58464385207199
 30
0.0
  0
VERTEX
  5
14178
  8
0
 10
527.48893880040009
 20
245.051057021828
 30
0.0
  0
VERTEX
  5
14179
  8
0
 10
526.73384702021781
 20
244.49081584292199
 30
0.0
  0
VERTEX
  5
1417A
  8
0
 10
525.99262081789925
 20
243.90439433532299
 30
0.0
  0
VERTEX
  5
1417B
  8
0
 10
525.62740376608895
 20
243.6015201578179
 30
0.0
  0
VERTEX
  5
1417C
  8
0
 10
525.26588734481288
 20
243.29228867017281
 30
0.0
  0
VERTEX
  5
1417D
  8
0
 10
524.55426149002983
 20
242.6550167499733
 30
0.0
  0
VERTEX
  5
1417E
  8
0
 10
523.85834536006973
 20
241.99311777039199
 30
0.0
  0
VERTEX
  5
1417F
  8
0
 10
523.17872776945546
 20
241.30715176404661
 30
0.0
  0
VERTEX
  5
14180
  8
0
 10
522.5159837425183
 20
240.59769912666201
 30
0.0
  0
VERTEX
  5
14181
  8
0
 10
521.87067402687103
 20
239.86536012599839
 30
0.0
  0
VERTEX
  5
14182
  8
0
 10
521.55472824860612
 20
239.49080113222149
 30
0.0
  0
VERTEX
  5
14183
  8
0
 10
521.24334461895774
 20
239.1107543939635
 30
0.0
  0
VERTEX
  5
14184
  8
0
 10
520.63452630208735
 20
238.33452040234371
 30
0.0
  0
VERTEX
  5
14185
  8
0
 10
520.04473419733745
 20
237.53731492259109
 30
0.0
  0
VERTEX
  5
14186
  8
0
 10
519.47446732771118
 20
236.71981247013119
 30
0.0
  0
VERTEX
  5
14187
  8
0
 10
518.92420819591302
 20
235.88270473365489
 30
0.0
  0
VERTEX
  5
14188
  8
0
 10
518.39442237610433
 20
235.02669998988009
 30
0.0
  0
VERTEX
  5
14189
  8
0
 10
518.13734772398152
 20
234.59183696532151
 30
0.0
  0
VERTEX
  5
1418A
  8
0
 10
517.88555811997981
 20
234.15252250428011
 30
0.0
  0
VERTEX
  5
1418B
  8
0
 10
517.39804597750276
 20
233.26091191828129
 30
0.0
  0
VERTEX
  5
1418C
  8
0
 10
516.93229843261702
 20
232.35262262345461
 30
0.0
  0
VERTEX
  5
1418D
  8
0
 10
516.70771025937051
 20
231.89246308400649
 30
0.0
  0
VERTEX
  5
1418E
  8
0
 10
516.48870955424377
 20
231.42842312322219
 30
0.0
  0
VERTEX
  5
1418F
  8
0
 10
516.06765466285992
 20
230.48909538263001
 30
0.0
  0
VERTEX
  5
14190
  8
0
 10
515.66949001294017
 20
229.53543416672451
 30
0.0
  0
VERTEX
  5
14191
  8
0
 10
515.47909757017817
 20
229.05348020433391
 30
0.0
  0
VERTEX
  5
14192
  8
0
 10
515.29455249152875
 20
228.5682463681039
 30
0.0
  0
VERTEX
  5
14193
  8
0
 10
514.94315933320172
 20
227.58835032420521
 30
0.0
  0
VERTEX
  5
14194
  8
0
 10
514.6156078516517
 20
226.5965751249106
 30
0.0
  0
VERTEX
  5
14195
  8
0
 10
514.31217518813366
 20
225.59375991105321
 30
0.0
  0
VERTEX
  5
14196
  8
0
 10
514.03311807697514
 20
224.58075316441989
 30
0.0
  0
VERTEX
  5
14197
  8
0
 10
513.77867262835036
 20
223.558411989853
 30
0.0
  0
VERTEX
  5
14198
  8
0
 10
513.66074737297924
 20
223.0440110168974
 30
0.0
  0
VERTEX
  5
14199
  8
0
 10
513.54905412851326
 20
222.52760139005221
 30
0.0
  0
VERTEX
  5
1419A
  8
0
 10
513.34445685763797
 20
221.48919353369649
 30
0.0
  0
VERTEX
  5
1419B
  8
0
 10
513.16505392544173
 20
220.44406701750239
 30
0.0
  0
VERTEX
  5
1419C
  8
0
 10
513.01099712471591
 20
219.39310612284331
 30
0.0
  0
VERTEX
  5
1419D
  8
0
 10
512.88241680289468
 20
218.33720006755959
 30
0.0
  0
VERTEX
  5
1419E
  8
0
 10
512.7794217517669
 20
217.277242253591
 30
0.0
  0
VERTEX
  5
1419F
  8
0
 10
512.7375467829977
 20
216.74602408333419
 30
0.0
  0
VERTEX
  5
141A0
  8
0
 10
512.70209911542827
 20
216.21412951106981
 30
0.0
  0
VERTEX
  5
141A1
  8
0
 10
512.65051431654933
 20
215.14876133951239
 30
0.0
  0
VERTEX
  5
141A2
  8
0
 10
512.62471100101925
 20
214.0820391467538
 30
0.0
  0
VERTEX
  5
141A3
  8
0
 10
512.62148507479583
 20
213.54845231650981
 30
0.0
  0
SEQEND
  5
141A4
  8
0
  0
POLYLINE
  5
331C
  8
0
 66
     1
 10
0.0
 20
0.0
 30
0.0
  0
VERTEX
  5
141A5
  8
0
 10
512.62148507479583
 20
213.54845231650981
 30
0.0
  0
VERTEX
  5
141A6
  8
0
 10
512.62968959656439
 20
212.69753610480069
 30
0.0
  0
VERTEX
  5
141A7
  8
0
 10
512.69529928882196
 20
210.99753461163471
 30
0.0
  0
VERTEX
  5
141A8
  8
0
 10
512.82637749989567
 20
209.30302196958331
 30
0.0
  0
VERTEX
  5
141A9
  8
0
 10
512.91638464970833
 20
208.4589640533454
 30
0.0
  0
VERTEX
  5
141AA
  8
0
 10
513.02264218666573
 20
207.61764428905821
 30
0.0
  0
VERTEX
  5
141AB
  8
0
 10
513.28367104321455
 20
205.94502802462591
 30
0.0
  0
VERTEX
  5
141AC
  8
0
 10
513.6089024095055
 20
204.2887721719068
 30
0.0
  0
VERTEX
  5
141AD
  8
0
 10
513.99763647991881
 20
202.652440523557
 30
0.0
  0
VERTEX
  5
141AE
  8
0
 10
514.44903680903155
 20
201.03955400099781
 30
0.0
  0
VERTEX
  5
141AF
  8
0
 10
514.9621321114148
 20
199.4535830783922
 30
0.0
  0
VERTEX
  5
141B0
  8
0
 10
515.24147548901078
 20
198.67175985589091
 30
0.0
  0
VERTEX
  5
141B1
  8
0
 10
515.53581835156115
 20
197.89794031516919
 30
0.0
  0
VERTEX
  5
141B2
  8
0
 10
516.16886111945655
 20
196.3759730131639
 30
0.0
  0
VERTEX
  5
141B3
  8
0
 10
516.85989828668176
 20
194.8909560141737
 30
0.0
  0
VERTEX
  5
141B4
  8
0
 10
517.607442937325
 20
193.4460846534277
 30
0.0
  0
VERTEX
  5
141B5
  8
0
 10
518.40988656740285
 20
192.0444678841333
 30
0.0
  0
VERTEX
  5
141B6
  8
0
 10
519.26550254590552
 20
190.68912158788859
 30
0.0
  0
VERTEX
  5
141B7
  8
0
 10
519.71267920247351
 20
190.02971527957709
 30
0.0
  0
VERTEX
  5
141B8
  8
0
 10
520.17244983001569
 20
189.3829620853632
 30
0.0
  0
VERTEX
  5
141B9
  8
0
 10
521.12877692651159
 20
188.12879986120259
 30
0.0
  0
VERTEX
  5
141BA
  8
0
 10
522.13242609082613
 20
186.9293335166625
 30
0.0
  0
VERTEX
  5
141BB
  8
0
 10
522.65132543522373
 20
186.3509225849142
 30
0.0
  0
SEQEND
  5
141BC
  8
0
  0
POLYLINE
  5
331D
  8
0
 66
     1
 10
0.0
 20
0.0
 30
0.0
  0
VERTEX
  5
141BD
  8
0
 10
522.65132543522373
 20
186.3509225849142
 30
0.0
  0
VERTEX
  5
141BE
  8
0
 10
522.71985690271345
 20
186.27724021749299
 30
0.0
  0
VERTEX
  5
141BF
  8
0
 10
522.85956836152104
 20
186.13267580170091
 30
0.0
  0
VERTEX
  5
141C0
  8
0
 10
523.00276945591554
 20
185.99184557648979
 30
0.0
  0
VERTEX
  5
141C1
  8
0
 10
523.07566226145696
 20
185.92283035411009
 30
0.0
  0
VERTEX
  5
141C2
  8
0
 10
523.14940747798084
 20
185.8547478103041
 30
0.0
  0
VERTEX
  5
141C3
  8
0
 10
523.29942677160045
 20
185.7213778518427
 30
0.0
  0
VERTEX
  5
141C4
  8
0
 10
523.45276884055261
 20
185.5917277984874
 30
0.0
  0
VERTEX
  5
141C5
  8
0
 10
523.609374022775
 20
185.465785028494
 30
0.0
  0
VERTEX
  5
141C6
  8
0
 10
523.76918102539526
 20
185.34353276511271
 30
0.0
  0
VERTEX
  5
141C7
  8
0
 10
523.93212352035994
 20
185.22495262183631
 30
0.0
  0
VERTEX
  5
141C8
  8
0
 10
524.01474869552396
 20
185.167033142409
 30
0.0
  0
VERTEX
  5
141C9
  8
0
 10
524.09813097436404
 20
185.1100235910059
 30
0.0
  0
VERTEX
  5
141CA
  8
0
 10
524.2671288231511
 20
184.99872170889279
 30
0.0
  0
VERTEX
  5
141CB
  8
0
 10
524.43903867462654
 20
184.8910197948818
 30
0.0
  0
VERTEX
  5
141CC
  8
0
 10
524.61377853602494
 20
184.7868872598057
 30
0.0
  0
VERTEX
  5
141CD
  8
0
 10
524.79126306097407
 20
184.68628997805439
 30
0.0
  0
VERTEX
  5
141CE
  8
0
 10
524.97140381308895
 20
184.58919021773471
 30
0.0
  0
VERTEX
  5
141CF
  8
0
 10
525.06244186107619
 20
184.54193912547919
 30
0.0
  0
VERTEX
  5
141D0
  8
0
 10
525.15410954346794
 20
184.49554662300591
 30
0.0
  0
VERTEX
  5
141D1
  8
0
 10
525.33928648014728
 20
184.40531424274781
 30
0.0
  0
VERTEX
  5
141D2
  8
0
 10
525.52683955003272
 20
184.31844418362991
 30
0.0
  0
VERTEX
  5
141D3
  8
0
 10
525.6214850747981
 20
184.27625022784761
 30
0.0
  0
SEQEND
  5
141D4
  8
0
  0
LINE
  5
3323
  8
0
 10
525.62148507479583
 20
243.5963479294673
 30
0.0
 11
525.62148507479583
 21
182.74368873142029
 31
0.0
  0
LINE
  5
3324
  8
0
 10
560.62148507479583
 20
182.74368873142029
 30
0.0
 11
560.62148507479583
 21
243.5963479294673
 31
0.0
  0
LINE
  5
3328
  8
0
 10
518.62148507479571
 20
186.92868873142029
 30
0.0
 11
518.02148507479592
 21
186.92868873142029
 31
0.0
  0
LINE
  5
332A
  8
0
 10
577.854485074796
 20
188.74368873142029
 30
0.0
 11
575.62148507479583
 21
188.74368873142029
 31
0.0
  0
LINE
  5
332B
  8
0
 10
575.62148507479583
 20
196.74368873142029
 30
0.0
 11
577.854485074796
 21
196.74368873142029
 31
0.0
  0
LINE
  5
332C
  8
0
 10
578.62148507479583
 20
189.5106887314204
 30
0.0
 11
577.854485074796
 21
188.74368873142029
 31
0.0
  0
LINE
  5
332D
  8
0
 10
577.854485074796
 20
196.74368873142029
 30
0.0
 11
578.62148507479583
 21
195.9766887314203
 31
0.0
  0
LINE
  5
332F
  8
0
 10
513.5809047842115
 20
185.51718786206351
 30
0.0
 11
513.32148507479599
 21
186.48535539808711
 31
0.0
  0
LINE
  5
3331
  8
0
 10
518.02148507479592
 20
186.48535539808711
 30
0.0
 11
517.76206536538041
 21
185.51718786206351
 31
0.0
  0
LINE
  5
3334
  8
0
 10
575.62148507479583
 20
186.92868873142029
 30
0.0
 11
573.12148507479583
 21
186.92868873142029
 31
0.0
  0
LINE
  5
3336
  8
0
 10
573.67823704021043
 20
198.5586887314204
 30
0.0
 11
575.62148507479583
 21
198.5586887314204
 31
0.0
  0
LINE
  5
3338
  8
0
 10
567.88090478421122
 20
185.51718786206351
 30
0.0
 11
567.62148507479583
 21
186.48535539808711
 31
0.0
  0
LINE
  5
333A
  8
0
 10
573.12148507479583
 20
186.48535539808711
 30
0.0
 11
572.86206536538043
 21
185.51718786206351
 31
0.0
  0
LINE
  5
333E
  8
0
 10
560.62148507479492
 20
186.74368873142029
 30
0.0
 11
558.12148507479583
 21
186.74368873142029
 31
0.0
  0
LINE
  5
3340
  8
0
 10
528.12148507479583
 20
186.74368873142029
 30
0.0
 11
525.62148507479674
 21
186.74368873142029
 31
0.0
  0
LINE
  5
3343
  8
0
 10
525.62148507479674
 20
198.74368873142041
 30
0.0
 11
528.12148507479583
 21
198.74368873142041
 31
0.0
  0
LINE
  5
3345
  8
0
 10
558.12148507479583
 20
198.74368873142041
 30
0.0
 11
560.62148507479492
 21
198.74368873142041
 31
0.0
  0
LINE
  5
3348
  8
0
 10
518.62148507479571
 20
186.95461336777851
 30
0.0
 11
518.62148507479571
 21
186.92868873142029
 31
0.0
  0
LINE
  5
3349
  8
0
 10
577.854485074796
 20
196.74368873142029
 30
0.0
 11
577.854485074796
 21
188.74368873142029
 31
0.0
  0
LINE
  5
334A
  8
0
 10
578.62148507479583
 20
195.9766887314203
 30
0.0
 11
578.62148507479583
 21
189.5106887314204
 31
0.0
  0
LINE
  5
334C
  8
0
 10
513.32148507479599
 20
196.49952582972389
 30
0.0
 11
513.32148507479599
 21
186.48535539808711
 31
0.0
  0
LINE
  5
334E
  8
0
 10
518.02148507479592
 20
187.77260503751921
 30
0.0
 11
518.02148507479592
 21
186.48535539808711
 31
0.0
  0
POLYLINE
  5
334F
  8
0
 66
     1
 10
0.0
 20
0.0
 30
0.0
  0
VERTEX
  5
141D5
  8
0
 10
513.5809047842115
 20
189.130438296742
 30
0.0
  0
VERTEX
  5
141D6
  8
0
 10
513.50006013095322
 20
188.8058644010697
 30
0.0
  0
VERTEX
  5
141D7
  8
0
 10
513.38544979219989
 20
188.19630382229789
 30
0.0
  0
VERTEX
  5
141D8
  8
0
 10
513.32867520841558
 20
187.61389565072221
 30
0.0
  0
VERTEX
  5
141D9
  8
0
 10
513.32148507479599
 20
187.32381307940261
 30
0.0
  0
SEQEND
  5
141DA
  8
0
  0
POLYLINE
  5
3350
  8
0
 66
     1
 10
0.0
 20
0.0
 30
0.0
  0
VERTEX
  5
141DB
  8
0
 10
513.32148507479599
 20
187.32381307940261
 30
0.0
  0
VERTEX
  5
141DC
  8
0
 10
513.32867520841558
 20
187.03373050808329
 30
0.0
  0
VERTEX
  5
141DD
  8
0
 10
513.38544979219989
 20
186.45132233650759
 30
0.0
  0
VERTEX
  5
141DE
  8
0
 10
513.50006013095322
 20
185.84176175773581
 30
0.0
  0
VERTEX
  5
141DF
  8
0
 10
513.5809047842115
 20
185.51718786206351
 30
0.0
  0
SEQEND
  5
141E0
  8
0
  0
POLYLINE
  5
3351
  8
0
 66
     1
 10
0.0
 20
0.0
 30
0.0
  0
VERTEX
  5
141E1
  8
0
 10
517.76206536538041
 20
185.51718786206351
 30
0.0
  0
VERTEX
  5
141E2
  8
0
 10
517.84291001863835
 20
185.84176175773581
 30
0.0
  0
VERTEX
  5
141E3
  8
0
 10
517.95752035739145
 20
186.45132233650759
 30
0.0
  0
VERTEX
  5
141E4
  8
0
 10
518.01429494117588
 20
187.03373050808329
 30
0.0
  0
VERTEX
  5
141E5
  8
0
 10
518.02148507479592
 20
187.32381307940261
 30
0.0
  0
SEQEND
  5
141E6
  8
0
  0
POLYLINE
  5
3352
  8
0
 66
     1
 10
0.0
 20
0.0
 30
0.0
  0
VERTEX
  5
141E7
  8
0
 10
518.02148507479592
 20
187.32381307940261
 30
0.0
  0
VERTEX
  5
141E8
  8
0
 10
518.02092947969163
 20
187.40437008157161
 30
0.0
  0
VERTEX
  5
141E9
  8
0
 10
518.0165176899061
 20
187.5648443598526
 30
0.0
  0
VERTEX
  5
141EA
  8
0
 10
518.00775964575234
 20
187.72499184665151
 30
0.0
  0
VERTEX
  5
141EB
  8
0
 10
518.00176307364848
 20
187.80513627663089
 30
0.0
  0
SEQEND
  5
141EC
  8
0
  0
LINE
  5
3354
  8
0
 10
513.5809047842115
 20
185.51718786206351
 30
0.0
 11
517.76206536538041
 21
185.51718786206351
 31
0.0
  0
POLYLINE
  5
3369
  8
0
 66
     1
 10
0.0
 20
0.0
 30
0.0
  0
VERTEX
  5
141ED
  8
0
 10
513.53067935610875
 20
195.9657358473911
 30
0.0
  0
VERTEX
  5
141EE
  8
0
 10
513.46591308472955
 20
195.39645645457171
 30
0.0
  0
VERTEX
  5
141EF
  8
0
 10
513.37339842659105
 20
194.3129421650296
 30
0.0
  0
VERTEX
  5
141F0
  8
0
 10
513.32732256540987
 20
193.2663361871206
 30
0.0
  0
VERTEX
  5
141F1
  8
0
 10
513.32148507479599
 20
192.74368873142041
 30
0.0
  0
SEQEND
  5
141F2
  8
0
  0
POLYLINE
  5
336A
  8
0
 66
     1
 10
0.0
 20
0.0
 30
0.0
  0
VERTEX
  5
141F3
  8
0
 10
513.32148507479599
 20
192.74368873142041
 30
0.0
  0
VERTEX
  5
141F4
  8
0
 10
513.32867520841558
 20
192.16352358878149
 30
0.0
  0
VERTEX
  5
141F5
  8
0
 10
513.38544979219989
 20
190.9987072456301
 30
0.0
  0
VERTEX
  5
141F6
  8
0
 10
513.50006013095322
 20
189.7795860880864
 30
0.0
  0
VERTEX
  5
141F7
  8
0
 10
513.5809047842115
 20
189.130438296742
 30
0.0
  0
SEQEND
  5
141F8
  8
0
  0
LINE
  5
336B
  8
0
 10
513.5809047842115
 20
189.130438296742
 30
0.0
 11
517.10358866305683
 21
189.130438296742
 31
0.0
  0
LINE
  5
336E
  8
0
 10
575.62148507479583
 20
198.5586887314204
 30
0.0
 11
575.62148507479583
 21
186.92868873142029
 31
0.0
  0
LINE
  5
3370
  8
0
 10
567.62148507479583
 20
186.94890331162659
 30
0.0
 11
567.62148507479583
 21
186.48535539808711
 31
0.0
  0
LINE
  5
3372
  8
0
 10
573.12148507479583
 20
197.0134574941527
 30
0.0
 11
573.12148507479583
 21
186.48535539808711
 31
0.0
  0
POLYLINE
  5
3375
  8
0
 66
     1
 10
0.0
 20
0.0
 30
0.0
  0
VERTEX
  5
141F9
  8
0
 10
567.63217943632594
 20
186.969850893759
 30
0.0
  0
VERTEX
  5
141FA
  8
0
 10
567.6505147342416
 20
186.7390491718624
 30
0.0
  0
VERTEX
  5
141FB
  8
0
 10
567.71410804273705
 20
186.26951571160291
 30
0.0
  0
VERTEX
  5
141FC
  8
0
 10
567.81517008564083
 20
185.7770360165859
 30
0.0
  0
VERTEX
  5
141FD
  8
0
 10
567.88090478421122
 20
185.51718786206351
 30
0.0
  0
SEQEND
  5
141FE
  8
0
  0
POLYLINE
  5
3376
  8
0
 66
     1
 10
0.0
 20
0.0
 30
0.0
  0
VERTEX
  5
141FF
  8
0
 10
572.86206536538043
 20
185.51718786206351
 30
0.0
  0
VERTEX
  5
14200
  8
0
 10
572.9429100186386
 20
185.84176175773581
 30
0.0
  0
VERTEX
  5
14201
  8
0
 10
573.05752035739147
 20
186.45132233650759
 30
0.0
  0
VERTEX
  5
14202
  8
0
 10
573.11429494117579
 20
187.03373050808329
 30
0.0
  0
VERTEX
  5
14203
  8
0
 10
573.12148507479583
 20
187.32381307940261
 30
0.0
  0
SEQEND
  5
14204
  8
0
  0
POLYLINE
  5
3377
  8
0
 66
     1
 10
0.0
 20
0.0
 30
0.0
  0
VERTEX
  5
14205
  8
0
 10
573.12148507479583
 20
187.32381307940261
 30
0.0
  0
VERTEX
  5
14206
  8
0
 10
573.11429494117579
 20
187.61389565072221
 30
0.0
  0
VERTEX
  5
14207
  8
0
 10
573.05752035739147
 20
188.19630382229789
 30
0.0
  0
VERTEX
  5
14208
  8
0
 10
572.9429100186386
 20
188.8058644010697
 30
0.0
  0
VERTEX
  5
14209
  8
0
 10
572.86206536538043
 20
189.130438296742
 30
0.0
  0
SEQEND
  5
1420A
  8
0
  0
LINE
  5
3378
  8
0
 10
567.88090478421122
 20
185.51718786206351
 30
0.0
 11
572.86206536538043
 21
185.51718786206351
 31
0.0
  0
POLYLINE
  5
338A
  8
0
 66
     1
 10
0.0
 20
0.0
 30
0.0
  0
VERTEX
  5
1420B
  8
0
 10
573.12148507479583
 20
192.74368873142041
 30
0.0
  0
VERTEX
  5
1420C
  8
0
 10
573.11432241114403
 20
193.3227421841674
 30
0.0
  0
VERTEX
  5
1420D
  8
0
 10
573.05776535933114
 20
194.48526271356261
 30
0.0
  0
VERTEX
  5
1420E
  8
0
 10
572.94360707184535
 20
195.70170875379239
 30
0.0
  0
VERTEX
  5
1420F
  8
0
 10
572.86309395483772
 20
196.34925553935949
 30
0.0
  0
SEQEND
  5
14210
  8
0
  0
LINE
  5
3390
  8
0
 10
569.13938148653483
 20
189.130438296742
 30
0.0
 11
572.86206536538043
 21
189.130438296742
 31
0.0
  0
POLYLINE
  5
3391
  8
0
 66
     1
 10
0.0
 20
0.0
 30
0.0
  0
VERTEX
  5
14211
  8
0
 10
572.86206536538043
 20
189.130438296742
 30
0.0
  0
VERTEX
  5
14212
  8
0
 10
572.9429100186386
 20
189.7795860880864
 30
0.0
  0
VERTEX
  5
14213
  8
0
 10
573.05752035739147
 20
190.9987072456301
 30
0.0
  0
VERTEX
  5
14214
  8
0
 10
573.11429494117579
 20
192.1635235887812
 30
0.0
  0
VERTEX
  5
14215
  8
0
 10
573.12148507479583
 20
192.74368873142041
 30
0.0
  0
SEQEND
  5
14216
  8
0
  0
ARC
  5
33B9
  8
0
 10
530.12148507479583
 20
239.65272591171529
 30
0.0
 40
2.0000000000000009
 50
99.594068226851689
 51
180.0
  0
ARC
  5
33BA
  8
0
 10
530.12148507479583
 20
145.8346515511254
 30
0.0
 40
2.000000000000008
 50
180.0
 51
260.40593177314832
  0
ARC
  5
33BB
  8
0
 10
543.12148507479583
 20
162.74368873142129
 30
0.0
 40
79.999999999998934
 50
80.405931773148325
 51
99.594068226851689
  0
ARC
  5
33BC
  8
0
 10
543.12148507479583
 20
222.74368873141989
 30
0.0
 40
79.999999999999432
 50
260.40593177314832
 51
279.59406822685168
  0
ARC
  5
33BD
  8
0
 10
556.12148507479571
 20
239.65272591171529
 30
0.0
 40
1.999999999999966
 50
0.0
 51
80.405931773148325
  0
ARC
  5
33BE
  8
0
 10
556.12148507479571
 20
145.83465155112521
 30
0.0
 40
1.9999999999999749
 50
279.59406822685168
 51
0.0
  0
LINE
  5
33C9
  8
0
 10
528.12148507479583
 20
239.65272591171529
 30
0.0
 11
528.12148507479583
 21
145.8346515511254
 31
0.0
  0
LINE
  5
33CB
  8
0
 10
558.12148507479583
 20
239.65272591171529
 30
0.0
 11
558.12148507479583
 21
145.8346515511254
 31
0.0
  0
LINE
  5
33F0
  8
0
 10
388.7023159840478
 20
267.44368873142071
 30
0.0
 11
388.7023159840478
 21
268.2436887314206
 31
0.0
  0
LINE
  5
33F1
  8
0
 10
319.10231598404772
 20
268.2436887314206
 30
0.0
 11
319.10231598404772
 21
267.44368873142071
 31
0.0
  0
LINE
  5
33F2
  8
0
 10
388.40353664802569
 20
258.94368873142071
 30
0.0
 11
389.90231598404762
 21
267.44368873142071
 31
0.0
  0
LINE
  5
33F3
  8
0
 10
317.90231598404762
 20
267.44368873142071
 30
0.0
 11
319.40109532006971
 21
258.94368873142071
 31
0.0
  0
LINE
  5
33F4
  8
0
 10
386.90231598404762
 20
253.2436887314206
 30
0.0
 11
386.90231598404762
 21
258.94368873142071
 31
0.0
  0
LINE
  5
33F5
  8
0
 10
320.90231598404762
 20
258.94368873142071
 30
0.0
 11
320.90231598404762
 21
256.94368873142071
 31
0.0
  0
LINE
  5
33F8
  8
0
 10
403.90231598404762
 20
270.7436887314206
 30
0.0
 11
403.90231598404762
 21
268.2436887314206
 31
0.0
  0
LINE
  5
33FA
  8
0
 10
303.90231598404762
 20
270.7436887314206
 30
0.0
 11
303.90231598404762
 21
268.2436887314206
 31
0.0
  0
LINE
  5
33FB
  8
0
 10
303.90231598404762
 20
270.7436887314206
 30
0.0
 11
403.90231598404762
 21
270.7436887314206
 31
0.0
  0
LINE
  5
33FD
  8
0
 10
303.90231598404762
 20
268.2436887314206
 30
0.0
 11
403.90231598404762
 21
268.2436887314206
 31
0.0
  0
LINE
  5
3411
  8
0
 10
317.90231598404762
 20
267.44368873142071
 30
0.0
 11
389.90231598404762
 21
267.44368873142071
 31
0.0
  0
LINE
  5
3412
  8
0
 10
319.40109532006971
 20
258.94368873142071
 30
0.0
 11
388.40353664802569
 21
258.94368873142071
 31
0.0
  0
LINE
  5
3413
  8
0
 10
328.04211490207609
 20
256.94368873142071
 30
0.0
 11
308.90231598404762
 21
256.94368873142071
 31
0.0
  0
LINE
  5
3414
  8
0
 10
328.04211490207609
 20
256.94368873142071
 30
0.0
 11
328.04211490207609
 21
183.78332124077201
 31
0.0
  0
LINE
  5
3415
  8
0
 10
308.90231598404762
 20
256.94368873142071
 30
0.0
 11
308.90231598404762
 21
253.2436887314208
 31
0.0
  0
POLYLINE
  5
3416
  8
0
 66
     1
 10
0.0
 20
0.0
 30
0.0
  0
VERTEX
  5
14217
  8
0
 10
331.29208457588999
 20
186.35092258491451
 30
0.0
  0
VERTEX
  5
14218
  8
0
 10
331.55219042954332
 20
186.66380026229839
 30
0.0
  0
VERTEX
  5
14219
  8
0
 10
332.08014428159748
 20
187.2988685342213
 30
0.0
  0
VERTEX
  5
1421A
  8
0
 10
332.61821649775209
 20
187.94610804417741
 30
0.0
  0
VERTEX
  5
1421B
  8
0
 10
332.89096920690292
 20
188.27419844637589
 30
0.0
  0
VERTEX
  5
1421C
  8
0
 10
333.16615758814532
 20
188.60521868431709
 30
0.0
  0
VERTEX
  5
1421D
  8
0
 10
333.72371348697988
 20
189.2758948424613
 30
0.0
  0
VERTEX
  5
1421E
  8
0
 10
334.29062567032548
 20
189.95782554380679
 30
0.0
  0
VERTEX
  5
1421F
  8
0
 10
334.8666312759907
 20
190.6506945951156
 30
0.0
  0
VERTEX
  5
14220
  8
0
 10
335.45146322540381
 20
191.35418073132601
 30
0.0
  0
VERTEX
  5
14221
  8
0
 10
336.0448503474513
 20
192.0679577645152
 30
0.0
  0
VERTEX
  5
14222
  8
0
 10
336.34466626909
 20
192.42860212483049
 30
0.0
  0
VERTEX
  5
14223
  8
0
 10
336.64651750421228
 20
192.7916947351429
 30
0.0
  0
VERTEX
  5
14224
  8
0
 10
337.25618571853249
 20
193.5250560655094
 30
0.0
  0
VERTEX
  5
14225
  8
0
 10
337.87357230337898
 20
194.26770171535429
 30
0.0
  0
VERTEX
  5
14226
  8
0
 10
338.49839099291432
 20
195.0192873395228
 30
0.0
  0
VERTEX
  5
14227
  8
0
 10
339.1303520752308
 20
195.77946444763089
 30
0.0
  0
VERTEX
  5
14228
  8
0
 10
339.76916252668161
 20
196.5478805656509
 30
0.0
  0
VERTEX
  5
14229
  8
0
 10
340.09104382379502
 20
196.93506705614951
 30
0.0
  0
VERTEX
  5
1422A
  8
0
 10
340.41452614774892
 20
197.32417939934331
 30
0.0
  0
VERTEX
  5
1422B
  8
0
 10
341.06614370038341
 20
198.10800099946221
 30
0.0
  0
VERTEX
  5
1422C
  8
0
 10
341.72371304675261
 20
198.89898192865411
 30
0.0
  0
VERTEX
  5
1422D
  8
0
 10
342.05463446605552
 20
199.2970426551384
 30
0.0
  0
VERTEX
  5
1422E
  8
0
 10
342.38692928933523
 20
199.6967554299728
 30
0.0
  0
VERTEX
  5
1422F
  8
0
 10
343.05548491229291
 20
200.5009515969372
 30
0.0
  0
VERTEX
  5
14230
  8
0
 10
343.72906992405831
 20
201.3111975450453
 30
0.0
  0
VERTEX
  5
14231
  8
0
 10
344.06765093677137
 20
201.71847188884081
 30
0.0
  0
VERTEX
  5
14232
  8
0
 10
344.40737200106901
 20
202.12711758467179
 30
0.0
  0
VERTEX
  5
14233
  8
0
 10
345.09007663258461
 20
202.94833339526431
 30
0.0
  0
VERTEX
  5
14234
  8
0
 10
345.77686726651592
 20
203.77446420076299
 30
0.0
  0
VERTEX
  5
14235
  8
0
 10
346.4674254562031
 20
204.6051269461536
 30
0.0
  0
VERTEX
  5
14236
  8
0
 10
347.16143100807
 20
205.43993647508151
 30
0.0
  0
VERTEX
  5
14237
  8
0
 10
347.85856213008992
 20
206.2785057084381
 30
0.0
  0
VERTEX
  5
14238
  8
0
 10
348.20819881952718
 20
206.69907877045441
 30
0.0
  0
VERTEX
  5
14239
  8
0
 10
348.55849558099169
 20
207.12044582383959
 30
0.0
  0
VERTEX
  5
1423A
  8
0
 10
349.2609068201383
 20
207.9653664359129
 30
0.0
  0
VERTEX
  5
1423B
  8
0
 10
349.96547015800832
 20
208.8128757773076
 30
0.0
  0
VERTEX
  5
1423C
  8
0
 10
350.6718589072085
 20
209.662580880348
 30
0.0
  0
VERTEX
  5
1423D
  8
0
 10
351.37974553395071
 20
210.51408775924159
 30
0.0
  0
VERTEX
  5
1423E
  8
0
 10
352.08880180992082
 20
211.36700159276
 30
0.0
  0
VERTEX
  5
1423F
  8
0
 10
352.4436658425563
 20
211.7938625524757
 30
0.0
  0
VERTEX
  5
14240
  8
0
 10
352.79869896446922
 20
212.2209269073075
 30
0.0
  0
VERTEX
  5
14241
  8
0
 10
353.50910783705302
 20
213.07546776029119
 30
0.0
  0
VERTEX
  5
14242
  8
0
 10
354.21969902985899
 20
213.9302279237092
 30
0.0
  0
VERTEX
  5
14243
  8
0
 10
354.9301430605376
 20
214.7848110678712
 30
0.0
  0
VERTEX
  5
14244
  8
0
 10
355.6401105149738
 20
215.63882094516629
 30
0.0
  0
VERTEX
  5
14245
  8
0
 10
356.34927220002839
 20
216.49186157379171
 30
0.0
  0
VERTEX
  5
14246
  8
0
 10
356.70344810417117
 20
216.91789479341031
 30
0.0
  0
VERTEX
  5
14247
  8
0
 10
357.0572992961765
 20
217.3435374213602
 30
0.0
  0
VERTEX
  5
14248
  8
0
 10
357.76386350997171
 20
218.1934535882971
 30
0.0
  0
VERTEX
  5
14249
  8
0
 10
358.4686372262679
 20
219.04121599094529
 30
0.0
  0
VERTEX
  5
1424A
  8
0
 10
359.17129366012512
 20
219.8864315442913
 30
0.0
  0
VERTEX
  5
1424B
  8
0
 10
359.87150700833109
 20
220.7287083442281
 30
0.0
  0
VERTEX
  5
1424C
  8
0
 10
360.56895260046809
 20
221.56765584927109
 30
0.0
  0
VERTEX
  5
1424D
  8
0
 10
360.91653637531272
 20
221.9857594891634
 30
0.0
  0
VERTEX
  5
1424E
  8
0
 10
361.2633070494536
 20
222.4028850616416
 30
0.0
  0
VERTEX
  5
1424F
  8
0
 10
361.9542484014865
 20
223.2340087076349
 30
0.0
  0
VERTEX
  5
14250
  8
0
 10
362.64145628532839
 20
224.06064141718929
 30
0.0
  0
VERTEX
  5
14251
  8
0
 10
363.32461206085139
 20
224.88239990257091
 30
0.0
  0
VERTEX
  5
14252
  8
0
 10
364.00339896678292
 20
225.69890313609531
 30
0.0
  0
VERTEX
  5
14253
  8
0
 10
364.67750226758039
 20
226.5097725267992
 30
0.0
  0
VERTEX
  5
14254
  8
0
 10
365.01269980104098
 20
226.91297693093259
 30
0.0
  0
VERTEX
  5
14255
  8
0
 10
365.3466093993643
 20
227.31463209598309
 30
0.0
  0
VERTEX
  5
14256
  8
0
 10
366.01041011484722
 20
228.11310865154309
 30
0.0
  0
VERTEX
  5
14257
  8
0
 10
366.66859662718662
 20
228.9048319610101
 30
0.0
  0
VERTEX
  5
14258
  8
0
 10
366.99548908171192
 20
229.29804630236251
 30
0.0
  0
VERTEX
  5
14259
  8
0
 10
367.32086375269682
 20
229.68943492321611
 30
0.0
  0
VERTEX
  5
1425A
  8
0
 10
367.96690905235619
 20
230.4665537385107
 30
0.0
  0
VERTEX
  5
1425B
  8
0
 10
368.60643297203887
 20
231.23582807744421
 30
0.0
  0
VERTEX
  5
1425C
  8
0
 10
368.92365662677321
 20
231.61741195535569
 30
0.0
  0
VERTEX
  5
1425D
  8
0
 10
369.23913898141058
 20
231.9969012478424
 30
0.0
  0
VERTEX
  5
1425E
  8
0
 10
369.8647337114221
 20
232.74942036019769
 30
0.0
  0
VERTEX
  5
1425F
  8
0
 10
370.48292709033558
 20
233.4930364912918
 30
0.0
  0
VERTEX
  5
14260
  8
0
 10
371.09343247822488
 20
234.2274048459839
 30
0.0
  0
VERTEX
  5
14261
  8
0
 10
371.69596679988172
 20
234.9521849170828
 30
0.0
  0
VERTEX
  5
14262
  8
0
 10
372.29025067607017
 20
235.66704064323059
 30
0.0
  0
VERTEX
  5
14263
  8
0
 10
372.58421243363551
 20
236.0206431118215
 30
0.0
  0
VERTEX
  5
14264
  8
0
 10
372.87600855306852
 20
236.37164056472571
 30
0.0
  0
VERTEX
  5
14265
  8
0
 10
373.45296883043471
 20
237.06565797721251
 30
0.0
  0
VERTEX
  5
14266
  8
0
 10
374.02086398694161
 20
237.7487710831646
 30
0.0
  0
VERTEX
  5
14267
  8
0
 10
374.57943070461852
 20
238.42066314109451
 30
0.0
  0
VERTEX
  5
14268
  8
0
 10
375.12840999084528
 20
239.0810226124176
 30
0.0
  0
VERTEX
  5
14269
  8
0
 10
375.6675472984407
 20
239.72954330590571
 30
0.0
  0
VERTEX
  5
1426A
  8
0
 10
375.93334690889611
 20
240.0492699233605
 30
0.0
  0
VERTEX
  5
1426B
  8
0
 10
376.1965926436888
 20
240.36592451965791
 30
0.0
  0
VERTEX
  5
1426C
  8
0
 10
376.71530072224868
 20
240.98987118052941
 30
0.0
  0
VERTEX
  5
1426D
  8
0
 10
377.2234310228983
 20
241.60109398094951
 30
0.0
  0
VERTEX
  5
1426E
  8
0
 10
377.7207479390504
 20
242.19930951306441
 30
0.0
  0
VERTEX
  5
1426F
  8
0
 10
378.2070208779985
 20
242.7842404001469
 30
0.0
  0
VERTEX
  5
14270
  8
0
 10
378.68202436783707
 20
243.3556154252089
 30
0.0
  0
VERTEX
  5
14271
  8
0
 10
378.91523103536571
 20
243.6361364494841
 30
0.0
  0
VERTEX
  5
14272
  8
0
 10
379.14553816200532
 20
243.91316965675671
 30
0.0
  0
VERTEX
  5
14273
  8
0
 10
379.5973473414108
 20
244.4566445716336
 30
0.0
  0
VERTEX
  5
14274
  8
0
 10
380.0372424140819
 20
244.98578817488891
 30
0.0
  0
VERTEX
  5
14275
  8
0
 10
380.46501941230281
 20
245.50035511662369
 30
0.0
  0
VERTEX
  5
14276
  8
0
 10
380.88047998718889
 20
246.00010680575039
 30
0.0
  0
VERTEX
  5
14277
  8
0
 10
381.2834315006553
 20
246.48481152062271
 30
0.0
  0
VERTEX
  5
14278
  8
0
 10
381.48015774353729
 20
246.7214507545691
 30
0.0
  0
VERTEX
  5
14279
  8
0
 10
381.67368711473767
 20
246.95424451647861
 30
0.0
  0
VERTEX
  5
1427A
  8
0
 10
382.05106587822547
 20
247.40818812964881
 30
0.0
  0
VERTEX
  5
1427B
  8
0
 10
382.41539281056299
 20
247.84643187848059
 30
0.0
  0
VERTEX
  5
1427C
  8
0
 10
382.76649898298268
 20
248.2687725609336
 30
0.0
  0
VERTEX
  5
1427D
  8
0
 10
383.104221596836
 20
248.67501434879929
 30
0.0
  0
VERTEX
  5
1427E
  8
0
 10
383.42840405907469
 20
249.06496887849991
 30
0.0
  0
VERTEX
  5
1427F
  8
0
 10
383.5853705127833
 20
249.2537816205963
 30
0.0
  0
VERTEX
  5
14280
  8
0
 10
383.73889605486102
 20
249.43845533842969
 30
0.0
  0
VERTEX
  5
14281
  8
0
 10
384.0355536172658
 20
249.7953005527913
 30
0.0
  0
VERTEX
  5
14282
  8
0
 10
384.3182391940199
 20
250.1353390618923
 30
0.0
  0
VERTEX
  5
14283
  8
0
 10
384.45430127245999
 20
250.29900622464351
 30
0.0
  0
VERTEX
  5
14284
  8
0
 10
384.58682171129482
 20
250.45841319886651
 30
0.0
  0
VERTEX
  5
14285
  8
0
 10
384.84117663447802
 20
250.76437316277699
 30
0.0
  0
VERTEX
  5
14286
  8
0
 10
385.081186025916
 20
251.05307708807771
 30
0.0
  0
VERTEX
  5
14287
  8
0
 10
385.19577610909027
 20
251.19091588936291
 30
0.0
  0
VERTEX
  5
14288
  8
0
 10
385.3067385995987
 20
251.32439111039091
 30
0.0
  0
VERTEX
  5
14289
  8
0
 10
385.51772977276141
 20
251.5781894285771
 30
0.0
  0
VERTEX
  5
1428A
  8
0
 10
385.71406171437462
 20
251.814354363066
 30
0.0
  0
VERTEX
  5
1428B
  8
0
 10
385.89564339050781
 20
252.03277641042129
 30
0.0
  0
VERTEX
  5
1428C
  8
0
 10
386.06239060653797
 20
252.2333542941137
 30
0.0
  0
VERTEX
  5
1428D
  8
0
 10
386.21422604618942
 20
252.4159950114813
 30
0.0
  0
VERTEX
  5
1428E
  8
0
 10
386.2845295782231
 20
252.5005621425382
 30
0.0
  0
VERTEX
  5
1428F
  8
0
 10
386.35107930738332
 20
252.580613876852
 30
0.0
  0
VERTEX
  5
14290
  8
0
 10
386.47288693488008
 20
252.7271345608105
 30
0.0
  0
VERTEX
  5
14291
  8
0
 10
386.57959244970289
 20
252.85548912558849
 30
0.0
  0
VERTEX
  5
14292
  8
0
 10
386.67114637532632
 20
252.96561805656799
 30
0.0
  0
VERTEX
  5
14293
  8
0
 10
386.74750626061473
 20
253.0574702898754
 30
0.0
  0
VERTEX
  5
14294
  8
0
 10
386.8086366995085
 20
253.13100323605809
 30
0.0
  0
VERTEX
  5
14295
  8
0
 10
386.83348174265802
 20
253.16088898943909
 30
0.0
  0
VERTEX
  5
14296
  8
0
 10
386.85450934743858
 20
253.18618279983309
 30
0.0
  0
VERTEX
  5
14297
  8
0
 10
386.88510293447189
 20
253.2229833958954
 30
0.0
  0
VERTEX
  5
14298
  8
0
 10
386.90040327516999
 20
253.24138796078179
 30
0.0
  0
VERTEX
  5
14299
  8
0
 10
386.90231598404762
 20
253.2436887314206
 30
0.0
  0
SEQEND
  5
1429A
  8
0
  0
ARC
  5
3417
  8
0
 10
323.60231598404772
 20
192.7436887314208
 30
0.0
 40
10.00000000000008
 50
270.0
 51
296.35809099380123
  0
POLYLINE
  5
3418
  8
0
 66
     1
 10
0.0
 20
0.0
 30
0.0
  0
VERTEX
  5
1429B
  8
0
 10
328.04211490207609
 20
183.78332124077201
 30
0.0
  0
VERTEX
  5
1429C
  8
0
 10
328.12920930661818
 20
183.82700566841649
 30
0.0
  0
VERTEX
  5
1429D
  8
0
 10
328.30412642199138
 20
183.91798883817461
 30
0.0
  0
VERTEX
  5
1429E
  8
0
 10
328.47995489093501
 20
184.0139327958851
 30
0.0
  0
VERTEX
  5
1429F
  8
0
 10
328.56818806407188
 20
184.06382038651839
 30
0.0
  0
VERTEX
  5
142A0
  8
0
 10
328.6566214155049
 20
184.1150157972121
 30
0.0
  0
VERTEX
  5
142A1
  8
0
 10
328.83405025714058
 20
184.2214263266514
 30
0.0
  0
VERTEX
  5
142A2
  8
0
 10
329.01216240825511
 20
184.33336402505589
 30
0.0
  0
VERTEX
  5
142A3
  8
0
 10
329.19087453718117
 20
184.451040583923
 30
0.0
  0
VERTEX
  5
142A4
  8
0
 10
329.3700976868767
 20
184.5746805769069
 30
0.0
  0
VERTEX
  5
142A5
  8
0
 10
329.54973571125549
 20
184.70452219573929
 30
0.0
  0
VERTEX
  5
142A6
  8
0
 10
329.63967784358817
 20
184.77184692560419
 30
0.0
  0
VERTEX
  5
142A7
  8
0
 10
329.73000268707767
 20
184.84106539043381
 30
0.0
  0
VERTEX
  5
142A8
  8
0
 10
329.9126502007727
 20
184.98613228153059
 30
0.0
  0
VERTEX
  5
142A9
  8
0
 10
330.09731144060811
 20
185.14006893429399
 30
0.0
  0
VERTEX
  5
142AA
  8
0
 10
330.28319438148071
 20
185.30286459435681
 30
0.0
  0
VERTEX
  5
142AB
  8
0
 10
330.46950336038037
 20
185.4744564790891
 30
0.0
  0
VERTEX
  5
142AC
  8
0
 10
330.65544731986932
 20
185.65472982621799
 30
0.0
  0
VERTEX
  5
142AD
  8
0
 10
330.74803652072552
 20
185.7480702447034
 30
0.0
  0
VERTEX
  5
142AE
  8
0
 10
330.84023957100322
 20
185.84351031710469
 30
0.0
  0
VERTEX
  5
142AF
  8
0
 10
331.02309756219893
 20
186.04055507846621
 30
0.0
  0
VERTEX
  5
142B0
  8
0
 10
331.20325314665013
 20
186.24555405674911
 30
0.0
  0
VERTEX
  5
142B1
  8
0
 10
331.29208457588999
 20
186.35092258491451
 30
0.0
  0
SEQEND
  5
142B2
  8
0
  0
LINE
  5
3419
  8
0
 10
314.20231598404769
 20
182.7436887314206
 30
0.0
 11
323.60231598404772
 21
182.7436887314206
 31
0.0
  0
ARC
  5
341C
  8
0
 10
314.20231598404769
 20
192.7436887314206
 30
0.0
 40
10.000000000000011
 50
175.52911376753241
 51
270.0
  0
LINE
  5
341D
  8
0
 10
308.90231598404762
 20
253.2436887314208
 30
0.0
 11
304.23274525867288
 21
193.52321394060269
 31
0.0
  0
LINE
  5
3424
  8
1
 10
353.90231598404762
 20
282.55988871186281
 30
0.0
 11
353.90231598404762
 21
225.58440984243131
 31
0.0
  0
ARC
  5
3438
  8
0
 10
318.90231598404762
 20
192.7436887314206
 30
0.0
 40
50.000000000000142
 50
102.60955085761
 51
34.46188735986172
  0
ARC
  5
343A
  8
0
 10
318.90231598404762
 20
192.7436887314206
 30
0.0
 40
40.33266234803483
 50
106.8821978083437
 51
30.53457276532043
  0
ARC
  5
3443
  8
0
 10
318.90231598404762
 20
192.7436887314206
 30
0.0
 40
17.206507021163009
 50
144.12317333801099
 51
357.9621114900545
  0
ARC
  5
344A
  8
0
 10
318.90231598404768
 20
192.7436887314206
 30
0.0
 40
46.909037180295002
 50
103.7733078221283
 51
33.390653152523768
  0
LINE
  5
344E
  8
1
 10
257.08611600360513
 20
192.7436887314206
 30
0.0
 11
380.71851596449
 21
192.7436887314206
 31
0.0
  0
LINE
  5
344F
  8
1
 10
318.9023159840475
 20
130.92748875097811
 30
0.0
 11
318.9023159840475
 21
244.84248576782051
 31
0.0
  0
LINE
  5
EC5E
  8
0
 10
166.8829019331435
 20
267.44368873142042
 30
0.0
 11
166.8829019331435
 21
268.24368873142038
 31
0.0
  0
LINE
  5
EC5F
  8
0
 10
97.282901933143634
 20
268.24368873142038
 30
0.0
 11
97.282901933143634
 21
267.44368873142042
 31
0.0
  0
LINE
  5
EC60
  8
0
 10
166.5841225971219
 20
258.94368873142042
 30
0.0
 11
168.0829019331438
 21
267.44368873142042
 31
0.0
  0
LINE
  5
EC61
  8
0
 10
96.08290193314383
 20
267.44368873142042
 30
0.0
 11
97.581681269165756
 21
258.94368873142042
 31
0.0
  0
LINE
  5
EC62
  8
0
 10
165.0829019331438
 20
213.54845231650981
 30
0.0
 11
165.0829019331438
 21
258.94368873142042
 31
0.0
  0
LINE
  5
EC63
  8
0
 10
99.082901933143845
 20
258.94368873142042
 30
0.0
 11
99.082901933143845
 21
213.54845231650981
 31
0.0
  0
LINE
  5
EC6A
  8
0
 10
174.5829019331438
 20
270.74368873142038
 30
0.0
 11
174.5829019331438
 21
268.24368873142038
 31
0.0
  0
LINE
  5
EC6C
  8
0
 10
89.58290193314383
 20
270.74368873142038
 30
0.0
 11
174.5829019331438
 21
270.74368873142038
 31
0.0
  0
LINE
  5
EC6E
  8
0
 10
89.58290193314383
 20
268.24368873142038
 30
0.0
 11
174.5829019331438
 21
268.24368873142038
 31
0.0
  0
LINE
  5
EC6F
  8
0
 10
89.58290193314383
 20
270.74368873142038
 30
0.0
 11
89.58290193314383
 21
268.24368873142038
 31
0.0
  0
LINE
  5
EC82
  8
0
 10
96.08290193314383
 20
267.44368873142042
 30
0.0
 11
168.0829019331438
 21
267.44368873142042
 31
0.0
  0
LINE
  5
EC83
  8
0
 10
97.581681269165756
 20
258.94368873142042
 30
0.0
 11
166.5841225971219
 21
258.94368873142042
 31
0.0
  0
LINE
  5
EC84
  8
0
 10
152.5829019331438
 20
256.94368873142042
 30
0.0
 11
111.5829019331438
 21
256.94368873142042
 31
0.0
  0
LINE
  5
EC85
  8
0
 10
152.5829019331438
 20
182.74368873142029
 30
0.0
 11
152.5829019331438
 21
256.94368873142042
 31
0.0
  0
LINE
  5
EC86
  8
0
 10
111.5829019331438
 20
256.94368873142042
 30
0.0
 11
111.5829019331438
 21
183.7833212407717
 31
0.0
  0
POLYLINE
  5
EC87
  8
0
 66
     1
 10
0.0
 20
0.0
 30
0.0
  0
VERTEX
  5
142B3
  8
0
 10
108.0459005463324
 20
186.3509225849142
 30
0.0
  0
VERTEX
  5
142B4
  8
0
 10
107.5829019331438
 20
186.9555794300264
 30
0.0
  0
SEQEND
  5
142B5
  8
0
  0
POLYLINE
  5
EC89
  8
0
 66
     1
 10
0.0
 20
0.0
 30
0.0
  0
VERTEX
  5
142B6
  8
0
 10
165.0829019331438
 20
213.54845231650981
 30
0.0
  0
VERTEX
  5
142B7
  8
0
 10
165.0756483708594
 20
212.7162130040646
 30
0.0
  0
VERTEX
  5
142B8
  8
0
 10
165.017639003607
 20
211.05319766068689
 30
0.0
  0
VERTEX
  5
142B9
  8
0
 10
164.90172226384419
 20
209.3945695890383
 30
0.0
  0
VERTEX
  5
142BA
  8
0
 10
164.82210835135791
 20
208.56781255812319
 30
0.0
  0
VERTEX
  5
142BB
  8
0
 10
164.728101961726
 20
207.74324506543249
 30
0.0
  0
VERTEX
  5
142BC
  8
0
 10
164.49708336446861
 20
206.10212752474729
 30
0.0
  0
VERTEX
  5
142BD
  8
0
 10
164.2090726596154
 20
204.47410245547411
 30
0.0
  0
VERTEX
  5
142BE
  8
0
 10
163.8645762408612
 20
202.86203232631641
 30
0.0
  0
VERTEX
  5
142BF
  8
0
 10
163.46419981768551
 20
201.26875155326769
 30
0.0
  0
VERTEX
  5
142C0
  8
0
 10
163.0086473503668
 20
199.69706151600909
 30
0.0
  0
VERTEX
  5
142C1
  8
0
 10
162.7604266521036
 20
198.92017820761541
 30
0.0
  0
VERTEX
  5
142C2
  8
0
 10
162.49871981224729
 20
198.14972563239519
 30
0.0
  0
VERTEX
  5
142C3
  8
0
 10
161.93531378142441
 20
196.6294644996853
 30
0.0
  0
VERTEX
  5
142C4
  8
0
 10
161.8829019331435
 20
196.50262356260399
 30
0.0
  0
SEQEND
  5
142C5
  8
0
  0
LINE
  5
EC8A
  8
0
 10
111.5829019331438
 20
182.74368873142029
 30
0.0
 11
111.5829019331438
 21
183.7833212407717
 31
0.0
  0
POLYLINE
  5
EC8B
  8
0
 66
     1
 10
0.0
 20
0.0
 30
0.0
  0
VERTEX
  5
142C6
  8
0
 10
111.5829019331438
 20
183.7833212407717
 30
0.0
  0
VERTEX
  5
142C7
  8
0
 10
111.4735115444434
 20
183.82700566841601
 30
0.0
  0
VERTEX
  5
142C8
  8
0
 10
111.25665188314611
 20
183.91798883817421
 30
0.0
  0
VERTEX
  5
142C9
  8
0
 10
111.0423801608256
 20
184.01393279588461
 30
0.0
  0
VERTEX
  5
142CA
  8
0
 10
110.9362245928544
 20
184.0638203865181
 30
0.0
  0
VERTEX
  5
142CB
  8
0
 10
110.8307277913802
 20
184.1150157972119
 30
0.0
  0
VERTEX
  5
142CC
  8
0
 10
110.6217264423842
 20
184.22142632665111
 30
0.0
  0
VERTEX
  5
142CD
  8
0
 10
110.4154088854131
 20
184.33336402505569
 30
0.0
  0
VERTEX
  5
142CE
  8
0
 10
110.21181001668739
 20
184.45104058392249
 30
0.0
  0
VERTEX
  5
142CF
  8
0
 10
110.01096804823121
 20
184.5746805769067
 30
0.0
  0
VERTEX
  5
142D0
  8
0
 10
109.8129258654151
 20
184.70452219573889
 30
0.0
  0
VERTEX
  5
142D1
  8
0
 10
109.71496974294971
 20
184.77184692560371
 30
0.0
  0
VERTEX
  5
142D2
  8
0
 10
109.617389032853
 20
184.84106539043361
 30
0.0
  0
VERTEX
  5
142D3
  8
0
 10
109.4224532260511
 20
184.98613228153039
 30
0.0
  0
VERTEX
  5
142D4
  8
0
 10
109.2285422027373
 20
185.14006893429351
 30
0.0
  0
VERTEX
  5
142D5
  8
0
 10
109.0364901793989
 20
185.30286459435649
 30
0.0
  0
VERTEX
  5
142D6
  8
0
 10
108.84708276221519
 20
185.4744564790889
 30
0.0
  0
VERTEX
  5
142D7
  8
0
 10
108.66105108163239
 20
185.6547298262177
 30
0.0
  0
VERTEX
  5
142D8
  8
0
 10
108.5695154791604
 20
185.748070244703
 30
0.0
  0
VERTEX
  5
142D9
  8
0
 10
108.4790753044187
 20
185.84351031710429
 30
0.0
  0
VERTEX
  5
142DA
  8
0
 10
108.301788325801
 20
186.0405550784659
 30
0.0
  0
VERTEX
  5
142DB
  8
0
 10
108.1297696472845
 20
186.2455540567488
 30
0.0
  0
VERTEX
  5
142DC
  8
0
 10
108.0459005463324
 20
186.3509225849142
 30
0.0
  0
SEQEND
  5
142DD
  8
0
  0
LINE
  5
EC8D
  8
0
 10
111.5829019331438
 20
182.74368873142029
 30
0.0
 11
114.5829019331438
 21
182.74368873142029
 31
0.0
  0
POLYLINE
  5
EC8F
  8
0
 66
     1
 10
0.0
 20
0.0
 30
0.0
  0
VERTEX
  5
142DE
  8
0
 10
156.1199033199548
 20
186.3509225849142
 30
0.0
  0
VERTEX
  5
142DF
  8
0
 10
156.03603421900311
 20
186.2455540567488
 30
0.0
  0
VERTEX
  5
142E0
  8
0
 10
155.86401554048621
 20
186.0405550784659
 30
0.0
  0
VERTEX
  5
142E1
  8
0
 10
155.68672856186839
 20
185.84351031710429
 30
0.0
  0
VERTEX
  5
142E2
  8
0
 10
155.59628838712729
 20
185.748070244703
 30
0.0
  0
VERTEX
  5
142E3
  8
0
 10
155.50475278465521
 20
185.6547298262177
 30
0.0
  0
VERTEX
  5
142E4
  8
0
 10
155.31872110407241
 20
185.4744564790889
 30
0.0
  0
VERTEX
  5
142E5
  8
0
 10
155.12931368688871
 20
185.30286459435649
 30
0.0
  0
VERTEX
  5
142E6
  8
0
 10
154.93726166355029
 20
185.14006893429351
 30
0.0
  0
VERTEX
  5
142E7
  8
0
 10
154.743350640236
 20
184.98613228153039
 30
0.0
  0
VERTEX
  5
142E8
  8
0
 10
154.54841483343421
 20
184.84106539043361
 30
0.0
  0
VERTEX
  5
142E9
  8
0
 10
154.4508341233379
 20
184.77184692560371
 30
0.0
  0
VERTEX
  5
142EA
  8
0
 10
154.35287800087261
 20
184.70452219573889
 30
0.0
  0
VERTEX
  5
142EB
  8
0
 10
154.1548358180564
 20
184.5746805769067
 30
0.0
  0
VERTEX
  5
142EC
  8
0
 10
153.95399384960021
 20
184.45104058392249
 30
0.0
  0
VERTEX
  5
142ED
  8
0
 10
153.75039498087449
 20
184.33336402505569
 30
0.0
  0
VERTEX
  5
142EE
  8
0
 10
153.54407742390339
 20
184.22142632665111
 30
0.0
  0
VERTEX
  5
142EF
  8
0
 10
153.33507607490739
 20
184.1150157972119
 30
0.0
  0
VERTEX
  5
142F0
  8
0
 10
153.22957927343279
 20
184.0638203865181
 30
0.0
  0
VERTEX
  5
142F1
  8
0
 10
153.12342370546199
 20
184.01393279588461
 30
0.0
  0
VERTEX
  5
142F2
  8
0
 10
152.9091519831415
 20
183.91798883817421
 30
0.0
  0
VERTEX
  5
142F3
  8
0
 10
152.69229232184369
 20
183.82700566841601
 30
0.0
  0
VERTEX
  5
142F4
  8
0
 10
152.5829019331438
 20
183.7833212407717
 30
0.0
  0
SEQEND
  5
142F5
  8
0
  0
LINE
  5
EC91
  8
0
 10
149.5829019331438
 20
182.74368873142029
 30
0.0
 11
152.5829019331438
 21
182.74368873142029
 31
0.0
  0
LINE
  5
EC9A
  8
0
 10
114.5829019331439
 20
253.24368873142041
 30
0.0
 11
149.5829019331436
 21
253.24368873142041
 31
0.0
  0
LINE
  5
EC9C
  8
0
 10
149.58290193314369
 20
253.24368873142041
 30
0.0
 11
149.5829019331438
 21
182.74368873142029
 31
0.0
  0
LINE
  5
EC9D
  8
0
 10
114.5829019331438
 20
182.74368873142029
 30
0.0
 11
114.5829019331438
 21
253.24368873142041
 31
0.0
  0
LINE
  5
ECA1
  8
0
 10
156.5829019331438
 20
186.92868873142029
 30
0.0
 11
157.18290193314371
 21
186.92868873142029
 31
0.0
  0
LINE
  5
ECA2
  8
0
 10
157.18290193314371
 20
198.5586887314204
 30
0.0
 11
156.5829019331438
 21
198.5586887314204
 31
0.0
  0
LINE
  5
ECA3
  8
0
 10
97.349901933143656
 20
188.74368873142029
 30
0.0
 11
99.58290193314383
 21
188.74368873142029
 31
0.0
  0
LINE
  5
ECA4
  8
0
 10
99.58290193314383
 20
196.74368873142029
 30
0.0
 11
97.349901933143656
 21
196.74368873142029
 31
0.0
  0
LINE
  5
ECA5
  8
0
 10
96.582901933143845
 20
189.5106887314204
 30
0.0
 11
97.349901933143656
 21
188.74368873142029
 31
0.0
  0
LINE
  5
ECA6
  8
0
 10
97.349901933143656
 20
196.74368873142029
 30
0.0
 11
96.582901933143845
 21
195.9766887314203
 31
0.0
  0
LINE
  5
ECA7
  8
0
 10
161.8829019331435
 20
199.00202206475359
 30
0.0
 11
161.6234822237281
 21
199.97018960077719
 31
0.0
  0
LINE
  5
ECA8
  8
0
 10
161.6234822237281
 20
185.51718786206351
 30
0.0
 11
161.8829019331435
 21
186.48535539808711
 31
0.0
  0
LINE
  5
ECA9
  8
0
 10
157.44232164255911
 20
199.97018960077719
 30
0.0
 11
157.18290193314371
 21
199.00202206475359
 31
0.0
  0
LINE
  5
ECAA
  8
0
 10
157.18290193314371
 20
186.48535539808711
 30
0.0
 11
157.44232164255911
 21
185.51718786206351
 31
0.0
  0
LINE
  5
ECAB
  8
0
 10
107.5829019331438
 20
188.74368873142029
 30
0.0
 11
109.5829019331438
 21
188.74368873142029
 31
0.0
  0
LINE
  5
ECAC
  8
0
 10
109.5829019331438
 20
196.74368873142029
 30
0.0
 11
107.5829019331438
 21
196.74368873142029
 31
0.0
  0
LINE
  5
ECAD
  8
0
 10
99.58290193314383
 20
186.92868873142029
 30
0.0
 11
102.0829019331438
 21
186.92868873142029
 31
0.0
  0
LINE
  5
ECAF
  8
0
 10
102.0829019331438
 20
198.5586887314204
 30
0.0
 11
99.58290193314383
 21
198.5586887314204
 31
0.0
  0
LINE
  5
ECB0
  8
0
 10
107.5829019331438
 20
199.00202206475359
 30
0.0
 11
107.3234822237284
 21
199.97018960077719
 31
0.0
  0
LINE
  5
ECB1
  8
0
 10
107.3234822237284
 20
185.51718786206351
 30
0.0
 11
107.5829019331438
 21
186.48535539808711
 31
0.0
  0
LINE
  5
ECB2
  8
0
 10
102.3423216425592
 20
199.97018960077719
 30
0.0
 11
102.0829019331438
 21
199.00202206475359
 31
0.0
  0
LINE
  5
ECB3
  8
0
 10
102.0829019331438
 20
186.48535539808711
 30
0.0
 11
102.3423216425592
 21
185.51718786206351
 31
0.0
  0
LINE
  5
ECB4
  8
0
 10
154.5829019331438
 20
188.74368873142029
 30
0.0
 11
156.5829019331438
 21
188.74368873142029
 31
0.0
  0
LINE
  5
ECB5
  8
0
 10
156.5829019331438
 20
196.74368873142029
 30
0.0
 11
154.5829019331438
 21
196.74368873142029
 31
0.0
  0
LINE
  5
ECB6
  8
0
 10
109.5829019331438
 20
186.74368873142029
 30
0.0
 11
111.5829019331438
 21
186.74368873142029
 31
0.0
  0
LINE
  5
ECB7
  8
0
 10
114.5829019331447
 20
186.74368873142029
 30
0.0
 11
117.0829019331438
 21
186.74368873142029
 31
0.0
  0
LINE
  5
ECB9
  8
0
 10
147.0829019331438
 20
186.74368873142029
 30
0.0
 11
149.58290193314289
 21
186.74368873142029
 31
0.0
  0
LINE
  5
ECBA
  8
0
 10
152.58290193314389
 20
186.74368873142029
 30
0.0
 11
154.5829019331438
 21
186.74368873142029
 31
0.0
  0
LINE
  5
ECBB
  8
0
 10
154.5829019331438
 20
198.74368873142041
 30
0.0
 11
152.58290193314389
 21
198.74368873142041
 31
0.0
  0
LINE
  5
ECBC
  8
0
 10
149.58290193314289
 20
198.74368873142041
 30
0.0
 11
147.0829019331438
 21
198.74368873142041
 31
0.0
  0
LINE
  5
ECBE
  8
0
 10
117.0829019331438
 20
198.74368873142041
 30
0.0
 11
114.5829019331447
 21
198.74368873142041
 31
0.0
  0
LINE
  5
ECBF
  8
0
 10
111.5829019331438
 20
198.74368873142041
 30
0.0
 11
109.5829019331438
 21
198.74368873142041
 31
0.0
  0
LINE
  5
ECC0
  8
0
 10
156.5829019331438
 20
198.5586887314204
 30
0.0
 11
156.5829019331438
 21
186.95461336777851
 31
0.0
  0
LINE
  5
ECC1
  8
0
 10
156.5829019331438
 20
186.95461336777851
 30
0.0
 11
156.5829019331438
 21
186.92868873142029
 31
0.0
  0
LINE
  5
ECC2
  8
0
 10
97.349901933143656
 20
196.74368873142029
 30
0.0
 11
97.349901933143656
 21
188.74368873142029
 31
0.0
  0
LINE
  5
ECC3
  8
0
 10
96.582901933143845
 20
195.9766887314203
 30
0.0
 11
96.582901933143845
 21
189.5106887314204
 31
0.0
  0
LINE
  5
ECC5
  8
0
 10
161.8829019331435
 20
199.00202206475359
 30
0.0
 11
161.8829019331435
 21
186.48535539808711
 31
0.0
  0
LINE
  5
ECC7
  8
0
 10
157.18290193314371
 20
199.00202206475359
 30
0.0
 11
157.18290193314371
 21
186.48535539808711
 31
0.0
  0
POLYLINE
  5
ECC8
  8
0
 66
     1
 10
0.0
 20
0.0
 30
0.0
  0
VERTEX
  5
142F6
  8
0
 10
161.6234822237281
 20
189.130438296742
 30
0.0
  0
VERTEX
  5
142F7
  8
0
 10
161.70432687698641
 20
188.8058644010697
 30
0.0
  0
VERTEX
  5
142F8
  8
0
 10
161.8189372157396
 20
188.19630382229789
 30
0.0
  0
VERTEX
  5
142F9
  8
0
 10
161.87571179952391
 20
187.61389565072221
 30
0.0
  0
VERTEX
  5
142FA
  8
0
 10
161.8829019331435
 20
187.32381307940261
 30
0.0
  0
SEQEND
  5
142FB
  8
0
  0
POLYLINE
  5
ECC9
  8
0
 66
     1
 10
0.0
 20
0.0
 30
0.0
  0
VERTEX
  5
142FC
  8
0
 10
161.8829019331435
 20
187.32381307940261
 30
0.0
  0
VERTEX
  5
142FD
  8
0
 10
161.87571179952391
 20
187.03373050808329
 30
0.0
  0
VERTEX
  5
142FE
  8
0
 10
161.8189372157396
 20
186.45132233650759
 30
0.0
  0
VERTEX
  5
142FF
  8
0
 10
161.70432687698641
 20
185.84176175773581
 30
0.0
  0
VERTEX
  5
14300
  8
0
 10
161.6234822237281
 20
185.51718786206351
 30
0.0
  0
SEQEND
  5
14301
  8
0
  0
POLYLINE
  5
ECCA
  8
0
 66
     1
 10
0.0
 20
0.0
 30
0.0
  0
VERTEX
  5
14302
  8
0
 10
157.44232164255911
 20
185.51718786206351
 30
0.0
  0
VERTEX
  5
14303
  8
0
 10
157.36147698930131
 20
185.84176175773581
 30
0.0
  0
VERTEX
  5
14304
  8
0
 10
157.2468666505481
 20
186.45132233650759
 30
0.0
  0
VERTEX
  5
14305
  8
0
 10
157.1900920667637
 20
187.03373050808329
 30
0.0
  0
VERTEX
  5
14306
  8
0
 10
157.18290193314371
 20
187.32381307940261
 30
0.0
  0
SEQEND
  5
14307
  8
0
  0
POLYLINE
  5
ECCB
  8
0
 66
     1
 10
0.0
 20
0.0
 30
0.0
  0
VERTEX
  5
14308
  8
0
 10
157.18290193314371
 20
187.32381307940261
 30
0.0
  0
VERTEX
  5
14309
  8
0
 10
157.183457528248
 20
187.40437008157161
 30
0.0
  0
VERTEX
  5
1430A
  8
0
 10
157.18786931803351
 20
187.5648443598526
 30
0.0
  0
VERTEX
  5
1430B
  8
0
 10
157.1966273621872
 20
187.72499184665151
 30
0.0
  0
VERTEX
  5
1430C
  8
0
 10
157.20262393429101
 20
187.80513627663089
 30
0.0
  0
SEQEND
  5
1430D
  8
0
  0
POLYLINE
  5
ECCC
  8
0
 66
     1
 10
0.0
 20
0.0
 30
0.0
  0
VERTEX
  5
1430E
  8
0
 10
157.20262393429101
 20
187.80513627663089
 30
0.0
  0
VERTEX
  5
1430F
  8
0
 10
157.22337051942461
 20
188.01540774760579
 30
0.0
  0
VERTEX
  5
14310
  8
0
 10
157.2871886290925
 20
188.44441631949729
 30
0.0
  0
VERTEX
  5
14311
  8
0
 10
157.38219747808921
 20
188.89407344147611
 30
0.0
  0
VERTEX
  5
14312
  8
0
 10
157.44232164255911
 20
189.130438296742
 30
0.0
  0
SEQEND
  5
14313
  8
0
  0
LINE
  5
ECCD
  8
0
 10
161.6234822237281
 20
185.51718786206351
 30
0.0
 11
157.44232164255911
 21
185.51718786206351
 31
0.0
  0
POLYLINE
  5
ECD2
  8
0
 66
     1
 10
0.0
 20
0.0
 30
0.0
  0
VERTEX
  5
14314
  8
0
 10
161.6234822237281
 20
189.130438296742
 30
0.0
  0
VERTEX
  5
14315
  8
0
 10
161.70432687698641
 20
189.7795860880864
 30
0.0
  0
VERTEX
  5
14316
  8
0
 10
161.8189372157396
 20
190.9987072456301
 30
0.0
  0
VERTEX
  5
14317
  8
0
 10
161.87571179952391
 20
192.16352358878149
 30
0.0
  0
VERTEX
  5
14318
  8
0
 10
161.8829019331435
 20
192.74368873142041
 30
0.0
  0
SEQEND
  5
14319
  8
0
  0
POLYLINE
  5
ECD3
  8
0
 66
     1
 10
0.0
 20
0.0
 30
0.0
  0
VERTEX
  5
1431A
  8
0
 10
161.8829019331435
 20
192.74368873142041
 30
0.0
  0
VERTEX
  5
1431B
  8
0
 10
161.87571179952391
 20
193.32385387405921
 30
0.0
  0
VERTEX
  5
1431C
  8
0
 10
161.8189372157396
 20
194.4886702172106
 30
0.0
  0
VERTEX
  5
1431D
  8
0
 10
161.70432687698641
 20
195.70779137475429
 30
0.0
  0
VERTEX
  5
1431E
  8
0
 10
161.6234822237281
 20
196.3569391660987
 30
0.0
  0
SEQEND
  5
1431F
  8
0
  0
POLYLINE
  5
ECD4
  8
0
 66
     1
 10
0.0
 20
0.0
 30
0.0
  0
VERTEX
  5
14320
  8
0
 10
157.44232164255911
 20
196.3569391660987
 30
0.0
  0
VERTEX
  5
14321
  8
0
 10
157.36147698930131
 20
195.70779137475429
 30
0.0
  0
VERTEX
  5
14322
  8
0
 10
157.2468666505481
 20
194.4886702172106
 30
0.0
  0
VERTEX
  5
14323
  8
0
 10
157.1900920667637
 20
193.32385387405921
 30
0.0
  0
VERTEX
  5
14324
  8
0
 10
157.18290193314371
 20
192.74368873142041
 30
0.0
  0
SEQEND
  5
14325
  8
0
  0
POLYLINE
  5
ECD5
  8
0
 66
     1
 10
0.0
 20
0.0
 30
0.0
  0
VERTEX
  5
14326
  8
0
 10
157.18290193314371
 20
192.74368873142041
 30
0.0
  0
VERTEX
  5
14327
  8
0
 10
157.1900920667637
 20
192.16352358878149
 30
0.0
  0
VERTEX
  5
14328
  8
0
 10
157.2468666505481
 20
190.9987072456301
 30
0.0
  0
VERTEX
  5
14329
  8
0
 10
157.36147698930131
 20
189.7795860880864
 30
0.0
  0
VERTEX
  5
1432A
  8
0
 10
157.44232164255911
 20
189.130438296742
 30
0.0
  0
SEQEND
  5
1432B
  8
0
  0
POLYLINE
  5
ECD6
  8
0
 66
     1
 10
0.0
 20
0.0
 30
0.0
  0
VERTEX
  5
1432C
  8
0
 10
157.18290193314371
 20
198.16356438343811
 30
0.0
  0
VERTEX
  5
1432D
  8
0
 10
157.1900920667637
 20
198.4536469547574
 30
0.0
  0
VERTEX
  5
1432E
  8
0
 10
157.2468666505481
 20
199.03605512633311
 30
0.0
  0
VERTEX
  5
1432F
  8
0
 10
157.36147698930131
 20
199.64561570510489
 30
0.0
  0
VERTEX
  5
14330
  8
0
 10
157.44232164255911
 20
199.97018960077719
 30
0.0
  0
SEQEND
  5
14331
  8
0
  0
POLYLINE
  5
ECD7
  8
0
 66
     1
 10
0.0
 20
0.0
 30
0.0
  0
VERTEX
  5
14332
  8
0
 10
161.6234822237281
 20
199.97018960077719
 30
0.0
  0
VERTEX
  5
14333
  8
0
 10
161.70432687698641
 20
199.64561570510489
 30
0.0
  0
VERTEX
  5
14334
  8
0
 10
161.8189372157396
 20
199.03605512633311
 30
0.0
  0
VERTEX
  5
14335
  8
0
 10
161.87571179952391
 20
198.4536469547574
 30
0.0
  0
VERTEX
  5
14336
  8
0
 10
161.8829019331435
 20
198.16356438343811
 30
0.0
  0
SEQEND
  5
14337
  8
0
  0
POLYLINE
  5
ECD8
  8
0
 66
     1
 10
0.0
 20
0.0
 30
0.0
  0
VERTEX
  5
14338
  8
0
 10
161.8829019331435
 20
198.16356438343811
 30
0.0
  0
VERTEX
  5
14339
  8
0
 10
161.87571179952391
 20
197.87348181211851
 30
0.0
  0
VERTEX
  5
1433A
  8
0
 10
161.8189372157396
 20
197.29107364054281
 30
0.0
  0
VERTEX
  5
1433B
  8
0
 10
161.70432687698641
 20
196.681513061771
 30
0.0
  0
VERTEX
  5
1433C
  8
0
 10
161.6234822237281
 20
196.3569391660987
 30
0.0
  0
SEQEND
  5
1433D
  8
0
  0
POLYLINE
  5
ECD9
  8
0
 66
     1
 10
0.0
 20
0.0
 30
0.0
  0
VERTEX
  5
1433E
  8
0
 10
157.44232164255911
 20
196.3569391660987
 30
0.0
  0
VERTEX
  5
1433F
  8
0
 10
157.36147698930131
 20
196.681513061771
 30
0.0
  0
VERTEX
  5
14340
  8
0
 10
157.2468666505481
 20
197.29107364054281
 30
0.0
  0
VERTEX
  5
14341
  8
0
 10
157.1900920667637
 20
197.87348181211851
 30
0.0
  0
VERTEX
  5
14342
  8
0
 10
157.18290193314371
 20
198.16356438343811
 30
0.0
  0
SEQEND
  5
14343
  8
0
  0
LINE
  5
ECDD
  8
0
 10
161.6234822237281
 20
199.97018960077719
 30
0.0
 11
157.44232164255911
 21
199.97018960077719
 31
0.0
  0
LINE
  5
ECE0
  8
0
 10
161.6234822237281
 20
196.3569391660987
 30
0.0
 11
157.44232164255911
 21
196.3569391660987
 31
0.0
  0
LINE
  5
ECE4
  8
0
 10
161.6234822237281
 20
189.130438296742
 30
0.0
 11
158.1007983448828
 21
189.130438296742
 31
0.0
  0
LINE
  5
ECE5
  8
0
 10
158.1007983448828
 20
189.130438296742
 30
0.0
 11
157.44232164255911
 21
189.130438296742
 31
0.0
  0
LINE
  5
ECE7
  8
0
 10
99.58290193314383
 20
198.5586887314204
 30
0.0
 11
99.58290193314383
 21
186.92868873142029
 31
0.0
  0
LINE
  5
ECE9
  8
0
 10
107.5829019331438
 20
199.00202206475359
 30
0.0
 11
107.5829019331438
 21
186.48535539808711
 31
0.0
  0
LINE
  5
ECEB
  8
0
 10
102.0829019331438
 20
199.00202206475359
 30
0.0
 11
102.0829019331438
 21
186.48535539808711
 31
0.0
  0
POLYLINE
  5
ECEC
  8
0
 66
     1
 10
0.0
 20
0.0
 30
0.0
  0
VERTEX
  5
14344
  8
0
 10
107.3234822237284
 20
189.130438296742
 30
0.0
  0
VERTEX
  5
14345
  8
0
 10
107.4043268769862
 20
188.8058644010697
 30
0.0
  0
VERTEX
  5
14346
  8
0
 10
107.5189372157394
 20
188.19630382229789
 30
0.0
  0
VERTEX
  5
14347
  8
0
 10
107.5757117995238
 20
187.61389565072221
 30
0.0
  0
VERTEX
  5
14348
  8
0
 10
107.5829019331438
 20
187.32381307940261
 30
0.0
  0
SEQEND
  5
14349
  8
0
  0
POLYLINE
  5
ECED
  8
0
 66
     1
 10
0.0
 20
0.0
 30
0.0
  0
VERTEX
  5
1434A
  8
0
 10
107.5829019331438
 20
187.32381307940261
 30
0.0
  0
VERTEX
  5
1434B
  8
0
 10
107.58260144299921
 20
187.26457203691839
 30
0.0
  0
VERTEX
  5
1434C
  8
0
 10
107.58021134055269
 20
187.14648144053049
 30
0.0
  0
VERTEX
  5
1434D
  8
0
 10
107.5754609063581
 20
187.02870180696519
 30
0.0
  0
VERTEX
  5
1434E
  8
0
 10
107.5722075716137
 20
186.969850893759
 30
0.0
  0
SEQEND
  5
1434F
  8
0
  0
POLYLINE
  5
ECEE
  8
0
 66
     1
 10
0.0
 20
0.0
 30
0.0
  0
VERTEX
  5
14350
  8
0
 10
107.5722075716137
 20
186.969850893759
 30
0.0
  0
VERTEX
  5
14351
  8
0
 10
107.553872273698
 20
186.7390491718624
 30
0.0
  0
VERTEX
  5
14352
  8
0
 10
107.49027896520261
 20
186.26951571160291
 30
0.0
  0
VERTEX
  5
14353
  8
0
 10
107.3892169222988
 20
185.7770360165859
 30
0.0
  0
VERTEX
  5
14354
  8
0
 10
107.3234822237284
 20
185.51718786206351
 30
0.0
  0
SEQEND
  5
14355
  8
0
  0
POLYLINE
  5
ECEF
  8
0
 66
     1
 10
0.0
 20
0.0
 30
0.0
  0
VERTEX
  5
14356
  8
0
 10
102.3423216425592
 20
185.51718786206351
 30
0.0
  0
VERTEX
  5
14357
  8
0
 10
102.2614769893009
 20
185.84176175773581
 30
0.0
  0
VERTEX
  5
14358
  8
0
 10
102.1468666505482
 20
186.45132233650759
 30
0.0
  0
VERTEX
  5
14359
  8
0
 10
102.0900920667638
 20
187.03373050808329
 30
0.0
  0
VERTEX
  5
1435A
  8
0
 10
102.0829019331438
 20
187.32381307940261
 30
0.0
  0
SEQEND
  5
1435B
  8
0
  0
POLYLINE
  5
ECF0
  8
0
 66
     1
 10
0.0
 20
0.0
 30
0.0
  0
VERTEX
  5
1435C
  8
0
 10
102.0829019331438
 20
187.32381307940261
 30
0.0
  0
VERTEX
  5
1435D
  8
0
 10
102.0900920667638
 20
187.61389565072221
 30
0.0
  0
VERTEX
  5
1435E
  8
0
 10
102.1468666505482
 20
188.19630382229789
 30
0.0
  0
VERTEX
  5
1435F
  8
0
 10
102.2614769893009
 20
188.8058644010697
 30
0.0
  0
VERTEX
  5
14360
  8
0
 10
102.3423216425592
 20
189.130438296742
 30
0.0
  0
SEQEND
  5
14361
  8
0
  0
LINE
  5
ECF1
  8
0
 10
107.3234822237284
 20
185.51718786206351
 30
0.0
 11
102.3423216425592
 21
185.51718786206351
 31
0.0
  0
POLYLINE
  5
ECF6
  8
0
 66
     1
 10
0.0
 20
0.0
 30
0.0
  0
VERTEX
  5
14362
  8
0
 10
107.3234822237284
 20
189.130438296742
 30
0.0
  0
VERTEX
  5
14363
  8
0
 10
107.4043268769862
 20
189.7795860880864
 30
0.0
  0
VERTEX
  5
14364
  8
0
 10
107.5189372157394
 20
190.9987072456301
 30
0.0
  0
VERTEX
  5
14365
  8
0
 10
107.5757117995238
 20
192.1635235887812
 30
0.0
  0
VERTEX
  5
14366
  8
0
 10
107.5829019331438
 20
192.74368873142041
 30
0.0
  0
SEQEND
  5
14367
  8
0
  0
POLYLINE
  5
ECF7
  8
0
 66
     1
 10
0.0
 20
0.0
 30
0.0
  0
VERTEX
  5
14368
  8
0
 10
107.5829019331438
 20
192.74368873142041
 30
0.0
  0
VERTEX
  5
14369
  8
0
 10
107.5757117995238
 20
193.32385387405941
 30
0.0
  0
VERTEX
  5
1436A
  8
0
 10
107.5189372157394
 20
194.4886702172106
 30
0.0
  0
VERTEX
  5
1436B
  8
0
 10
107.4043268769862
 20
195.70779137475429
 30
0.0
  0
VERTEX
  5
1436C
  8
0
 10
107.3234822237284
 20
196.3569391660987
 30
0.0
  0
SEQEND
  5
1436D
  8
0
  0
POLYLINE
  5
ECF8
  8
0
 66
     1
 10
0.0
 20
0.0
 30
0.0
  0
VERTEX
  5
1436E
  8
0
 10
102.3423216425592
 20
196.3569391660987
 30
0.0
  0
VERTEX
  5
1436F
  8
0
 10
102.2614769893009
 20
195.70779137475429
 30
0.0
  0
VERTEX
  5
14370
  8
0
 10
102.1468666505482
 20
194.4886702172106
 30
0.0
  0
VERTEX
  5
14371
  8
0
 10
102.0900920667638
 20
193.32385387405941
 30
0.0
  0
VERTEX
  5
14372
  8
0
 10
102.0829019331438
 20
192.74368873142041
 30
0.0
  0
SEQEND
  5
14373
  8
0
  0
POLYLINE
  5
ECF9
  8
0
 66
     1
 10
0.0
 20
0.0
 30
0.0
  0
VERTEX
  5
14374
  8
0
 10
102.0829019331438
 20
192.74368873142041
 30
0.0
  0
VERTEX
  5
14375
  8
0
 10
102.0900920667638
 20
192.1635235887812
 30
0.0
  0
VERTEX
  5
14376
  8
0
 10
102.1468666505482
 20
190.9987072456301
 30
0.0
  0
VERTEX
  5
14377
  8
0
 10
102.2614769893009
 20
189.7795860880864
 30
0.0
  0
VERTEX
  5
14378
  8
0
 10
102.3423216425592
 20
189.130438296742
 30
0.0
  0
SEQEND
  5
14379
  8
0
  0
POLYLINE
  5
ECFA
  8
0
 66
     1
 10
0.0
 20
0.0
 30
0.0
  0
VERTEX
  5
1437A
  8
0
 10
102.0829019331438
 20
198.16356438343811
 30
0.0
  0
VERTEX
  5
1437B
  8
0
 10
102.0900920667638
 20
198.4536469547574
 30
0.0
  0
VERTEX
  5
1437C
  8
0
 10
102.1468666505482
 20
199.03605512633311
 30
0.0
  0
VERTEX
  5
1437D
  8
0
 10
102.2614769893009
 20
199.64561570510489
 30
0.0
  0
VERTEX
  5
1437E
  8
0
 10
102.3423216425592
 20
199.97018960077719
 30
0.0
  0
SEQEND
  5
1437F
  8
0
  0
POLYLINE
  5
ECFB
  8
0
 66
     1
 10
0.0
 20
0.0
 30
0.0
  0
VERTEX
  5
14380
  8
0
 10
107.3234822237284
 20
199.97018960077719
 30
0.0
  0
VERTEX
  5
14381
  8
0
 10
107.4043268769862
 20
199.64561570510489
 30
0.0
  0
VERTEX
  5
14382
  8
0
 10
107.5189372157394
 20
199.03605512633311
 30
0.0
  0
VERTEX
  5
14383
  8
0
 10
107.5757117995238
 20
198.4536469547574
 30
0.0
  0
VERTEX
  5
14384
  8
0
 10
107.5829019331438
 20
198.16356438343811
 30
0.0
  0
SEQEND
  5
14385
  8
0
  0
POLYLINE
  5
ECFC
  8
0
 66
     1
 10
0.0
 20
0.0
 30
0.0
  0
VERTEX
  5
14386
  8
0
 10
107.5829019331438
 20
198.16356438343811
 30
0.0
  0
VERTEX
  5
14387
  8
0
 10
107.5757117995238
 20
197.87348181211851
 30
0.0
  0
VERTEX
  5
14388
  8
0
 10
107.5189372157394
 20
197.29107364054281
 30
0.0
  0
VERTEX
  5
14389
  8
0
 10
107.4043268769862
 20
196.681513061771
 30
0.0
  0
VERTEX
  5
1438A
  8
0
 10
107.3234822237284
 20
196.3569391660987
 30
0.0
  0
SEQEND
  5
1438B
  8
0
  0
POLYLINE
  5
ECFD
  8
0
 66
     1
 10
0.0
 20
0.0
 30
0.0
  0
VERTEX
  5
1438C
  8
0
 10
102.3423216425592
 20
196.3569391660987
 30
0.0
  0
VERTEX
  5
1438D
  8
0
 10
102.2614769893009
 20
196.681513061771
 30
0.0
  0
VERTEX
  5
1438E
  8
0
 10
102.1468666505482
 20
197.29107364054281
 30
0.0
  0
VERTEX
  5
1438F
  8
0
 10
102.0900920667638
 20
197.87348181211851
 30
0.0
  0
VERTEX
  5
14390
  8
0
 10
102.0829019331438
 20
198.16356438343811
 30
0.0
  0
SEQEND
  5
14391
  8
0
  0
LINE
  5
ED01
  8
0
 10
107.3234822237284
 20
199.97018960077719
 30
0.0
 11
102.3423216425592
 21
199.97018960077719
 31
0.0
  0
POLYLINE
  5
ED04
  8
0
 66
     1
 10
0.0
 20
0.0
 30
0.0
  0
VERTEX
  5
14392
  8
0
 10
102.34129305310189
 20
196.34925553935949
 30
0.0
  0
VERTEX
  5
14393
  8
0
 10
102.3414643236576
 20
196.35053579331151
 30
0.0
  0
VERTEX
  5
14394
  8
0
 10
102.3418070579571
 20
196.353096721616
 30
0.0
  0
VERTEX
  5
14395
  8
0
 10
102.3421500499223
 20
196.35565821090989
 30
0.0
  0
VERTEX
  5
14396
  8
0
 10
102.3423216425592
 20
196.3569391660987
 30
0.0
  0
SEQEND
  5
14397
  8
0
  0
LINE
  5
ED05
  8
0
 10
107.3234822237284
 20
196.3569391660987
 30
0.0
 11
102.3423216425592
 21
196.3569391660987
 31
0.0
  0
LINE
  5
ED08
  8
0
 10
107.3234822237284
 20
189.130438296742
 30
0.0
 11
106.0650055214048
 21
189.130438296742
 31
0.0
  0
LINE
  5
ED09
  8
0
 10
106.0650055214048
 20
189.130438296742
 30
0.0
 11
102.3423216425592
 21
189.130438296742
 31
0.0
  0
LINE
  5
ED0B
  8
0
 10
154.5829019331438
 20
198.74368873142041
 30
0.0
 11
154.5829019331438
 21
186.74368873142029
 31
0.0
  0
LINE
  5
ED0C
  8
0
 10
109.5829019331438
 20
198.74368873142041
 30
0.0
 11
109.5829019331438
 21
186.74368873142029
 31
0.0
  0
ARC
  5
ED32
  8
0
 10
145.0829019331438
 20
239.65272591171529
 30
0.0
 40
2.0000000000000009
 50
0.0
 51
80.405931773135208
  0
ARC
  5
ED33
  8
0
 10
145.0829019331438
 20
145.8346515511254
 30
0.0
 40
2.000000000000008
 50
279.59406822686481
 51
0.0
  0
ARC
  5
ED34
  8
0
 10
132.0829019331438
 20
162.74368873142129
 30
0.0
 40
79.999999999998934
 50
80.405931773135208
 51
99.594068226864806
  0
ARC
  5
ED35
  8
0
 10
132.0829019331438
 20
222.74368873141989
 30
0.0
 40
79.999999999999432
 50
260.40593177313519
 51
279.59406822686481
  0
ARC
  5
ED36
  8
0
 10
119.0829019331438
 20
239.65272591171529
 30
0.0
 40
1.999999999999966
 50
99.594068226864806
 51
180.0
  0
ARC
  5
ED37
  8
0
 10
119.0829019331438
 20
145.83465155112521
 30
0.0
 40
1.9999999999999749
 50
180.0
 51
260.40593177313519
  0
LINE
  5
ED42
  8
0
 10
147.0829019331438
 20
239.65272591171529
 30
0.0
 11
147.0829019331438
 21
145.8346515511254
 31
0.0
  0
LINE
  5
ED44
  8
0
 10
117.0829019331438
 20
239.65272591171529
 30
0.0
 11
117.0829019331438
 21
145.8346515511254
 31
0.0
  0
CIRCLE
  5
ED4A
  8
0
 10
318.90231598404739
 20
192.74368873142211
 30
0.0
 40
6.2583333333333311
  0
LINE
  5
ED4B
  8
0
 10
312.64398265071418
 20
196.3569391661004
 30
0.0
 11
318.90231598404739
 21
199.97018960077881
 31
0.0
  0
LINE
  5
ED4C
  8
0
 10
312.64398265071418
 20
196.3569391661004
 30
0.0
 11
312.64398265071418
 21
189.13043829674359
 31
0.0
  0
LINE
  5
ED4D
  8
0
 10
312.64398265071418
 20
189.13043829674359
 30
0.0
 11
318.90231598404739
 21
185.51718786206521
 31
0.0
  0
LINE
  5
ED4E
  8
0
 10
325.16064931738077
 20
196.3569391661004
 30
0.0
 11
318.90231598404762
 21
199.97018960077881
 31
0.0
  0
LINE
  5
ED4F
  8
0
 10
325.16064931738077
 20
196.3569391661004
 30
0.0
 11
325.16064931738077
 21
189.13043829674359
 31
0.0
  0
LINE
  5
ED50
  8
0
 10
325.16064931738077
 20
189.13043829674359
 30
0.0
 11
318.90231598404762
 21
185.51718786206521
 31
0.0
  0
LINE
  5
ED51
  8
3
 10
578.62148507479583
 20
195.9766887314203
 30
0.0
 11
575.62148507479583
 21
195.9766887314203
 31
0.0
  0
LINE
  5
ED52
  8
3
 10
578.62148507479583
 20
189.5106887314204
 30
0.0
 11
575.62148507479583
 21
189.5106887314204
 31
0.0
  0
LINE
  5
ED55
  8
1
 10
501.69626540361878
 20
192.7436887314206
 30
0.0
 11
584.54670474597242
 21
192.7436887314206
 31
0.0
  0
LINE
  5
ED56
  8
1
 10
543.1214850747956
 20
130.92748875097811
 30
0.0
 11
543.1214850747956
 21
282.55988871186281
 31
0.0
  0
LINE
  5
EE08
  8
1
 10
173.5081216043211
 20
192.7436887314206
 30
0.0
 11
90.657682261967466
 21
192.7436887314206
 31
0.0
  0
LINE
  5
EE09
  8
1
 10
132.08290193314431
 20
130.92748875097811
 30
0.0
 11
132.08290193314431
 21
282.55988871186281
 31
0.0
  0
POLYLINE
  5
EE4C
  8
0
 66
     1
 10
0.0
 20
0.0
 30
0.0
  0
VERTEX
  5
14398
  8
0
 10
156.5829019331438
 20
186.9555794300264
 30
0.0
  0
VERTEX
  5
14399
  8
0
 10
156.1199033199548
 20
186.3509225849142
 30
0.0
  0
SEQEND
  5
1439A
  8
0
  0
POLYLINE
  5
EE4D
  8
0
 66
     1
 10
0.0
 20
0.0
 30
0.0
  0
VERTEX
  5
1439B
  8
0
 10
101.52816772913449
 20
198.5586887314204
 30
0.0
  0
VERTEX
  5
1439C
  8
0
 10
101.405377214184
 20
198.92017820761541
 30
0.0
  0
VERTEX
  5
1439D
  8
0
 10
101.15715651592041
 20
199.69706151600909
 30
0.0
  0
VERTEX
  5
1439E
  8
0
 10
100.7016040486016
 20
201.26875155326769
 30
0.0
  0
VERTEX
  5
1439F
  8
0
 10
100.30122762542599
 20
202.86203232631641
 30
0.0
  0
VERTEX
  5
143A0
  8
0
 10
99.956731206672202
 20
204.47410245547411
 30
0.0
  0
VERTEX
  5
143A1
  8
0
 10
99.668720501819053
 20
206.10212752474729
 30
0.0
  0
VERTEX
  5
143A2
  8
0
 10
99.437701904561195
 20
207.74324506543249
 30
0.0
  0
VERTEX
  5
143A3
  8
0
 10
99.343695514929763
 20
208.56781255812319
 30
0.0
  0
VERTEX
  5
143A4
  8
0
 10
99.264081602442957
 20
209.3945695890383
 30
0.0
  0
VERTEX
  5
143A5
  8
0
 10
99.148164862680687
 20
211.05319766068689
 30
0.0
  0
VERTEX
  5
143A6
  8
0
 10
99.090155495428235
 20
212.7162130040646
 30
0.0
  0
VERTEX
  5
143A7
  8
0
 10
99.082901933143845
 20
213.54845231650981
 30
0.0
  0
SEQEND
  5
143A8
  8
0
  0
POLYLINE
  5
F53D
  8
0
 66
     1
 10
0.0
 20
0.0
 30
0.0
  0
VERTEX
  5
143A9
  8
0
 10
114.5829019331438
 20
243.59645746742279
 30
0.0
  0
VERTEX
  5
143AA
  8
0
 10
114.5888206244374
 20
243.60152015781779
 30
0.0
  0
VERTEX
  5
143AB
  8
0
 10
114.95403767624769
 20
243.90439433532299
 30
0.0
  0
VERTEX
  5
143AC
  8
0
 10
115.69526387856629
 20
244.4908158429219
 30
0.0
  0
VERTEX
  5
143AD
  8
0
 10
116.45035565874851
 20
245.0510570218278
 30
0.0
  0
VERTEX
  5
143AE
  8
0
 10
117.2186741337634
 20
245.58464385207191
 30
0.0
  0
VERTEX
  5
143AF
  8
0
 10
117.9995692294758
 20
246.0911248659248
 30
0.0
  0
VERTEX
  5
143B0
  8
0
 10
118.7923802306734
 20
246.57007152988331
 30
0.0
  0
VERTEX
  5
143B1
  8
0
 10
119.19304495005299
 20
246.79909192464251
 30
0.0
  0
VERTEX
  5
143B2
  8
0
 10
119.59643634009829
 20
247.0210786072542
 30
0.0
  0
VERTEX
  5
143B3
  8
0
 10
120.4110572460088
 20
247.44376450102331
 30
0.0
  0
VERTEX
  5
143B4
  8
0
 10
121.23555369779039
 20
247.8377715767254
 30
0.0
  0
VERTEX
  5
143B5
  8
0
 10
122.0692280891305
 20
248.20276646503891
 30
0.0
  0
VERTEX
  5
143B6
  8
0
 10
122.91137504826401
 20
248.53844034384869
 30
0.0
  0
VERTEX
  5
143B7
  8
0
 10
123.7612820347865
 20
248.84450919954071
 30
0.0
  0
VERTEX
  5
143B8
  8
0
 10
124.1889210575175
 20
248.986359832609
 30
0.0
  0
VERTEX
  5
143B9
  8
0
 10
124.6182299425375
 20
249.12071406730669
 30
0.0
  0
VERTEX
  5
143BA
  8
0
 10
125.481493708032
 20
249.36682125025371
 30
0.0
  0
VERTEX
  5
143BB
  8
0
 10
126.3503429239406
 20
249.5826225171343
 30
0.0
  0
VERTEX
  5
143BC
  8
0
 10
127.22404245708481
 20
249.76793527853201
 30
0.0
  0
VERTEX
  5
143BD
  8
0
 10
128.1018530704325
 20
249.9226027413504
 30
0.0
  0
VERTEX
  5
143BE
  8
0
 10
128.9830320485687
 20
250.04649404147429
 30
0.0
  0
VERTEX
  5
143BF
  8
0
 10
129.42465177934059
 20
250.09686485314549
 30
0.0
  0
VERTEX
  5
143C0
  8
0
 10
129.86683382610471
 20
250.1395043544947
 30
0.0
  0
VERTEX
  5
143C1
  8
0
 10
130.75251061850139
 20
250.2015549844017
 30
0.0
  0
VERTEX
  5
143C2
  8
0
 10
131.63931305477101
 20
250.2325934301669
 30
0.0
  0
VERTEX
  5
143C3
  8
0
 10
132.08290193314431
 20
250.23647385150281
 30
0.0
  0
VERTEX
  5
143C4
  8
0
 10
132.5264908115175
 20
250.2325934301669
 30
0.0
  0
VERTEX
  5
143C5
  8
0
 10
133.4132932477871
 20
250.2015549844017
 30
0.0
  0
VERTEX
  5
143C6
  8
0
 10
134.2989700401838
 20
250.1395043544947
 30
0.0
  0
VERTEX
  5
143C7
  8
0
 10
134.74115208694801
 20
250.09686485314549
 30
0.0
  0
VERTEX
  5
143C8
  8
0
 10
135.18277181771981
 20
250.04649404147429
 30
0.0
  0
VERTEX
  5
143C9
  8
0
 10
136.06395079585559
 20
249.9226027413504
 30
0.0
  0
VERTEX
  5
143CA
  8
0
 10
136.94176140920371
 20
249.76793527853201
 30
0.0
  0
VERTEX
  5
143CB
  8
0
 10
137.8154609423475
 20
249.5826225171343
 30
0.0
  0
VERTEX
  5
143CC
  8
0
 10
138.68431015825649
 20
249.36682125025371
 30
0.0
  0
VERTEX
  5
143CD
  8
0
 10
139.54757392375109
 20
249.12071406730669
 30
0.0
  0
VERTEX
  5
143CE
  8
0
 10
139.97688280877099
 20
248.986359832609
 30
0.0
  0
VERTEX
  5
143CF
  8
0
 10
140.4045218315016
 20
248.84450919954071
 30
0.0
  0
VERTEX
  5
143D0
  8
0
 10
141.25442881802451
 20
248.53844034384869
 30
0.0
  0
VERTEX
  5
143D1
  8
0
 10
142.09657577715799
 20
248.20276646503891
 30
0.0
  0
VERTEX
  5
143D2
  8
0
 10
142.93025016849811
 20
247.8377715767258
 30
0.0
  0
VERTEX
  5
143D3
  8
0
 10
143.75474662027929
 20
247.44376450102331
 30
0.0
  0
VERTEX
  5
143D4
  8
0
 10
144.56936752618981
 20
247.0210786072542
 30
0.0
  0
VERTEX
  5
143D5
  8
0
 10
144.97275891623551
 20
246.79909192464251
 30
0.0
  0
VERTEX
  5
143D6
  8
0
 10
145.3734236356151
 20
246.57007152988331
 30
0.0
  0
VERTEX
  5
143D7
  8
0
 10
146.1662346368127
 20
246.0911248659248
 30
0.0
  0
VERTEX
  5
143D8
  8
0
 10
146.9471297325251
 20
245.58464385207191
 30
0.0
  0
VERTEX
  5
143D9
  8
0
 10
147.71544820753999
 20
245.0510570218278
 30
0.0
  0
VERTEX
  5
143DA
  8
0
 10
148.4705399877223
 20
244.4908158429219
 30
0.0
  0
VERTEX
  5
143DB
  8
0
 10
149.21176619004081
 20
243.90439433532299
 30
0.0
  0
VERTEX
  5
143DC
  8
0
 10
149.5769832418512
 20
243.60152015781779
 30
0.0
  0
VERTEX
  5
143DD
  8
0
 10
149.58290193314369
 20
243.5964574674237
 30
0.0
  0
SEQEND
  5
143DE
  8
0
  0
LINE
  5
F53E
  8
3
 10
96.582901933143845
 20
195.9766887314203
 30
0.0
 11
99.58290193314383
 21
195.9766887314203
 31
0.0
  0
LINE
  5
F53F
  8
3
 10
96.582901933143845
 20
189.5106887314204
 30
0.0
 11
99.58290193314383
 21
189.5106887314204
 31
0.0
  0
LINE
  5
F5C0
  8
1
 10
257.08611600360501
 20
380.98045729116279
 30
0.0
 11
415.71851596449022
 21
380.98045729116279
 31
0.0
  0
LINE
  5
F5C4
  8
1
 10
353.9023159840475
 20
435.2966572716054
 30
0.0
 11
353.9023159840475
 21
326.6642573107203
 31
0.0
  0
LINE
  5
F5C7
  8
1
 10
306.42910223458398
 20
350.98045729116251
 30
0.0
 11
321.3755297335112
 21
350.98045729116262
 31
0.0
  0
LINE
  5
F5C8
  8
1
 10
313.90231598404762
 20
358.4536710406262
 30
0.0
 11
313.90231598404762
 21
343.50724354169881
 31
0.0
  0
LINE
  5
F5C9
  8
1
 10
308.92910223458392
 20
358.48045729116262
 30
0.0
 11
323.87552973351131
 21
358.48045729116262
 31
0.0
  0
LINE
  5
F5CA
  8
1
 10
316.40231598404762
 20
365.9536710406262
 30
0.0
 11
316.40231598404762
 21
351.00724354169881
 31
0.0
  0
LINE
  5
F5CB
  8
1
 10
306.4291022345837
 20
410.98045729116228
 30
0.0
 11
321.37552973351097
 21
410.98045729116239
 31
0.0
  0
LINE
  5
F5CC
  8
1
 10
313.90231598404739
 20
418.4536710406262
 30
0.0
 11
313.90231598404739
 21
403.50724354169881
 31
0.0
  0
LINE
  5
F5CD
  8
1
 10
308.9291022345837
 20
403.48045729116251
 30
0.0
 11
323.87552973351109
 21
403.48045729116251
 31
0.0
  0
LINE
  5
F5CE
  8
1
 10
316.40231598404739
 20
410.9536710406262
 30
0.0
 11
316.40231598404739
 21
396.00724354169881
 31
0.0
  0
LINE
  5
F5CF
  8
1
 10
383.92910223458398
 20
358.48045729116279
 30
0.0
 11
398.87552973351131
 21
358.48045729116291
 31
0.0
  0
LINE
  5
F5D0
  8
1
 10
391.40231598404762
 20
365.95367104062649
 30
0.0
 11
391.40231598404762
 21
351.0072435416991
 31
0.0
  0
LINE
  5
F5D1
  8
1
 10
386.42910223458398
 20
350.98045729116279
 30
0.0
 11
401.3755297335112
 21
350.98045729116291
 31
0.0
  0
LINE
  5
F5D2
  8
1
 10
393.90231598404762
 20
358.45367104062649
 30
0.0
 11
393.90231598404762
 21
343.50724354169921
 31
0.0
  0
LINE
  5
F5D3
  8
1
 10
383.9291022345837
 20
403.48045729116268
 30
0.0
 11
398.87552973351097
 21
403.48045729116291
 31
0.0
  0
LINE
  5
F5D4
  8
1
 10
391.40231598404739
 20
410.95367104062649
 30
0.0
 11
391.40231598404739
 21
396.0072435416991
 31
0.0
  0
LINE
  5
F5D5
  8
1
 10
386.42910223458381
 20
410.98045729116268
 30
0.0
 11
401.37552973351097
 21
410.98045729116279
 31
0.0
  0
LINE
  5
F5D6
  8
1
 10
393.90231598404739
 20
418.45367104062649
 30
0.0
 11
393.90231598404739
 21
403.5072435416991
 31
0.0
  0
LINE
  5
13EE7
  8
3
 10
107.5829019331438
 20
195.9766887314203
 30
0.0
 11
109.5829019331438
 21
195.9766887314203
 31
0.0
  0
LINE
  5
13EE8
  8
3
 10
107.5829019331438
 20
189.5106887314204
 30
0.0
 11
109.5829019331438
 21
189.5106887314204
 31
0.0
  0
LINE
  5
13EE9
  8
3
 10
154.5829019331438
 20
195.9766887314203
 30
0.0
 11
156.5829019331438
 21
195.9766887314203
 31
0.0
  0
LINE
  5
13EEA
  8
3
 10
154.5829019331438
 20
189.5106887314204
 30
0.0
 11
156.5829019331438
 21
189.5106887314204
 31
0.0
  0
TEXT
  5
13F58
  8
0
 62
     3
 10
0.0
 20
0.0
 30
0.0
 40
10.0
  1
CAFF-100SBL-SUS
  7
STANDARD1
  0
ENDSEC
  0
EOF
