  0
SECTION
  2
HEADER
  9
$ACADVER
  1
AC1009
  9
$INSBASE
 10
0.0
 20
0.0
 30
0.0
  9
$EXTMIN
 10
0.0
 20
-2.960436562073669
 30
0.0
  9
$EXTMAX
 10
611.37739324007748
 20
489.65703333576317
 30
0.0
  9
$LIMMIN
 10
0.0
 20
0.0
  9
$LIMMAX
 10
375.0
 20
270.0
  9
$ORTHOMODE
 70
     1
  9
$REGENMODE
 70
     1
  9
$FILLMODE
 70
     1
  9
$QTEXTMODE
 70
     0
  9
$MIRRTEXT
 70
     1
  9
$DRAGMODE
 70
     2
  9
$LTSCALE
 40
10.0
  9
$OSMODE
 70
  3071
  9
$ATTMODE
 70
     1
  9
$TEXTSIZE
 40
5.0
  9
$TRACEWID
 40
0.05
  9
$TEXTSTYLE
  7
STANDARD
  9
$CLAYER
  8
0
  9
$CELTYPE
  6
BYLAYER
  9
$CECOLOR
 62
     6
  9
$DIMSCALE
 40
1.0
  9
$DIMASZ
 40
3.0
  9
$DIMEXO
 40
2.0
  9
$DIMDLI
 40
0.38
  9
$DIMRND
 40
0.0
  9
$DIMDLE
 40
0.0
  9
$DIMEXE
 40
2.0
  9
$DIMTP
 40
0.0
  9
$DIMTM
 40
0.0
  9
$DIMTXT
 40
3.2000000000000002
  9
$DIMCEN
 40
0.0
  9
$DIMTSZ
 40
0.0
  9
$DIMTOL
 70
     0
  9
$DIMLIM
 70
     0
  9
$DIMTIH
 70
     0
  9
$DIMTOH
 70
     0
  9
$DIMSE1
 70
     0
  9
$DIMSE2
 70
     0
  9
$DIMTAD
 70
     1
  9
$DIMZIN
 70
     8
  9
$DIMBLK
  1

  9
$DIMASO
 70
     0
  9
$DIMSHO
 70
     0
  9
$DIMPOST
  1

  9
$DIMAPOST
  1

  9
$DIMALT
 70
     0
  9
$DIMALTD
 70
     2
  9
$DIMALTF
 40
25.399999999999999
  9
$DIMLFAC
 40
1.0
  9
$DIMTOFL
 70
     0
  9
$DIMTVP
 40
1.6000000000000001
  9
$DIMTIX
 70
     1
  9
$DIMSOXD
 70
     0
  9
$DIMSAH
 70
     0
  9
$DIMBLK1
  1

  9
$DIMBLK2
  1

  9
$DIMSTYLE
  2
STANDARD
  9
$DIMCLRD
 70
     0
  9
$DIMCLRE
 70
     0
  9
$DIMCLRT
 70
     0
  9
$DIMTFAC
 40
1.0
  9
$DIMGAP
 40
1.1999999999999991
  9
$LUNITS
 70
     2
  9
$LUPREC
 70
     4
  9
$SKETCHINC
 40
0.1
  9
$FILLETRAD
 40
0.0
  9
$AUNITS
 70
     0
  9
$AUPREC
 70
     4
  9
$MENU
  1
ACAD
  9
$ELEVATION
 40
0.0
  9
$PELEVATION
 40
0.0
  9
$THICKNESS
 40
0.0
  9
$LIMCHECK
 70
     0
  9
$BLIPMODE
 70
     0
  9
$CHAMFERA
 40
0.0
  9
$CHAMFERB
 40
0.0
  9
$SKPOLY
 70
     0
  9
$TDCREATE
 40
2448055.7149187499
  9
$TDUPDATE
 40
2456598.576990081
  9
$TDINDWG
 40
2.0664359491000002
  9
$TDUSRTIMER
 40
2.0664359491000002
  9
$USRTIMER
 70
     1
  9
$ANGBASE
 50
0.0
  9
$ANGDIR
 70
     0
  9
$PDMODE
 70
     0
  9
$PDSIZE
 40
0.0
  9
$PLINEWID
 40
0.0
  9
$COORDS
 70
     1
  9
$SPLFRAME
 70
     0
  9
$SPLINETYPE
 70
     6
  9
$SPLINESEGS
 70
     8
  9
$ATTDIA
 70
     0
  9
$ATTREQ
 70
     1
  9
$HANDLING
 70
     1
  9
$HANDSEED
  5
1457F
  9
$SURFTAB1
 70
     6
  9
$SURFTAB2
 70
     6
  9
$SURFTYPE
 70
     6
  9
$SURFU
 70
     6
  9
$SURFV
 70
     6
  9
$UCSNAME
  2

  9
$UCSORG
 10
0.0
 20
0.0
 30
0.0
  9
$UCSXDIR
 10
1.0
 20
0.0
 30
0.0
  9
$UCSYDIR
 10
0.0
 20
1.0
 30
0.0
  9
$PUCSNAME
  2

  9
$PUCSORG
 10
0.0
 20
0.0
 30
0.0
  9
$PUCSXDIR
 10
1.0
 20
0.0
 30
0.0
  9
$PUCSYDIR
 10
0.0
 20
1.0
 30
0.0
  9
$USERI1
 70
     0
  9
$USERI2
 70
     0
  9
$USERI3
 70
     0
  9
$USERI4
 70
     0
  9
$USERI5
 70
     0
  9
$USERR1
 40
0.0
  9
$USERR2
 40
0.0
  9
$USERR3
 40
0.0
  9
$USERR4
 40
0.0
  9
$USERR5
 40
0.0
  9
$WORLDVIEW
 70
     1
  9
$SHADEDGE
 70
     3
  9
$SHADEDIF
 70
    70
  9
$TILEMODE
 70
     1
  9
$MAXACTVP
 70
    16
  9
$PLIMCHECK
 70
     0
  9
$PEXTMIN
 10
1.0000000000000000E+020
 20
1.0000000000000000E+020
 30
1.0000000000000000E+020
  9
$PEXTMAX
 10
-1.0000000000000000E+020
 20
-1.0000000000000000E+020
 30
-1.0000000000000000E+020
  9
$PLIMMIN
 10
0.0
 20
0.0
  9
$PLIMMAX
 10
12.0
 20
9.0
  9
$UNITMODE
 70
     0
  9
$VISRETAIN
 70
     0
  9
$PLINEGEN
 70
     1
  9
$PSLTSCALE
 70
     0
  0
ENDSEC
  0
SECTION
  2
TABLES
  0
TABLE
  2
VPORT
 70
     1
  0
VPORT
  2
*ACTIVE
 70
     0
 10
0.0
 20
0.0
 11
1.0
 21
1.0
 12
319.33917033655803
 22
243.35288206276911
 13
0.0
 23
0.0
 14
5.0
 24
5.0
 15
10.0
 25
10.0
 16
0.0
 26
0.0
 36
1.0
 17
0.0
 27
0.0
 37
0.0
 40
497.05647086068899
 41
1.831871345029239
 42
50.0
 43
0.0
 44
0.0
 50
0.0
 51
0.0
 71
     0
 72
   500
 73
     1
 74
     1
 75
     0
 76
     0
 77
     0
 78
     2
  0
ENDTAB
  0
TABLE
  2
LTYPE
 70
     3
  0
LTYPE
  2
CONTINUOUS
 70
     0
  3
実線
 72
    65
 73
     0
 40
0.0
  0
LTYPE
  2
CENTER
 70
     0
  3
____ _ ____ _ ____ _ ____ _ ____ _ ____ _ ____
 72
    65
 73
     4
 40
2.0
 49
1.25
 49
-0.25
 49
0.25
 49
-0.25
  0
LTYPE
  2
PHANTOM2
 70
     0
  3
___ _ _ ___ _ _ ___ _ _ ___ _ _
 72
    65
 73
     6
 40
1.25
 49
0.625
 49
-0.125
 49
0.125
 49
-0.125
 49
0.125
 49
-0.125
  0
ENDTAB
  0
TABLE
  2
LAYER
 70
     5
  0
LAYER
  2
0
 70
     0
 62
     7
  6
CONTINUOUS
  0
LAYER
  2
1
 70
     0
 62
     1
  6
CENTER
  0
LAYER
  2
4
 70
     0
 62
     4
  6
CONTINUOUS
  0
LAYER
  2
DEFPOINTS
 70
     0
 62
     7
  6
CONTINUOUS
  0
LAYER
  2
3
 70
     0
 62
     3
  6
CONTINUOUS
  0
ENDTAB
  0
TABLE
  2
STYLE
 70
     3
  0
STYLE
  2
STANDARD
 70
     0
 40
0.0
 41
1.0
 50
0.0
 71
     0
 42
5.0
  3
simplex.shx
  4
bigfont.shx
  0
STYLE
  2
07500
 70
     0
 40
0.0
 41
0.75
 50
0.0
 71
     0
 42
0.2
  3
simplex.shx
  4
bigfont.shx
  0
STYLE
  2
STANDARD1
 70
     0
 40
0.0
 41
1.0
 50
0.0
 71
     0
 42
3.0
  3
txt
  4

  0
ENDTAB
  0
TABLE
  2
VIEW
 70
     2
  0
VIEW
  2
ALL
 70
     0
 40
270.0
 10
220.99159663865549
 20
135.0
 41
0.0
 11
0.0
 21
0.0
 31
1.0
 12
0.0
 22
0.0
 32
0.0
 42
0.0
 43
0.0
 44
0.0
 50
0.0
 71
     0
  0
VIEW
  2
OLE1
 70
     0
 40
168.2487151179721
 10
2892.3009567448912
 20
702.51600084347126
 41
162.5749581879237
 11
0.0
 21
0.0
 31
1.0
 12
0.0
 22
0.0
 32
0.0
 42
50.0
 43
0.0
 44
0.0
 50
0.0
 71
     0
  0
ENDTAB
  0
TABLE
  2
UCS
 70
     0
  0
ENDTAB
  0
TABLE
  2
APPID
 70
    48
  0
APPID
  2
ACAD
 70
     0
  0
APPID
  2
DCO15
 70
     0
  0
APPID
  2
GENIUS_GENOREF_13
 70
     0
  0
APPID
  2
GENIUS_GENOENT_13
 70
     0
  0
APPID
  2
GENIUS_GENBH_13
 70
     0
  0
APPID
  2
GENIUS_GENOBJ_13
 70
     0
  0
APPID
  2
GENIUS_GENODEF_13
 70
     0
  0
APPID
  2
GENIUS_GENOLIS_13
 70
     0
  0
APPID
  2
GENIUS_GENOBJ-NBEHI-BHF_13
 70
     0
  0
APPID
  2
GENIUS_GENOBJ-NBEHI-BHB_13
 70
     0
  0
APPID
  2
GENIUS_GENOBJ-F-PART_13
 70
     0
  0
APPID
  2
GENIUS_GEFSTDP_13
 70
     0
  0
APPID
  2
GENIUS_GENOBJ-N-RSSYM_13
 70
     0
  0
APPID
  2
GENIUS_GENSYMENT_13
 70
     0
  0
APPID
  2
GENIUS_GENOBJ-N-TIT_13
 70
     0
  0
APPID
  2
GENIUS_GENTITLE_13
 70
     0
  0
APPID
  2
GENIUS_GENZVEED_13
 70
     0
  0
APPID
  2
GENIUS_GENOBJ-N-LEADER_13
 70
     0
  0
APPID
  2
GENIUS_GENOBJ-N-FIL_13
 70
     0
  0
APPID
  2
GENIUS_GENOBJ-N-SEC_13
 70
     0
  0
APPID
  2
GENIUS_GENOBJ-N-CRS_13
 70
     0
  0
APPID
  2
GENIUS_GENOBJ-N-ZOO_13
 70
     0
  0
APPID
  2
GENIUS_GENZOO_13
 70
     0
  0
APPID
  2
GENIUS_GENOBJ-F-TOL_13
 70
     0
  0
APPID
  2
GENIUS_GENFIL_13
 70
     0
  0
APPID
  2
GENIUS_GENOBJ-N-CHA_13
 70
     0
  0
APPID
  2
_CALL_MAC$
 70
     0
  0
APPID
  2
ASM_BASE
 70
     0
  0
APPID
  2
ASM_EXPLO_VER_2_00
 70
     0
  0
APPID
  2
ASM_CADM_VER_12_00
 70
     0
  0
APPID
  2
ASM_BASEFORO
 70
     0
  0
APPID
  2
ASM_BASETRAVI
 70
     0
  0
APPID
  2
ASM_BASETRAVI1
 70
     0
  0
APPID
  2
ASM_GRUPPI
 70
     0
  0
APPID
  2
ASM_CADM_ALBERO
 70
     0
  0
APPID
  2
ASM_GOLE
 70
     0
  0
APPID
  2
ACAD_MLEADERVER
 70
     0
  0
APPID
  2
ACAD_DSTYLE_DIMJAG
 70
     0
  0
APPID
  2
ACAD_DSTYLE_DIMTALN
 70
     0
  0
APPID
  2
ACAD_EXEMPT_FROM_CAD_STANDARDS
 70
     0
  0
APPID
  2
ACAD_DSTYLE_DIMRADIAL_EXTENSION
 70
     0
  0
APPID
  2
ACAD_PSEXT
 70
     0
  0
APPID
  2
ACAD_DSTYLE_DIMBREAK
 70
     0
  0
APPID
  2
ACAECLAYERSTANDARD
 70
     0
  0
APPID
  2
ACCMTRANSPARENCY
 70
     0
  0
APPID
  2
GRADIENTCOLOR1ACI
 70
     0
  0
APPID
  2
GRADIENTCOLOR2ACI
 70
     0
  0
APPID
  2
ACAD_NAV_VCDISPLAY
 70
     0
  0
ENDTAB
  0
TABLE
  2
DIMSTYLE
 70
     1
  0
DIMSTYLE
  2
STANDARD
 70
     0
  3

  4

  5

  6

  7

 40
1.0
 41
0.18
 42
0.0625
 43
0.38
 44
0.18
 45
0.0
 46
0.0
 47
0.0
 48
0.0
140
0.18
141
0.09
142
0.0
143
25.399999999999999
144
1.0
145
0.0
146
1.0
147
0.09
 71
     0
 72
     0
 73
     1
 74
     1
 75
     0
 76
     0
 77
     0
 78
     0
170
     0
171
     2
172
     0
173
     0
174
     0
175
     0
176
     0
177
     0
178
     0
  0
ENDTAB
  0
ENDSEC
  0
SECTION
  2
BLOCKS
  0
BLOCK
  8
0
  2
$MODEL_SPACE
 70
     0
 10
0.0
 20
0.0
 30
0.0
  3
$MODEL_SPACE
  1

  0
ENDBLK
  5
36
  8
0
  0
BLOCK
 67
     1
  8
0
  2
$PAPER_SPACE
 70
     0
 10
0.0
 20
0.0
 30
0.0
  3
$PAPER_SPACE
  1

  0
ENDBLK
  5
34
 67
     1
  8
0
  0
ENDSEC
  0
SECTION
  2
ENTITIES
  0
LINE
  5
8CF0
  8
0
 10
305.90231598404762
 20
401.27251748446008
 30
0.0
 11
305.90231598404762
 21
468.27251748446008
 31
0.0
  0
ARC
  5
8CF1
  8
0
 10
314.90231598404762
 20
401.27251748446008
 30
0.0
 40
8.9999999999999911
 50
180.0
 51
270.0
  0
LINE
  5
8CF2
  8
0
 10
396.90231598404762
 20
392.27251748446008
 30
0.0
 11
314.90231598404762
 21
392.27251748446008
 31
0.0
  0
ARC
  5
8CF3
  8
0
 10
396.90231598404762
 20
401.27251748446008
 30
0.0
 40
9.0000000000000142
 50
270.0
 51
0.0
  0
LINE
  5
8CF4
  8
0
 10
405.90231598404762
 20
468.27251748446008
 30
0.0
 11
405.90231598404762
 21
401.27251748446008
 31
0.0
  0
ARC
  5
8CF5
  8
0
 10
396.90231598404762
 20
468.27251748446008
 30
0.0
 40
9.0
 50
0.0
 51
90.0
  0
LINE
  5
8CF6
  8
0
 10
314.90231598404762
 20
477.27251748446008
 30
0.0
 11
396.90231598404762
 21
477.27251748446008
 31
0.0
  0
ARC
  5
8CF7
  8
0
 10
314.90231598404762
 20
468.27251748446008
 30
0.0
 40
8.9999999999999947
 50
90.0
 51
180.0
  0
LINE
  5
8CF8
  8
0
 10
400.17139082527478
 20
463.34949253738438
 30
0.0
 11
397.67139082527478
 21
455.84949253738438
 31
0.0
  0
ARC
  5
8CF9
  8
0
 10
393.40231598404762
 20
457.27251748446008
 30
0.0
 40
4.499999999999968
 50
161.56505117708619
 51
341.56505117708622
  0
LINE
  5
8CFA
  8
0
 10
389.13324114282051
 20
458.69554243153573
 30
0.0
 11
391.6332411428204
 21
466.19554243153601
 31
0.0
  0
ARC
  5
8CFB
  8
0
 10
395.90231598404762
 20
464.77251748446008
 30
0.0
 40
4.499999999999968
 50
341.56505117708622
 51
161.56505117708619
  0
LINE
  5
8CFC
  8
0
 10
391.6332411428204
 20
403.34949253738449
 30
0.0
 11
389.13324114282051
 21
410.84949253738449
 31
0.0
  0
ARC
  5
8CFD
  8
0
 10
393.40231598404762
 20
412.27251748446008
 30
0.0
 40
4.4999999999999938
 50
18.434948822913771
 51
198.4349488229137
  0
LINE
  5
8CFE
  8
0
 10
397.67139082527478
 20
413.69554243153601
 30
0.0
 11
400.17139082527478
 21
406.1955424315359
 31
0.0
  0
ARC
  5
8CFF
  8
0
 10
395.90231598404762
 20
404.77251748446008
 30
0.0
 40
4.4999999999999929
 50
198.4349488229137
 51
18.434948822913771
  0
LINE
  5
8D06
  8
1
 10
386.54382070103338
 20
412.27251748446082
 30
0.0
 11
400.26081126706163
 21
412.27251748446082
 31
0.0
  0
LINE
  5
8D07
  8
1
 10
393.40231598404762
 20
405.41402220144653
 30
0.0
 11
393.40231598404762
 21
419.13101276747477
 31
0.0
  0
LINE
  5
8D08
  8
1
 10
389.04382070103361
 20
404.77251748446071
 30
0.0
 11
402.76081126706163
 21
404.77251748446071
 31
0.0
  0
LINE
  5
8D09
  8
1
 10
395.90231598404762
 20
397.91402220144658
 30
0.0
 11
395.90231598404762
 21
411.63101276747477
 31
0.0
  0
LINE
  5
8D0A
  8
1
 10
386.54382070103338
 20
457.2725174844594
 30
0.0
 11
400.26081126706163
 21
457.2725174844594
 31
0.0
  0
LINE
  5
8D0B
  8
1
 10
393.40231598404762
 20
464.13101276747369
 30
0.0
 11
393.40231598404762
 21
450.41402220144539
 31
0.0
  0
LINE
  5
8D0C
  8
1
 10
389.04382070103361
 20
464.7725174844594
 30
0.0
 11
402.76081126706163
 21
464.7725174844594
 31
0.0
  0
LINE
  5
8D0D
  8
1
 10
395.90231598404762
 20
471.63101276747369
 30
0.0
 11
395.90231598404762
 21
457.91402220144539
 31
0.0
  0
LINE
  5
8D0E
  8
1
 10
226.03446063113961
 20
434.77251748445877
 30
0.0
 11
418.28683183535082
 21
434.77251748446008
 31
0.0
  0
CIRCLE
  5
8D0F
  8
0
 10
355.90231598404762
 20
434.77251748446008
 30
0.0
 40
31.174999999999962
  0
CIRCLE
  5
8D10
  8
0
 10
355.90231598404762
 20
434.77251748446008
 30
0.0
 40
25.649999999999999
  0
CIRCLE
  5
8D11
  8
0
 10
355.90231598404762
 20
434.77251748446008
 30
0.0
 40
20.149999999999999
  0
CIRCLE
  5
8D12
  8
0
 10
355.90231598404762
 20
434.77251748446008
 30
0.0
 40
23.802288713680579
  0
CIRCLE
  5
8D13
  8
0
 10
355.90231598404762
 20
434.77251748446008
 30
0.0
 40
13.5
  0
CIRCLE
  5
8D14
  8
0
 10
355.90231598404762
 20
434.77251748446008
 30
0.0
 40
9.0
  0
LINE
  5
8D15
  8
1
 10
355.90231598404762
 20
379.88800163315699
 30
0.0
 11
355.90231598404762
 21
489.65703333576317
 31
0.0
  0
LINE
  5
8D1A
  8
0
 10
305.90231598404762
 20
413.37251748446022
 30
0.0
 11
260.41897648244299
 21
413.37251748446022
 31
0.0
  0
LINE
  5
8D1B
  8
0
 10
305.90231598404762
 20
456.17251748446017
 30
0.0
 11
260.41897648244299
 21
456.17251748446017
 31
0.0
  0
ARC
  5
8D1C
  8
0
 10
260.41897648244299
 20
454.17251748446017
 30
0.0
 40
2.0
 50
90.0
 51
180.0
  0
LINE
  5
8D1D
  8
0
 10
258.41897648244299
 20
454.17251748446017
 30
0.0
 11
258.41897648244299
 21
415.37251748445999
 31
0.0
  0
LINE
  5
8D1E
  8
0
 10
238.4189764824427
 20
450.79403816777551
 30
0.0
 11
238.4189764824427
 21
418.75099680114192
 31
0.0
  0
LINE
  5
8D1F
  8
0
 10
242.96313674647061
 20
453.77251748446008
 30
0.0
 11
242.96313674647061
 21
415.77251748446008
 31
0.0
  0
LINE
  5
8D20
  8
0
 10
255.41897648244299
 20
450.77251748446008
 30
0.0
 11
255.41897648244321
 21
418.77251748445991
 31
0.0
  0
LINE
  5
8D21
  8
0
 10
258.41897648244299
 20
453.77251748446008
 30
0.0
 11
240.0130861810587
 21
453.77251748446008
 31
0.0
  0
LINE
  5
8D22
  8
0
 10
255.41897648244299
 20
450.77251748446008
 30
0.0
 11
258.41897648244299
 21
450.77251748446008
 31
0.0
  0
LINE
  5
8D23
  8
0
 10
258.41897648244299
 20
415.77251748446008
 30
0.0
 11
240.0130861810585
 21
415.77251748446008
 31
0.0
  0
LINE
  5
8D24
  8
0
 10
255.41897648244409
 20
418.77251748445991
 30
0.0
 11
258.4189764824439
 21
418.77251748446008
 31
0.0
  0
ARC
  5
8D55
  8
0
 10
242.7554158760845
 20
450.38896645801498
 30
0.0
 40
4.3553174057440378
 50
129.0243741561508
 51
174.6634221469499
  0
ARC
  5
8D56
  8
0
 10
242.7554158760843
 20
419.15606851090519
 30
0.0
 40
4.3553174057440378
 50
185.33657785304999
 51
230.9756258438492
  0
ARC
  5
8D57
  8
0
 10
260.41897648244299
 20
415.37251748445999
 30
0.0
 40
2.0
 50
180.0
 51
270.0
  0
LINE
  5
8D70
  8
0
 10
311.63324114282051
 20
463.34949253738438
 30
0.0
 11
314.13324114282051
 21
455.84949253738438
 31
0.0
  0
ARC
  5
8D71
  8
0
 10
318.40231598404762
 20
457.27251748446008
 30
0.0
 40
4.499999999999968
 50
198.4349488229137
 51
18.434948822913771
  0
LINE
  5
8D72
  8
0
 10
322.67139082527478
 20
458.69554243153573
 30
0.0
 11
320.17139082527478
 21
466.19554243153601
 31
0.0
  0
ARC
  5
8D73
  8
0
 10
315.90231598404762
 20
464.77251748446008
 30
0.0
 40
4.499999999999968
 50
18.434948822913771
 51
198.4349488229137
  0
LINE
  5
8D74
  8
0
 10
320.17139082527478
 20
403.34949253738449
 30
0.0
 11
322.67139082527478
 21
410.84949253738449
 31
0.0
  0
ARC
  5
8D75
  8
0
 10
318.40231598404762
 20
412.27251748446008
 30
0.0
 40
4.4999999999999938
 50
341.56505117708622
 51
161.56505117708619
  0
LINE
  5
8D76
  8
0
 10
314.13324114282051
 20
413.69554243153601
 30
0.0
 11
311.63324114282051
 21
406.1955424315359
 31
0.0
  0
ARC
  5
8D77
  8
0
 10
315.90231598404762
 20
404.77251748446008
 30
0.0
 40
4.4999999999999929
 50
161.56505117708619
 51
341.56505117708622
  0
LINE
  5
8D78
  8
1
 10
325.26081126706191
 20
412.27251748446082
 30
0.0
 11
311.54382070103361
 21
412.27251748446082
 31
0.0
  0
LINE
  5
8D79
  8
1
 10
318.40231598404762
 20
405.41402220144653
 30
0.0
 11
318.40231598404762
 21
419.13101276747477
 31
0.0
  0
LINE
  5
8D7A
  8
1
 10
322.76081126706163
 20
404.77251748446071
 30
0.0
 11
309.04382070103361
 21
404.77251748446071
 31
0.0
  0
LINE
  5
8D7B
  8
1
 10
315.90231598404762
 20
397.91402220144658
 30
0.0
 11
315.90231598404762
 21
411.63101276747477
 31
0.0
  0
LINE
  5
8D7C
  8
1
 10
325.26081126706191
 20
457.2725174844594
 30
0.0
 11
311.54382070103361
 21
457.2725174844594
 31
0.0
  0
LINE
  5
8D7D
  8
1
 10
318.40231598404762
 20
464.13101276747369
 30
0.0
 11
318.40231598404762
 21
450.41402220144539
 31
0.0
  0
LINE
  5
8D7E
  8
1
 10
322.76081126706163
 20
464.7725174844594
 30
0.0
 11
309.04382070103361
 21
464.7725174844594
 31
0.0
  0
LINE
  5
8D7F
  8
1
 10
315.90231598404762
 20
471.63101276747369
 30
0.0
 11
315.90231598404762
 21
457.91402220144539
 31
0.0
  0
LINE
  5
8DC6
  8
0
 10
390.70231598404729
 20
292.44368873141968
 30
0.0
 11
390.70231598404729
 21
293.24368873141992
 31
0.0
  0
LINE
  5
8DC7
  8
0
 10
321.10231598404749
 20
293.24368873141992
 30
0.0
 11
321.10231598404749
 21
292.44368873141968
 31
0.0
  0
LINE
  5
8DC8
  8
0
 10
390.40353664802518
 20
283.94368873141968
 30
0.0
 11
391.90231598404722
 21
292.44368873141968
 31
0.0
  0
LINE
  5
8DC9
  8
0
 10
319.90231598404722
 20
292.44368873141968
 30
0.0
 11
321.40109532006932
 21
283.94368873141968
 31
0.0
  0
LINE
  5
8DCA
  8
0
 10
388.90231598404722
 20
278.24368873141992
 30
0.0
 11
388.90231598404722
 21
283.94368873141968
 31
0.0
  0
LINE
  5
8DCB
  8
0
 10
322.90231598404739
 20
283.94368873141968
 30
0.0
 11
322.90231598404739
 21
281.94368873141968
 31
0.0
  0
LINE
  5
8DCC
  8
0
 10
405.90231598404711
 20
295.74368873141992
 30
0.0
 11
405.90231598404711
 21
293.24368873141992
 31
0.0
  0
LINE
  5
8DCE
  8
0
 10
305.90231598404739
 20
295.74368873141992
 30
0.0
 11
305.90231598404739
 21
293.24368873141992
 31
0.0
  0
LINE
  5
8DCF
  8
0
 10
305.90231598404739
 20
295.74368873141992
 30
0.0
 11
405.90231598404711
 21
295.74368873141992
 31
0.0
  0
LINE
  5
8DD1
  8
0
 10
305.90231598404739
 20
293.24368873141992
 30
0.0
 11
405.90231598404711
 21
293.24368873141992
 31
0.0
  0
LINE
  5
8DD2
  8
0
 10
319.90231598404739
 20
292.44368873141968
 30
0.0
 11
391.90231598404722
 21
292.44368873141968
 31
0.0
  0
LINE
  5
8DD3
  8
0
 10
321.40109532006932
 20
283.94368873141968
 30
0.0
 11
390.40353664802518
 21
283.94368873141968
 31
0.0
  0
LINE
  5
8DD4
  8
0
 10
330.86734044980722
 20
281.94368873141968
 30
0.0
 11
315.20231598404729
 21
281.94368873141968
 31
0.0
  0
LINE
  5
8DD5
  8
0
 10
330.86734044980722
 20
281.94368873141968
 30
0.0
 11
330.86734044980722
 21
195.37204995221211
 31
0.0
  0
LINE
  5
8DD6
  8
0
 10
315.20231598404729
 20
281.94368873141968
 30
0.0
 11
315.20231598404729
 21
278.24368873141992
 31
0.0
  0
LINE
  5
8DD7
  8
0
 10
315.20231598404729
 20
278.24368873141992
 30
0.0
 11
304.30741195700148
 21
203.68967431072329
 31
0.0
  0
LINE
  5
8DD8
  8
0
 10
314.20231598404729
 20
192.24368873141989
 30
0.0
 11
323.60231598404738
 21
192.24368873141989
 31
0.0
  0
POLYLINE
  5
8DD9
  8
0
 66
     1
 10
0.0
 20
0.0
 30
0.0
  0
VERTEX
  5
1418F
  8
0
 10
331.79965286050952
 20
196.51624007309121
 30
0.0
  0
VERTEX
  5
14190
  8
0
 10
332.05049279486047
 20
196.8752514875284
 30
0.0
  0
VERTEX
  5
14191
  8
0
 10
332.56089971388042
 20
197.6057647943914
 30
0.0
  0
VERTEX
  5
14192
  8
0
 10
333.08273387527493
 20
198.35263319422859
 30
0.0
  0
VERTEX
  5
14193
  8
0
 10
333.34785655136238
 20
198.73208659820071
 30
0.0
  0
VERTEX
  5
14194
  8
0
 10
333.61573980502408
 20
199.11549104315111
 30
0.0
  0
VERTEX
  5
14195
  8
0
 10
334.15965655975288
 20
199.89396486932509
 30
0.0
  0
VERTEX
  5
14196
  8
0
 10
334.71421785448001
 20
200.6876735558123
 30
0.0
  0
VERTEX
  5
14197
  8
0
 10
335.2791521929837
 20
201.49622852715419
 30
0.0
  0
VERTEX
  5
14198
  8
0
 10
335.85418300071802
 20
202.31923393960571
 30
0.0
  0
VERTEX
  5
14199
  8
0
 10
336.4390287602148
 20
203.1562868749285
 30
0.0
  0
VERTEX
  5
1419A
  8
0
 10
336.73504295495383
 20
203.57995336575931
 30
0.0
  0
VERTEX
  5
1419B
  8
0
 10
337.03340314890602
 20
204.00697753764749
 30
0.0
  0
VERTEX
  5
1419C
  8
0
 10
337.63701517929849
 20
204.87088945567371
 30
0.0
  0
VERTEX
  5
1419D
  8
0
 10
338.24956934143353
 20
205.7475996841969
 30
0.0
  0
VERTEX
  5
1419E
  8
0
 10
338.8707657475577
 20
206.6366790127465
 30
0.0
  0
VERTEX
  5
1419F
  8
0
 10
339.5003002789399
 20
207.53769217531789
 30
0.0
  0
VERTEX
  5
141A0
  8
0
 10
340.13786473475898
 20
208.4501980634688
 30
0.0
  0
VERTEX
  5
141A1
  8
0
 10
340.45956079247122
 20
208.91062138879369
 30
0.0
  0
VERTEX
  5
141A2
  8
0
 10
340.783146982988
 20
209.37374994226931
 30
0.0
  0
VERTEX
  5
141A3
  8
0
 10
341.43583111320532
 20
210.3078956690116
 30
0.0
  0
VERTEX
  5
141A4
  8
0
 10
342.09559759125523
 20
211.25217791456379
 30
0.0
  0
VERTEX
  5
141A5
  8
0
 10
342.4280359038907
 20
211.72797595342601
 30
0.0
  0
VERTEX
  5
141A6
  8
0
 10
342.76212341568072
 20
212.2061343872648
 30
0.0
  0
VERTEX
  5
141A7
  8
0
 10
343.43508227585647
 20
213.16929805924991
 30
0.0
  0
VERTEX
  5
141A8
  8
0
 10
344.11414471173958
 20
214.14119739508959
 30
0.0
  0
VERTEX
  5
141A9
  8
0
 10
344.45586099280217
 20
214.6302744063639
 30
0.0
  0
VERTEX
  5
141AA
  8
0
 10
344.79897827516362
 20
215.12135658264171
 30
0.0
  0
VERTEX
  5
141AB
  8
0
 10
345.4892476925948
 20
216.10929576599409
 30
0.0
  0
VERTEX
  5
141AC
  8
0
 10
346.18461502927181
 20
217.10453128038691
 30
0.0
  0
VERTEX
  5
141AD
  8
0
 10
346.88473985464822
 20
218.1065758889996
 30
0.0
  0
VERTEX
  5
141AE
  8
0
 10
347.58927940905693
 20
219.1149390214884
 30
0.0
  0
VERTEX
  5
141AF
  8
0
 10
348.29788877151441
 20
220.129127014153
 30
0.0
  0
VERTEX
  5
141B0
  8
0
 10
348.65361129350521
 20
220.6382502767535
 30
0.0
  0
VERTEX
  5
141B1
  8
0
 10
349.01022102858451
 20
221.14864335162079
 30
0.0
  0
VERTEX
  5
141B2
  8
0
 10
349.7259274442149
 20
222.17298890992399
 30
0.0
  0
VERTEX
  5
141B3
  8
0
 10
350.44465763046969
 20
223.20166220085699
 30
0.0
  0
VERTEX
  5
141B4
  8
0
 10
351.16605971906671
 20
224.2341596174881
 30
0.0
  0
VERTEX
  5
141B5
  8
0
 10
351.88978053364241
 20
225.26997568071161
 30
0.0
  0
VERTEX
  5
141B6
  8
0
 10
352.61546576265619
 20
226.3086032867138
 30
0.0
  0
VERTEX
  5
141B7
  8
0
 10
352.97893404249839
 20
226.8288125651404
 30
0.0
  0
VERTEX
  5
141B8
  8
0
 10
353.34276013285057
 20
227.34953395523519
 30
0.0
  0
VERTEX
  5
141B9
  8
0
 10
354.07130758318112
 20
228.39225807850849
 30
0.0
  0
VERTEX
  5
141BA
  8
0
 10
354.8007514391345
 20
229.43626517074489
 30
0.0
  0
VERTEX
  5
141BB
  8
0
 10
355.53073458734411
 20
230.4810441180536
 30
0.0
  0
VERTEX
  5
141BC
  8
0
 10
356.2608996504228
 20
231.52608342866799
 30
0.0
  0
VERTEX
  5
141BD
  8
0
 10
356.99088916192289
 20
232.57087148335421
 30
0.0
  0
VERTEX
  5
141BE
  8
0
 10
357.35570639628207
 20
233.0930114355007
 30
0.0
  0
VERTEX
  5
141BF
  8
0
 10
357.72034574134199
 20
233.61489678588691
 30
0.0
  0
VERTEX
  5
141C0
  8
0
 10
358.44891226908499
 20
234.65764821345979
 30
0.0
  0
VERTEX
  5
141C1
  8
0
 10
359.17623206129821
 20
235.6986152669171
 30
0.0
  0
VERTEX
  5
141C2
  8
0
 10
359.90194904449157
 20
236.73728832067829
 30
0.0
  0
VERTEX
  5
141C3
  8
0
 10
360.62570792986162
 20
237.77315887223469
 30
0.0
  0
VERTEX
  5
141C4
  8
0
 10
361.34715438722969
 20
238.8057197910959
 30
0.0
  0
VERTEX
  5
141C5
  8
0
 10
361.70690003205658
 20
239.3206010962646
 30
0.0
  0
VERTEX
  5
141C6
  8
0
 10
362.0659352185105
 20
239.83446556706781
 30
0.0
  0
VERTEX
  5
141C7
  8
0
 10
362.78169853062781
 20
240.8588925577325
 30
0.0
  0
VERTEX
  5
141C8
  8
0
 10
363.4940939077905
 20
241.87849923501719
 30
0.0
  0
VERTEX
  5
141C9
  8
0
 10
364.20277258304532
 20
242.89278643072669
 30
0.0
  0
VERTEX
  5
141CA
  8
0
 10
364.90738760902173
 20
243.90125758092171
 30
0.0
  0
VERTEX
  5
141CB
  8
0
 10
365.60759402778831
 20
244.90341896901981
 30
0.0
  0
VERTEX
  5
141CC
  8
0
 10
365.9559367956831
 20
245.40198005393879
 30
0.0
  0
VERTEX
  5
141CD
  8
0
 10
366.30304903973229
 20
245.89877996750531
 30
0.0
  0
VERTEX
  5
141CE
  8
0
 10
366.99341217138408
 20
246.88685327812499
 30
0.0
  0
VERTEX
  5
141CF
  8
0
 10
367.67834544210251
 20
247.867155170454
 30
0.0
  0
VERTEX
  5
141D0
  8
0
 10
368.01867098304052
 20
248.3542417028973
 30
0.0
  0
VERTEX
  5
141D1
  8
0
 10
368.35751352954048
 20
248.8392057187159
 30
0.0
  0
VERTEX
  5
141D2
  8
0
 10
369.03058393380752
 20
249.80252903673971
 30
0.0
  0
VERTEX
  5
141D3
  8
0
 10
369.6972271402521
 20
250.7566535109392
 30
0.0
  0
VERTEX
  5
141D4
  8
0
 10
370.02803642697017
 20
251.23012002750889
 30
0.0
  0
VERTEX
  5
141D5
  8
0
 10
370.35711678078252
 20
251.7011120312001
 30
0.0
  0
VERTEX
  5
141D6
  8
0
 10
371.00992979364543
 20
252.63544221956289
 30
0.0
  0
VERTEX
  5
141D7
  8
0
 10
371.65534658158731
 20
253.55918665658939
 30
0.0
  0
VERTEX
  5
141D8
  8
0
 10
372.2930511683208
 20
254.47189310530041
 30
0.0
  0
VERTEX
  5
141D9
  8
0
 10
372.92273135321471
 20
255.3731147325781
 30
0.0
  0
VERTEX
  5
141DA
  8
0
 10
373.5440788641406
 20
256.2624103279224
 30
0.0
  0
VERTEX
  5
141DB
  8
0
 10
373.85153264320593
 20
256.70244957598669
 30
0.0
  0
VERTEX
  5
141DC
  8
0
 10
374.15678950839077
 20
257.13934451945102
 30
0.0
  0
VERTEX
  5
141DD
  8
0
 10
374.76056332160368
 20
258.00348798704789
 30
0.0
  0
VERTEX
  5
141DE
  8
0
 10
375.35510471461612
 20
258.85441767254332
 30
0.0
  0
VERTEX
  5
141DF
  8
0
 10
375.94012261817443
 20
259.69171698682987
 30
0.0
  0
VERTEX
  5
141E0
  8
0
 10
376.51533062543467
 20
260.51497601381311
 30
0.0
  0
VERTEX
  5
141E1
  8
0
 10
377.08044713217743
 20
261.3237917110925
 30
0.0
  0
VERTEX
  5
141E2
  8
0
 10
377.35913441873072
 20
261.72265928849828
 30
0.0
  0
VERTEX
  5
141E3
  8
0
 10
377.63519547467189
 20
262.1177681072802
 30
0.0
  0
VERTEX
  5
141E4
  8
0
 10
378.17930406512409
 20
262.89651649585369
 30
0.0
  0
VERTEX
  5
141E5
  8
0
 10
378.7125065246359
 20
263.65965562545921
 30
0.0
  0
VERTEX
  5
141E6
  8
0
 10
379.2345418136174
 20
264.40681188655589
 30
0.0
  0
VERTEX
  5
141E7
  8
0
 10
379.7451543595821
 20
265.13761949432649
 30
0.0
  0
VERTEX
  5
141E8
  8
0
 10
380.24409418227009
 20
265.85172066775363
 30
0.0
  0
VERTEX
  5
141E9
  8
0
 10
380.48911026285259
 20
266.20239676674657
 30
0.0
  0
VERTEX
  5
141EA
  8
0
 10
380.73111701602829
 20
266.54876580477787
 30
0.0
  0
VERTEX
  5
141EB
  8
0
 10
381.20598442939632
 20
267.22841365345369
 30
0.0
  0
VERTEX
  5
141EC
  8
0
 10
381.66846394183591
 20
267.89033147901381
 30
0.0
  0
VERTEX
  5
141ED
  8
0
 10
382.11832913754512
 20
268.5341952267683
 30
0.0
  0
VERTEX
  5
141EE
  8
0
 10
382.55535977630461
 20
269.15968968074981
 30
0.0
  0
VERTEX
  5
141EF
  8
0
 10
382.97934190130218
 20
269.76650861803518
 30
0.0
  0
VERTEX
  5
141F0
  8
0
 10
383.1863746535962
 20
270.0628215692733
 30
0.0
  0
VERTEX
  5
141F1
  8
0
 10
383.390067943877
 20
270.3543549586613
 30
0.0
  0
VERTEX
  5
141F2
  8
0
 10
383.78733682514098
 20
270.92294091106783
 30
0.0
  0
VERTEX
  5
141F3
  8
0
 10
384.17095405441933
 20
271.47198811299012
 30
0.0
  0
VERTEX
  5
141F4
  8
0
 10
384.54073182446842
 20
272.00122776773759
 30
0.0
  0
VERTEX
  5
141F5
  8
0
 10
384.8964891034193
 20
272.51040077578841
 30
0.0
  0
VERTEX
  5
141F6
  8
0
 10
385.2380517234069
 20
272.99925786163448
 30
0.0
  0
VERTEX
  5
141F7
  8
0
 10
385.40345750676028
 20
273.23599275152151
 30
0.0
  0
VERTEX
  5
141F8
  8
0
 10
385.5652524658351
 20
273.46755969582239
 30
0.0
  0
VERTEX
  5
141F9
  8
0
 10
385.87793114324398
 20
273.91507701212021
 30
0.0
  0
VERTEX
  5
141FA
  8
0
 10
386.17593467773207
 20
274.34159071975881
 30
0.0
  0
VERTEX
  5
141FB
  8
0
 10
386.31938739207089
 20
274.54690556331769
 30
0.0
  0
VERTEX
  5
141FC
  8
0
 10
386.45911717589712
 20
274.74689201069231
 30
0.0
  0
VERTEX
  5
141FD
  8
0
 10
386.72734000026321
 20
275.13078246182488
 30
0.0
  0
VERTEX
  5
141FE
  8
0
 10
386.98047183715198
 20
275.49307413215161
 30
0.0
  0
VERTEX
  5
141FF
  8
0
 10
387.10133961826392
 20
275.66606458189489
 30
0.0
  0
VERTEX
  5
14200
  8
0
 10
387.21838876097081
 20
275.8335896547689
 30
0.0
  0
VERTEX
  5
14201
  8
0
 10
387.44097429488153
 20
276.15216232370778
 30
0.0
  0
VERTEX
  5
14202
  8
0
 10
387.64811946782589
 20
276.4486361755487
 30
0.0
  0
VERTEX
  5
14203
  8
0
 10
387.8397228678723
 20
276.7228660657762
 30
0.0
  0
VERTEX
  5
14204
  8
0
 10
388.01569069186598
 20
276.97471773983642
 30
0.0
  0
VERTEX
  5
14205
  8
0
 10
388.17593679135052
 20
277.20406789886482
 30
0.0
  0
VERTEX
  5
14206
  8
0
 10
388.25013937654762
 20
277.3102693900089
 30
0.0
  0
VERTEX
  5
14207
  8
0
 10
388.32038271474499
 20
277.41080426004942
 30
0.0
  0
VERTEX
  5
14208
  8
0
 10
388.4489577457494
 20
277.59482561160092
 30
0.0
  0
VERTEX
  5
14209
  8
0
 10
388.56159893796797
 20
277.75604186230271
 30
0.0
  0
VERTEX
  5
1420A
  8
0
 10
388.65825114572363
 20
277.89437408561679
 30
0.0
  0
VERTEX
  5
1420B
  8
0
 10
388.73886705105588
 20
278.00975455832503
 30
0.0
  0
VERTEX
  5
1420C
  8
0
 10
388.803407186887
 20
278.1021267936818
 30
0.0
  0
VERTEX
  5
1420D
  8
0
 10
388.82963865933772
 20
278.13967024963779
 30
0.0
  0
VERTEX
  5
1420E
  8
0
 10
388.85183995634412
 20
278.1714455690705
 30
0.0
  0
VERTEX
  5
1420F
  8
0
 10
388.8841416482262
 20
278.2176769481427
 30
0.0
  0
VERTEX
  5
14210
  8
0
 10
388.90029644861511
 20
278.24079829743067
 30
0.0
  0
VERTEX
  5
14211
  8
0
 10
388.90231598404722
 20
278.24368873141992
 30
0.0
  0
SEQEND
  5
14212
  8
0
  0
ARC
  5
8DDA
  8
0
 10
323.60231598404738
 20
202.24368873141989
 30
0.0
 40
9.9999999999999964
 50
270.0
 51
316.59397758948558
  0
POLYLINE
  5
8DDB
  8
0
 66
     1
 10
0.0
 20
0.0
 30
0.0
  0
VERTEX
  5
14213
  8
0
 10
330.86734044980722
 20
195.37204995221211
 30
0.0
  0
VERTEX
  5
14214
  8
0
 10
331.02683342623749
 20
195.5446932283154
 30
0.0
  0
VERTEX
  5
14215
  8
0
 10
331.34234104588222
 20
195.9118633988507
 30
0.0
  0
VERTEX
  5
14216
  8
0
 10
331.64997616743682
 20
196.30776710351
 30
0.0
  0
VERTEX
  5
14217
  8
0
 10
331.79965286050952
 20
196.51624007309121
 30
0.0
  0
SEQEND
  5
14218
  8
0
  0
ARC
  5
8DDC
  8
0
 10
314.20231598404729
 20
202.24368873141989
 30
0.0
 40
10.0
 50
171.6859667352154
 51
270.0
  0
LINE
  5
8DDD
  8
0
 10
306.93563698083813
 20
281.74368873141992
 30
0.0
 11
258.41897648244282
 21
268.74368873141992
 31
0.0
  0
LINE
  5
8DDE
  8
0
 10
315.20231598404729
 20
281.74368873141992
 30
0.0
 11
306.93563698083813
 21
281.74368873141992
 31
0.0
  0
LINE
  5
8DDF
  8
0
 10
261.90231598404739
 20
255.74368873141989
 30
0.0
 11
311.9142926292584
 21
255.74368873141989
 31
0.0
  0
LINE
  5
8DE0
  8
0
 10
258.41897648244247
 20
268.74368873141992
 30
0.0
 11
261.90231598404739
 21
255.74368873141989
 31
0.0
  0
LINE
  5
8DE1
  8
0
 10
238.4189764824427
 20
269.86604156742868
 30
0.0
 11
241.6329145308755
 21
266.03581935183382
 31
0.0
  0
LINE
  5
8DE2
  8
0
 10
240.33408759024019
 20
271.47301059164528
 30
0.0
 11
238.4189764824427
 21
269.86604156742868
 31
0.0
  0
LINE
  5
8DE3
  8
0
 10
242.96313674647041
 20
268.33983181460121
 30
0.0
 11
240.33408759024019
 21
271.47301059164528
 31
0.0
  0
LINE
  5
8DE4
  8
0
 10
259.12854318207411
 20
266.09554975703708
 30
0.0
 11
242.96313674647041
 21
268.33983181460121
 31
0.0
  0
LINE
  5
8DE7
  8
0
 10
241.6329145308755
 20
266.03581935183382
 30
0.0
 11
259.84248123050651
 21
263.4310966868299
 31
0.0
  0
ARC
  5
8DFE
  8
0
 10
318.90231598404739
 20
202.24368873141989
 30
0.0
 40
62.499999999999957
 50
121.1296133227932
 51
42.252533922177669
  0
CIRCLE
  5
8E5B
  8
0
 10
355.90231598404762
 20
434.77251748446008
 30
0.0
 40
27.174999999999962
  0
LINE
  5
8E67
  8
1
 10
318.90231598404762
 20
483.36311804212522
 30
0.0
 11
318.90231598404762
 21
386.181916926795
 31
0.0
  0
LINE
  5
8EC8
  8
0
 10
325.16064931738077
 20
205.8569391660985
 30
0.0
 11
325.16064931738077
 21
198.6304382967414
 31
0.0
  0
LINE
  5
8EC9
  8
0
 10
312.64398265071441
 20
205.8569391660985
 30
0.0
 11
312.64398265071441
 21
198.6304382967414
 31
0.0
  0
LINE
  5
8ECA
  8
0
 10
325.16064931738077
 20
198.6304382967414
 30
0.0
 11
318.90231598404762
 21
195.017187862063
 31
0.0
  0
LINE
  5
8ECB
  8
0
 10
312.64398265071441
 20
198.6304382967414
 30
0.0
 11
318.90231598404762
 21
195.017187862063
 31
0.0
  0
LINE
  5
8ECC
  8
0
 10
325.16064931738077
 20
205.8569391660989
 30
0.0
 11
318.90231598404762
 21
209.4701896007773
 31
0.0
  0
LINE
  5
8ECD
  8
0
 10
312.64398265071441
 20
205.8569391660989
 30
0.0
 11
318.90231598404762
 21
209.4701896007773
 31
0.0
  0
CIRCLE
  5
8ECE
  8
0
 10
318.90231598404807
 20
202.24368873141989
 30
0.0
 40
6.2583333333333311
  0
LINE
  5
8ECF
  8
1
 10
244.67390457680861
 20
202.24368873141989
 30
0.0
 11
393.1307273912866
 21
202.24368873141989
 31
0.0
  0
LINE
  5
8ED0
  8
1
 10
355.90231598404762
 20
304.01020722943713
 30
0.0
 11
355.90231598404762
 21
247.60834027324631
 31
0.0
  0
LINE
  5
8ED1
  8
1
 10
308.9948704498766
 20
202.24368873142021
 30
0.0
 11
328.80976151821869
 21
202.24368873142021
 31
0.0
  0
LINE
  5
8ED3
  8
1
 10
318.90231598404762
 20
128.01527732418089
 30
0.0
 11
318.90231598404762
 21
276.47210013865902
 31
0.0
  0
ARC
  5
8ED4
  8
0
 10
318.90231598404739
 20
202.24368873141989
 30
0.0
 40
51.897929133429727
 50
98.083282984218272
 51
39.57689758929839
  0
ARC
  5
8ED5
  8
0
 10
318.90231598404739
 20
202.24368873141989
 30
0.0
 40
20.033056072867549
 50
128.68326265090329
 51
11.241308766668279
  0
ARC
  5
8ED6
  8
0
 10
318.90231598404739
 20
202.24368873141989
 30
0.0
 40
58.480766068853789
 50
113.8183047465338
 51
41.35585246907246
  0
LINE
  5
8FB1
  8
0
 10
534.07739324007753
 20
292.44368873142002
 30
0.0
 11
534.07739324007753
 21
293.24368873141992
 31
0.0
  0
LINE
  5
8FB2
  8
0
 10
603.67739324007766
 20
293.24368873141992
 30
0.0
 11
603.67739324007766
 21
292.44368873142002
 31
0.0
  0
LINE
  5
8FB3
  8
0
 10
534.37617257609941
 20
283.94368873141991
 30
0.0
 11
532.87739324007748
 21
292.44368873142002
 31
0.0
  0
LINE
  5
8FB4
  8
0
 10
604.87739324007737
 20
292.44368873142002
 30
0.0
 11
603.37861390405556
 21
283.94368873141991
 31
0.0
  0
LINE
  5
8FB5
  8
0
 10
535.87739324007737
 20
231.01286519014201
 30
0.0
 11
535.87739324007737
 21
283.94368873141991
 31
0.0
  0
LINE
  5
8FB6
  8
0
 10
601.87739324007737
 20
283.94368873141991
 30
0.0
 11
601.87739324007737
 21
231.01286519014201
 31
0.0
  0
LINE
  5
8FB7
  8
0
 10
611.37739324007748
 20
295.74368873141992
 30
0.0
 11
611.37739324007748
 21
293.24368873141992
 31
0.0
  0
LINE
  5
8FB8
  8
0
 10
611.37739324007748
 20
295.74368873141992
 30
0.0
 11
526.37739324007737
 21
295.74368873141992
 31
0.0
  0
LINE
  5
8FB9
  8
0
 10
526.37739324007737
 20
295.74368873141992
 30
0.0
 11
526.37739324007737
 21
293.24368873141992
 31
0.0
  0
LINE
  5
8FBA
  8
0
 10
611.37739324007748
 20
293.24368873141992
 30
0.0
 11
526.37739324007737
 21
293.24368873141992
 31
0.0
  0
LINE
  5
8FBB
  8
0
 10
604.87739324007737
 20
292.44368873142002
 30
0.0
 11
532.87739324007748
 21
292.44368873142002
 31
0.0
  0
LINE
  5
8FBC
  8
0
 10
603.37861390405556
 20
283.94368873141991
 30
0.0
 11
534.37617257609941
 21
283.94368873141991
 31
0.0
  0
POLYLINE
  5
8FBD
  8
0
 66
     1
 10
0.0
 20
0.0
 30
0.0
  0
VERTEX
  5
14219
  8
0
 10
535.87739324007737
 20
231.01286519014201
 30
0.0
  0
VERTEX
  5
1421A
  8
0
 10
535.88088358648315
 20
231.69978545372621
 30
0.0
  0
VERTEX
  5
1421B
  8
0
 10
535.90880192787631
 20
233.07304477777271
 30
0.0
  0
VERTEX
  5
1421C
  8
0
 10
535.96461498895883
 20
234.44456098420909
 30
0.0
  0
VERTEX
  5
1421D
  8
0
 10
536.00296820304993
 20
235.1293026964658
 30
0.0
  0
VERTEX
  5
1421E
  8
0
 10
536.04827554630856
 20
235.81317363339801
 30
0.0
  0
VERTEX
  5
1421F
  8
0
 10
536.15971281474185
 20
237.17772474240221
 30
0.0
  0
VERTEX
  5
14220
  8
0
 10
536.29883250720422
 20
238.53705976475291
 30
0.0
  0
VERTEX
  5
14221
  8
0
 10
536.4655169145467
 20
239.89002856731091
 30
0.0
  0
VERTEX
  5
14222
  8
0
 10
536.65962500511966
 20
241.23548640339499
 30
0.0
  0
VERTEX
  5
14223
  8
0
 10
536.88099254409985
 20
242.5722948813509
 30
0.0
  0
VERTEX
  5
14224
  8
0
 10
537.00184097253816
 20
243.23710183850119
 30
0.0
  0
VERTEX
  5
14225
  8
0
 10
537.12943223244838
 20
243.89932292774569
 30
0.0
  0
VERTEX
  5
14226
  8
0
 10
537.40473386538611
 20
245.21544774436731
 30
0.0
  0
VERTEX
  5
14227
  8
0
 10
537.70666451024647
 20
246.51955575822461
 30
0.0
  0
VERTEX
  5
14228
  8
0
 10
538.03496870356093
 20
247.8105435637417
 30
0.0
  0
VERTEX
  5
14229
  8
0
 10
538.38936866720519
 20
249.08731885634819
 30
0.0
  0
VERTEX
  5
1422A
  8
0
 10
538.76956454342803
 20
250.3488013566793
 30
0.0
  0
VERTEX
  5
1422B
  8
0
 10
538.96923626786815
 20
250.97347373573871
 30
0.0
  0
VERTEX
  5
1422C
  8
0
 10
539.17523464856163
 20
251.5939237245988
 30
0.0
  0
VERTEX
  5
1422D
  8
0
 10
539.60603574519632
 20
252.8216324622758
 30
0.0
  0
VERTEX
  5
1422E
  8
0
 10
540.06160333259515
 20
254.03088880554921
 30
0.0
  0
VERTEX
  5
1422F
  8
0
 10
540.29855491519095
 20
254.62827696078099
 30
0.0
  0
VERTEX
  5
14230
  8
0
 10
540.54155195509725
 20
255.22066960282581
 30
0.0
  0
VERTEX
  5
14231
  8
0
 10
541.04547552825238
 20
256.38996818076862
 30
0.0
  0
VERTEX
  5
14232
  8
0
 10
541.57294768240774
 20
257.53779519604308
 30
0.0
  0
VERTEX
  5
14233
  8
0
 10
541.84537577854076
 20
258.10335264287318
 30
0.0
  0
VERTEX
  5
14234
  8
0
 10
542.12352212346048
 20
258.66317947240032
 30
0.0
  0
VERTEX
  5
14235
  8
0
 10
542.69673301046691
 20
259.76516882238911
 30
0.0
  0
VERTEX
  5
14236
  8
0
 10
543.29209534978907
 20
260.84283085300137
 30
0.0
  0
VERTEX
  5
14237
  8
0
 10
543.90910540545042
 20
261.89525375457049
 30
0.0
  0
VERTEX
  5
14238
  8
0
 10
544.54724112534359
 20
262.92154707225262
 30
0.0
  0
VERTEX
  5
14239
  8
0
 10
545.20596258294097
 20
263.92084245943983
 30
0.0
  0
VERTEX
  5
1423A
  8
0
 10
545.54286946092145
 20
264.41010079720479
 30
0.0
  0
VERTEX
  5
1423B
  8
0
 10
545.88471243412584
 20
264.8922944124696
 30
0.0
  0
VERTEX
  5
1423C
  8
0
 10
546.58291638876085
 20
265.8350809860043
 30
0.0
  0
VERTEX
  5
1423D
  8
0
 10
547.29998369659438
 20
266.74840448847903
 30
0.0
  0
VERTEX
  5
1423E
  8
0
 10
548.03530764709512
 20
267.63149215702811
 30
0.0
  0
VERTEX
  5
1423F
  8
0
 10
548.78826608278973
 20
268.48359681132069
 30
0.0
  0
VERTEX
  5
14240
  8
0
 10
549.55822192566961
 20
269.30399748574899
 30
0.0
  0
VERTEX
  5
14241
  8
0
 10
549.9493708404932
 20
269.70209084743249
 30
0.0
  0
VERTEX
  5
14242
  8
0
 10
550.34452371622228
 20
270.0920000394371
 30
0.0
  0
VERTEX
  5
14243
  8
0
 10
551.14650616463246
 20
270.84693774355372
 30
0.0
  0
VERTEX
  5
14244
  8
0
 10
551.96349071368206
 20
271.56817184543161
 30
0.0
  0
VERTEX
  5
14245
  8
0
 10
552.79478611287868
 20
272.255092109016
 30
0.0
  0
VERTEX
  5
14246
  8
0
 10
553.63968900332145
 20
272.90711733118451
 30
0.0
  0
VERTEX
  5
14247
  8
0
 10
554.49748451281403
 20
273.52369583350401
 30
0.0
  0
VERTEX
  5
14248
  8
0
 10
554.93099060263444
 20
273.81852835375611
 30
0.0
  0
VERTEX
  5
14249
  8
0
 10
555.36744686071665
 20
274.10430592900502
 30
0.0
  0
VERTEX
  5
1424A
  8
0
 10
556.2488399720296
 20
274.64845636358081
 30
0.0
  0
VERTEX
  5
1424B
  8
0
 10
557.14091810018647
 20
275.15568673163892
 30
0.0
  0
VERTEX
  5
1424C
  8
0
 10
558.04292645803002
 20
275.62556786564772
 30
0.0
  0
VERTEX
  5
1424D
  8
0
 10
558.95410185643664
 20
276.05770219925711
 30
0.0
  0
VERTEX
  5
1424E
  8
0
 10
559.87367335005138
 20
276.45172410367871
 30
0.0
  0
VERTEX
  5
1424F
  8
0
 10
560.3363647516943
 20
276.63433744556409
 30
0.0
  0
VERTEX
  5
14250
  8
0
 10
560.80086288958489
 20
276.8073001970435
 30
0.0
  0
VERTEX
  5
14251
  8
0
 10
561.73488598012023
 20
277.1241296264779
 30
0.0
  0
VERTEX
  5
14252
  8
0
 10
562.67495234487376
 20
277.40194432265309
 30
0.0
  0
VERTEX
  5
14253
  8
0
 10
563.62026659384924
 20
277.64050922660113
 30
0.0
  0
VERTEX
  5
14254
  8
0
 10
564.57002889681598
 20
277.83962248859518
 30
0.0
  0
VERTEX
  5
14255
  8
0
 10
565.52343566004515
 20
277.9991156389375
 30
0.0
  0
VERTEX
  5
14256
  8
0
 10
566.00125372940488
 20
278.06396118846982
 30
0.0
  0
VERTEX
  5
14257
  8
0
 10
566.47968020623148
 20
278.11885373049989
 30
0.0
  0
VERTEX
  5
14258
  8
0
 10
567.43795345702131
 20
278.19873545290233
 30
0.0
  0
VERTEX
  5
14259
  8
0
 10
568.39744461757516
 20
278.23869321823281
 30
0.0
  0
VERTEX
  5
1425A
  8
0
 10
568.87739324007737
 20
278.24368873141992
 30
0.0
  0
VERTEX
  5
1425B
  8
0
 10
569.35734186257991
 20
278.23869321823281
 30
0.0
  0
VERTEX
  5
1425C
  8
0
 10
570.31683302313377
 20
278.19873545290233
 30
0.0
  0
VERTEX
  5
1425D
  8
0
 10
571.2751062739236
 20
278.11885373049989
 30
0.0
  0
VERTEX
  5
1425E
  8
0
 10
571.75353275075031
 20
278.06396118846982
 30
0.0
  0
VERTEX
  5
1425F
  8
0
 10
572.23135082011004
 20
277.9991156389375
 30
0.0
  0
VERTEX
  5
14260
  8
0
 10
573.18475758333909
 20
277.83962248859518
 30
0.0
  0
VERTEX
  5
14261
  8
0
 10
574.13451988630572
 20
277.64050922660113
 30
0.0
  0
VERTEX
  5
14262
  8
0
 10
575.07983413528132
 20
277.40194432265309
 30
0.0
  0
VERTEX
  5
14263
  8
0
 10
576.01990050003485
 20
277.1241296264779
 30
0.0
  0
VERTEX
  5
14264
  8
0
 10
576.95392359057018
 20
276.8073001970435
 30
0.0
  0
VERTEX
  5
14265
  8
0
 10
577.41842172846077
 20
276.63433744556409
 30
0.0
  0
VERTEX
  5
14266
  8
0
 10
577.88111313010381
 20
276.45172410367871
 30
0.0
  0
VERTEX
  5
14267
  8
0
 10
578.80068462371855
 20
276.05770219925711
 30
0.0
  0
VERTEX
  5
14268
  8
0
 10
579.71186002212505
 20
275.62556786564772
 30
0.0
  0
VERTEX
  5
14269
  8
0
 10
580.61386837996861
 20
275.15568673163892
 30
0.0
  0
VERTEX
  5
1426A
  8
0
 10
581.50594650812548
 20
274.64845636358081
 30
0.0
  0
VERTEX
  5
1426B
  8
0
 10
582.38733961943865
 20
274.10430592900502
 30
0.0
  0
VERTEX
  5
1426C
  8
0
 10
582.82379587752075
 20
273.81852835375611
 30
0.0
  0
VERTEX
  5
1426D
  8
0
 10
583.25730196734105
 20
273.52369583350401
 30
0.0
  0
VERTEX
  5
1426E
  8
0
 10
584.11509747683363
 20
272.90711733118451
 30
0.0
  0
VERTEX
  5
1426F
  8
0
 10
584.96000036727639
 20
272.255092109016
 30
0.0
  0
VERTEX
  5
14270
  8
0
 10
585.79129576647324
 20
271.56817184543161
 30
0.0
  0
VERTEX
  5
14271
  8
0
 10
586.60828031552273
 20
270.84693774355372
 30
0.0
  0
VERTEX
  5
14272
  8
0
 10
587.41026276393291
 20
270.0920000394371
 30
0.0
  0
VERTEX
  5
14273
  8
0
 10
587.80541563966221
 20
269.70209084743249
 30
0.0
  0
VERTEX
  5
14274
  8
0
 10
588.19656455448546
 20
269.30399748574899
 30
0.0
  0
VERTEX
  5
14275
  8
0
 10
588.96652039736534
 20
268.48359681132069
 30
0.0
  0
VERTEX
  5
14276
  8
0
 10
589.71947883305995
 20
267.63149215702811
 30
0.0
  0
VERTEX
  5
14277
  8
0
 10
590.45480278356081
 20
266.74840448847903
 30
0.0
  0
VERTEX
  5
14278
  8
0
 10
591.17187009139434
 20
265.8350809860043
 30
0.0
  0
VERTEX
  5
14279
  8
0
 10
591.87007404602923
 20
264.8922944124696
 30
0.0
  0
VERTEX
  5
1427A
  8
0
 10
592.21191701923362
 20
264.41010079720479
 30
0.0
  0
VERTEX
  5
1427B
  8
0
 10
592.54882389721411
 20
263.92084245943983
 30
0.0
  0
VERTEX
  5
1427C
  8
0
 10
593.20754535481149
 20
262.92154707225262
 30
0.0
  0
VERTEX
  5
1427D
  8
0
 10
593.84568107470466
 20
261.89525375457077
 30
0.0
  0
VERTEX
  5
1427E
  8
0
 10
594.46269113036601
 20
260.84283085300137
 30
0.0
  0
VERTEX
  5
1427F
  8
0
 10
595.05805346968816
 20
259.76516882238911
 30
0.0
  0
VERTEX
  5
14280
  8
0
 10
595.6312643566946
 20
258.66317947240032
 30
0.0
  0
VERTEX
  5
14281
  8
0
 10
595.90941070161421
 20
258.10335264287318
 30
0.0
  0
VERTEX
  5
14282
  8
0
 10
596.18183879774745
 20
257.53779519604308
 30
0.0
  0
VERTEX
  5
14283
  8
0
 10
596.70931095190269
 20
256.38996818076862
 30
0.0
  0
VERTEX
  5
14284
  8
0
 10
597.21323452505771
 20
255.22066960282581
 30
0.0
  0
VERTEX
  5
14285
  8
0
 10
597.45623156496413
 20
254.62827696078099
 30
0.0
  0
VERTEX
  5
14286
  8
0
 10
597.69318314756015
 20
254.03088880554921
 30
0.0
  0
VERTEX
  5
14287
  8
0
 10
598.14875073495875
 20
252.8216324622758
 30
0.0
  0
VERTEX
  5
14288
  8
0
 10
598.57955183159345
 20
251.5939237245988
 30
0.0
  0
VERTEX
  5
14289
  8
0
 10
598.78555021228703
 20
250.97347373573871
 30
0.0
  0
VERTEX
  5
1428A
  8
0
 10
598.98522193672704
 20
250.3488013566793
 30
0.0
  0
VERTEX
  5
1428B
  8
0
 10
599.36541781294989
 20
249.08731885634819
 30
0.0
  0
VERTEX
  5
1428C
  8
0
 10
599.71981777659425
 20
247.8105435637417
 30
0.0
  0
VERTEX
  5
1428D
  8
0
 10
600.04812196990861
 20
246.51955575822461
 30
0.0
  0
VERTEX
  5
1428E
  8
0
 10
600.35005261476897
 20
245.21544774436731
 30
0.0
  0
VERTEX
  5
1428F
  8
0
 10
600.62535424770681
 20
243.89932292774569
 30
0.0
  0
VERTEX
  5
14290
  8
0
 10
600.75294550761691
 20
243.23710183850119
 30
0.0
  0
VERTEX
  5
14291
  8
0
 10
600.87379393605534
 20
242.5722948813509
 30
0.0
  0
VERTEX
  5
14292
  8
0
 10
601.09516147503541
 20
241.23548640339499
 30
0.0
  0
VERTEX
  5
14293
  8
0
 10
601.28926956560838
 20
239.89002856731071
 30
0.0
  0
VERTEX
  5
14294
  8
0
 10
601.45595397295097
 20
238.53705976475291
 30
0.0
  0
VERTEX
  5
14295
  8
0
 10
601.59507366541334
 20
237.17772474240221
 30
0.0
  0
VERTEX
  5
14296
  8
0
 10
601.70651093384663
 20
235.81317363339801
 30
0.0
  0
VERTEX
  5
14297
  8
0
 10
601.75181827710514
 20
235.1293026964658
 30
0.0
  0
VERTEX
  5
14298
  8
0
 10
601.79017149119659
 20
234.44456098420909
 30
0.0
  0
VERTEX
  5
14299
  8
0
 10
601.84598455227876
 20
233.07304477777271
 30
0.0
  0
VERTEX
  5
1429A
  8
0
 10
601.87390289367215
 20
231.69978545372641
 30
0.0
  0
VERTEX
  5
1429B
  8
0
 10
601.87739324007737
 20
231.01286519014201
 30
0.0
  0
SEQEND
  5
1429C
  8
0
  0
POLYLINE
  5
8FBE
  8
0
 66
     1
 10
0.0
 20
0.0
 30
0.0
  0
VERTEX
  5
1429D
  8
0
 10
547.37739324007737
 20
195.37204995221231
 30
0.0
  0
VERTEX
  5
1429E
  8
0
 10
547.2920352412516
 20
195.45066333119749
 30
0.0
  0
VERTEX
  5
1429F
  8
0
 10
547.12365842347003
 20
195.6125501494661
 30
0.0
  0
VERTEX
  5
142A0
  8
0
 10
546.95868510640275
 20
195.780629053486
 30
0.0
  0
VERTEX
  5
142A1
  8
0
 10
546.87757750964215
 20
195.86697766700689
 30
0.0
  0
VERTEX
  5
142A2
  8
0
 10
546.78384029228505
 20
195.97003435694651
 30
0.0
  0
VERTEX
  5
142A3
  8
0
 10
546.60060363888874
 20
196.18238403049409
 30
0.0
  0
VERTEX
  5
142A4
  8
0
 10
546.42339024523358
 20
196.4029354889812
 30
0.0
  0
VERTEX
  5
142A5
  8
0
 10
546.33717073999435
 20
196.51624007309121
 30
0.0
  0
VERTEX
  5
142A6
  8
0
 10
546.12865628621296
 20
196.7977675750314
 30
0.0
  0
VERTEX
  5
142A7
  8
0
 10
545.71679247173336
 20
197.36854619911259
 30
0.0
  0
VERTEX
  5
142A8
  8
0
 10
545.31191881907739
 20
197.94947910358309
 30
0.0
  0
VERTEX
  5
142A9
  8
0
 10
545.11214157310133
 20
198.2436987377109
 30
0.0
  0
VERTEX
  5
142AA
  8
0
 10
545.07447582276006
 20
198.29974703101169
 30
0.0
  0
VERTEX
  5
142AB
  8
0
 10
544.99933801266786
 20
198.4121095205646
 30
0.0
  0
VERTEX
  5
142AC
  8
0
 10
544.92445913539746
 20
198.52482553160721
 30
0.0
  0
VERTEX
  5
142AD
  8
0
 10
544.8871170504251
 20
198.58131572587121
 30
0.0
  0
VERTEX
  5
142AE
  8
0
 10
544.71272899969279
 20
198.84761484309419
 30
0.0
  0
VERTEX
  5
142AF
  8
0
 10
544.36829225105839
 20
199.3859593663268
 30
0.0
  0
VERTEX
  5
142B0
  8
0
 10
544.02970972181242
 20
199.93185826070331
 30
0.0
  0
VERTEX
  5
142B1
  8
0
 10
543.86263911757715
 20
200.20759991893689
 30
0.0
  0
VERTEX
  5
142B2
  8
0
 10
543.69706228543976
 20
200.48518113335871
 30
0.0
  0
VERTEX
  5
142B3
  8
0
 10
543.37042939777507
 20
201.04579581814431
 30
0.0
  0
VERTEX
  5
142B4
  8
0
 10
543.04988907802363
 20
201.61356840719611
 30
0.0
  0
VERTEX
  5
142B5
  8
0
 10
541.97706897811986
 20
203.65516793949041
 30
0.0
  0
VERTEX
  5
142B6
  8
0
 10
540.32265157511802
 20
207.33781887283789
 30
0.0
  0
VERTEX
  5
142B7
  8
0
 10
539.58664879477055
 20
209.25748301960189
 30
0.0
  0
VERTEX
  5
142B8
  8
0
 10
539.38712451847096
 20
209.81682630795621
 30
0.0
  0
VERTEX
  5
142B9
  8
0
 10
539.00375261194654
 20
210.94665617374099
 30
0.0
  0
VERTEX
  5
142BA
  8
0
 10
538.6415072909324
 20
212.0906768268469
 30
0.0
  0
VERTEX
  5
142BB
  8
0
 10
538.46838774465346
 20
212.6677562471379
 30
0.0
  0
VERTEX
  5
142BC
  8
0
 10
538.30064473467542
 20
213.24807921790261
 30
0.0
  0
VERTEX
  5
142BD
  8
0
 10
537.98140600056877
 20
214.41804483399659
 30
0.0
  0
VERTEX
  5
142BE
  8
0
 10
537.68401685367735
 20
215.5997462775257
 30
0.0
  0
VERTEX
  5
142BF
  8
0
 10
537.40868760707679
 20
216.7923478513321
 30
0.0
  0
VERTEX
  5
142C0
  8
0
 10
537.1556129731207
 20
217.9950061497033
 30
0.0
  0
VERTEX
  5
142C1
  8
0
 10
536.92497192573967
 20
219.20687065483091
 30
0.0
  0
VERTEX
  5
142C2
  8
0
 10
536.81811559151595
 20
219.81598765132409
 30
0.0
  0
VERTEX
  5
142C3
  8
0
 10
536.71692757387257
 20
220.4270843382923
 30
0.0
  0
VERTEX
  5
142C4
  8
0
 10
536.53162704611475
 20
221.65478426714111
 30
0.0
  0
VERTEX
  5
142C5
  8
0
 10
536.36920138667006
 20
222.88910221417191
 30
0.0
  0
VERTEX
  5
142C6
  8
0
 10
536.22976546267523
 20
224.1291652719278
 30
0.0
  0
VERTEX
  5
142C7
  8
0
 10
536.11341788296806
 20
225.3740964700205
 30
0.0
  0
VERTEX
  5
142C8
  8
0
 10
536.0202409283504
 20
226.62301539532149
 30
0.0
  0
VERTEX
  5
142C9
  8
0
 10
535.9823626689456
 20
227.24869433837961
 30
0.0
  0
VERTEX
  5
142CA
  8
0
 10
535.95030049339812
 20
227.87503881458829
 30
0.0
  0
VERTEX
  5
142CB
  8
0
 10
535.90364603986256
 20
229.1292812990859
 30
0.0
  0
VERTEX
  5
142CC
  8
0
 10
535.88031056169075
 20
230.3848558507608
 30
0.0
  0
VERTEX
  5
142CD
  8
0
 10
535.87739324007737
 20
231.01286519014201
 30
0.0
  0
SEQEND
  5
142CE
  8
0
  0
LINE
  5
8FBF
  8
0
 10
547.37739324007737
 20
195.37204995221231
 30
0.0
 11
547.37739324007737
 21
192.24368873141989
 31
0.0
  0
LINE
  5
8FC0
  8
0
 10
547.37739324007737
 20
192.24368873141989
 30
0.0
 11
550.37739324007748
 21
192.24368873141989
 31
0.0
  0
LINE
  5
8FC1
  8
0
 10
590.37739324007737
 20
192.24368873141989
 30
0.0
 11
590.37739324007737
 21
195.37204995221231
 31
0.0
  0
LINE
  5
8FC2
  8
0
 10
587.37739324007748
 20
192.24368873141989
 30
0.0
 11
590.37739324007737
 21
192.24368873141989
 31
0.0
  0
POLYLINE
  5
8FC3
  8
0
 66
     1
 10
0.0
 20
0.0
 30
0.0
  0
VERTEX
  5
142CF
  8
0
 10
550.37739324007748
 20
196.29994437681529
 30
0.0
  0
VERTEX
  5
142D0
  8
0
 10
549.58348690147977
 20
197.20429522296371
 30
0.0
  0
VERTEX
  5
142D1
  8
0
 10
548.41289574221798
 20
198.6449286936988
 30
0.0
  0
VERTEX
  5
142D2
  8
0
 10
547.2947380731008
 20
200.1684942706076
 30
0.0
  0
VERTEX
  5
142D3
  8
0
 10
546.75622253213714
 20
200.9601647443391
 30
0.0
  0
VERTEX
  5
142D4
  8
0
 10
546.23187880244745
 20
201.77108832201449
 30
0.0
  0
VERTEX
  5
142D5
  8
0
 10
545.22704115476358
 20
203.44860473197849
 30
0.0
  0
VERTEX
  5
142D6
  8
0
 10
544.28279969338269
 20
205.19674542085431
 30
0.0
  0
VERTEX
  5
142D7
  8
0
 10
543.40157372400097
 20
207.0110313576958
 30
0.0
  0
VERTEX
  5
142D8
  8
0
 10
542.5856210960078
 20
208.88681403628919
 30
0.0
  0
VERTEX
  5
142D9
  8
0
 10
541.83703241749572
 20
210.8192873854079
 30
0.0
  0
VERTEX
  5
142DA
  8
0
 10
541.48860581707095
 20
211.8052411025885
 30
0.0
  0
VERTEX
  5
142DB
  8
0
 10
541.15772569877004
 20
212.80350008277671
 30
0.0
  0
VERTEX
  5
142DC
  8
0
 10
540.5494414380837
 20
214.8343682411946
 30
0.0
  0
VERTEX
  5
142DD
  8
0
 10
540.01373816218734
 20
216.90668843430871
 30
0.0
  0
VERTEX
  5
142DE
  8
0
 10
539.5519884331211
 20
219.01515102867069
 30
0.0
  0
VERTEX
  5
142DF
  8
0
 10
539.16537533147948
 20
221.1543537879115
 30
0.0
  0
VERTEX
  5
142E0
  8
0
 10
538.85488942515997
 20
223.31881571418069
 30
0.0
  0
VERTEX
  5
142E1
  8
0
 10
538.72845044771259
 20
224.40878796917369
 30
0.0
  0
VERTEX
  5
142E2
  8
0
 10
538.62132623136063
 20
225.50299109138649
 30
0.0
  0
VERTEX
  5
142E3
  8
0
 10
538.4652841783311
 20
227.7012836942553
 30
0.0
  0
VERTEX
  5
142E4
  8
0
 10
538.38716307209893
 20
229.90806112680269
 30
0.0
  0
VERTEX
  5
142E5
  8
0
 10
538.37739324007737
 20
231.01286519014201
 30
0.0
  0
SEQEND
  5
142E6
  8
0
  0
POLYLINE
  5
8FC4
  8
0
 66
     1
 10
0.0
 20
0.0
 30
0.0
  0
VERTEX
  5
142E7
  8
0
 10
538.37739324007737
 20
231.01286519014201
 30
0.0
  0
VERTEX
  5
142E8
  8
0
 10
538.38470967058151
 20
231.96895805072239
 30
0.0
  0
VERTEX
  5
142E9
  8
0
 10
538.44322005525169
 20
233.87930918881281
 30
0.0
  0
VERTEX
  5
142EA
  8
0
 10
538.56012855290226
 20
235.7841600979508
 30
0.0
  0
VERTEX
  5
142EB
  8
0
 10
538.64041635850572
 20
236.73338014621751
 30
0.0
  0
VERTEX
  5
142EC
  8
0
 10
538.73521083558421
 20
237.6798556862793
 30
0.0
  0
VERTEX
  5
142ED
  8
0
 10
538.968130949537
 20
239.56275842947699
 30
0.0
  0
VERTEX
  5
142EE
  8
0
 10
539.25844195982859
 20
241.42925535056381
 30
0.0
  0
VERTEX
  5
142EF
  8
0
 10
539.60558680794804
 20
243.275764952602
 30
0.0
  0
VERTEX
  5
142F0
  8
0
 10
540.00889938071032
 20
245.0987440909914
 30
0.0
  0
VERTEX
  5
142F1
  8
0
 10
540.46760578841349
 20
246.89469477217631
 30
0.0
  0
VERTEX
  5
142F2
  8
0
 10
540.71746073094005
 20
247.78145531810191
 30
0.0
  0
VERTEX
  5
142F3
  8
0
 10
540.98082584980705
 20
248.66017086571171
 30
0.0
  0
VERTEX
  5
142F4
  8
0
 10
541.54757478101214
 20
250.39178471681379
 30
0.0
  0
VERTEX
  5
142F5
  8
0
 10
542.16676508515684
 20
252.0862136467062
 30
0.0
  0
VERTEX
  5
142F6
  8
0
 10
542.83720863910412
 20
253.74020632828771
 30
0.0
  0
VERTEX
  5
142F7
  8
0
 10
543.55761897325976
 20
255.35058902488731
 30
0.0
  0
VERTEX
  5
142F8
  8
0
 10
544.32661374009547
 20
256.91427168013661
 30
0.0
  0
VERTEX
  5
142F9
  8
0
 10
544.72887273461333
 20
257.67765919361472
 30
0.0
  0
VERTEX
  5
142FA
  8
0
 10
545.14271736664273
 20
258.42825384727479
 30
0.0
  0
VERTEX
  5
142FB
  8
0
 10
546.0043638858715
 20
259.88963044650473
 30
0.0
  0
VERTEX
  5
142FC
  8
0
 10
546.90989994152108
 20
261.29559733935929
 30
0.0
  0
VERTEX
  5
142FD
  8
0
 10
547.37858675357359
 20
261.97695478205958
 30
0.0
  0
SEQEND
  5
142FE
  8
0
  0
POLYLINE
  5
8FC5
  8
0
 66
     1
 10
0.0
 20
0.0
 30
0.0
  0
VERTEX
  5
142FF
  8
0
 10
547.37858675357359
 20
261.97695478205958
 30
0.0
  0
VERTEX
  5
14300
  8
0
 10
547.85581447420486
 20
262.64104232010391
 30
0.0
  0
VERTEX
  5
14301
  8
0
 10
548.84007288848227
 20
263.92371886834911
 30
0.0
  0
VERTEX
  5
14302
  8
0
 10
549.8624984168498
 20
265.14370677933692
 30
0.0
  0
VERTEX
  5
14303
  8
0
 10
550.38741798895694
 20
265.7294615104974
 30
0.0
  0
SEQEND
  5
14304
  8
0
  0
POLYLINE
  5
8FC6
  8
0
 66
     1
 10
0.0
 20
0.0
 30
0.0
  0
VERTEX
  5
14305
  8
0
 10
550.38741798895694
 20
265.7294615104974
 30
0.0
  0
VERTEX
  5
14306
  8
0
 10
550.53403486230013
 20
265.88842151516008
 30
0.0
  0
VERTEX
  5
14307
  8
0
 10
550.82926461918464
 20
266.20253066413977
 30
0.0
  0
VERTEX
  5
14308
  8
0
 10
551.127119892775
 20
266.51152066439698
 30
0.0
  0
VERTEX
  5
14309
  8
0
 10
551.27701857248235
 20
266.66408190769602
 30
0.0
  0
VERTEX
  5
1430A
  8
0
 10
551.42755735315006
 20
266.81534656620659
 30
0.0
  0
VERTEX
  5
1430B
  8
0
 10
551.73053329474931
 20
267.1139641710817
 30
0.0
  0
VERTEX
  5
1430C
  8
0
 10
552.03600364273234
 20
267.40733003820208
 30
0.0
  0
VERTEX
  5
1430D
  8
0
 10
552.3439239593888
 20
267.69540149073413
 30
0.0
  0
VERTEX
  5
1430E
  8
0
 10
552.65424945060499
 20
267.97813662203862
 30
0.0
  0
VERTEX
  5
1430F
  8
0
 10
552.96693497237777
 20
268.25549430176761
 30
0.0
  0
VERTEX
  5
14310
  8
0
 10
553.12414854316535
 20
268.39214395779931
 30
0.0
  0
VERTEX
  5
14311
  8
0
 10
553.28193503738487
 20
268.52743418184758
 30
0.0
  0
VERTEX
  5
14312
  8
0
 10
553.59920382159862
 20
268.79391670234872
 30
0.0
  0
VERTEX
  5
14313
  8
0
 10
553.91869517095449
 20
269.05490309724058
 30
0.0
  0
VERTEX
  5
14314
  8
0
 10
554.24036260806486
 20
269.3103554000304
 30
0.0
  0
VERTEX
  5
14315
  8
0
 10
554.56415933897938
 20
269.560236449287
 30
0.0
  0
VERTEX
  5
14316
  8
0
 10
554.89003825999328
 20
269.80450989404687
 30
0.0
  0
VERTEX
  5
14317
  8
0
 10
555.05374373886639
 20
269.92453262798011
 30
0.0
  0
VERTEX
  5
14318
  8
0
 10
555.21795196449875
 20
270.04314019910152
 30
0.0
  0
VERTEX
  5
14319
  8
0
 10
555.54785274988205
 20
270.27609265016781
 30
0.0
  0
VERTEX
  5
1431A
  8
0
 10
555.8796926244629
 20
270.50333335893669
 30
0.0
  0
VERTEX
  5
1431B
  8
0
 10
556.04632464547763
 20
270.61480144693149
 30
0.0
  0
VERTEX
  5
1431C
  8
0
 10
556.21342331447499
 20
270.72482926800461
 30
0.0
  0
VERTEX
  5
1431D
  8
0
 10
556.54899627109012
 20
270.94054815568143
 30
0.0
  0
VERTEX
  5
1431E
  8
0
 10
556.8863626774795
 20
271.1504586406777
 30
0.0
  0
VERTEX
  5
1431F
  8
0
 10
557.05570309754626
 20
271.2532261564408
 30
0.0
  0
VERTEX
  5
14320
  8
0
 10
557.22547345591579
 20
271.35453018667039
 30
0.0
  0
VERTEX
  5
14321
  8
0
 10
557.5662792749124
 20
271.55273310674511
 30
0.0
  0
VERTEX
  5
14322
  8
0
 10
557.90873055639975
 20
271.74503856771429
 30
0.0
  0
VERTEX
  5
14323
  8
0
 10
558.25277748293877
 20
271.93141859431171
 30
0.0
  0
VERTEX
  5
14324
  8
0
 10
558.59837000496566
 20
272.11184607326248
 30
0.0
  0
VERTEX
  5
14325
  8
0
 10
558.94545784807519
 20
272.28629475722698
 30
0.0
  0
VERTEX
  5
14326
  8
0
 10
559.11954674460299
 20
272.3712690865172
 30
0.0
  0
VERTEX
  5
14327
  8
0
 10
559.2939905203325
 20
272.45473926861939
 30
0.0
  0
VERTEX
  5
14328
  8
0
 10
559.64391731961916
 20
272.61715510329941
 30
0.0
  0
VERTEX
  5
14329
  8
0
 10
559.99518734100889
 20
272.77351863413651
 30
0.0
  0
VERTEX
  5
1432A
  8
0
 10
560.34774948417294
 20
272.9238071144477
 30
0.0
  0
VERTEX
  5
1432B
  8
0
 10
560.70155246081322
 20
273.06799868130582
 30
0.0
  0
VERTEX
  5
1432C
  8
0
 10
561.05654480212399
 20
273.20607235872097
 30
0.0
  0
VERTEX
  5
1432D
  8
0
 10
561.2344708530137
 20
273.27280867716598
 30
0.0
  0
VERTEX
  5
1432E
  8
0
 10
561.41267486627919
 20
273.33800806069138
 30
0.0
  0
VERTEX
  5
1432F
  8
0
 10
561.76989084594436
 20
273.46378659412511
 30
0.0
  0
VERTEX
  5
14330
  8
0
 10
562.1281407758139
 20
273.58338966163251
 30
0.0
  0
VERTEX
  5
14331
  8
0
 10
562.4873725401701
 20
273.69679986418799
 30
0.0
  0
VERTEX
  5
14332
  8
0
 10
562.84753388046443
 20
273.80400070366079
 30
0.0
  0
VERTEX
  5
14333
  8
0
 10
563.20857240292094
 20
273.90497658521622
 30
0.0
  0
VERTEX
  5
14334
  8
0
 10
563.38940419930373
 20
273.9531255409442
 30
0.0
  0
VERTEX
  5
14335
  8
0
 10
563.57043558615635
 20
273.99971281958182
 30
0.0
  0
VERTEX
  5
14336
  8
0
 10
563.93307078882253
 20
274.08819562518732
 30
0.0
  0
VERTEX
  5
14337
  8
0
 10
564.2964252572624
 20
274.17041213016648
 30
0.0
  0
VERTEX
  5
14338
  8
0
 10
564.66044613318513
 20
274.24635037423241
 30
0.0
  0
VERTEX
  5
14339
  8
0
 10
565.02508046135608
 20
274.31599931041541
 30
0.0
  0
VERTEX
  5
1433A
  8
0
 10
565.39027519729962
 20
274.37934880667029
 30
0.0
  0
VERTEX
  5
1433B
  8
0
 10
565.57306611928425
 20
274.40865834910107
 30
0.0
  0
VERTEX
  5
1433C
  8
0
 10
565.75597721501549
 20
274.43638964735192
 30
0.0
  0
VERTEX
  5
1433D
  8
0
 10
566.12213331470809
 20
274.48711353455349
 30
0.0
  0
VERTEX
  5
1433E
  8
0
 10
566.48869023052498
 20
274.53151308931558
 30
0.0
  0
VERTEX
  5
1433F
  8
0
 10
566.85559463830555
 20
274.56958185269872
 30
0.0
  0
VERTEX
  5
14340
  8
0
 10
567.22279316333902
 20
274.60131428672253
 30
0.0
  0
VERTEX
  5
14341
  8
0
 10
567.59023238812745
 20
274.62670577517292
 30
0.0
  0
VERTEX
  5
14342
  8
0
 10
567.77402556017523
 20
274.63702247445389
 30
0.0
  0
VERTEX
  5
14343
  8
0
 10
567.95785886015892
 20
274.64575262427149
 30
0.0
  0
VERTEX
  5
14344
  8
0
 10
568.32561909968069
 20
274.65845206321501
 30
0.0
  0
VERTEX
  5
14345
  8
0
 10
568.69345960748183
 20
274.664802244577
 30
0.0
  0
VERTEX
  5
14346
  8
0
 10
568.87739324007737
 20
274.6655960388988
 30
0.0
  0
VERTEX
  5
14347
  8
0
 10
569.06132687267336
 20
274.664802244577
 30
0.0
  0
VERTEX
  5
14348
  8
0
 10
569.42916738047438
 20
274.65845206321501
 30
0.0
  0
VERTEX
  5
14349
  8
0
 10
569.79692761999615
 20
274.64575262427149
 30
0.0
  0
VERTEX
  5
1434A
  8
0
 10
569.98076091997984
 20
274.63702247445389
 30
0.0
  0
VERTEX
  5
1434B
  8
0
 10
570.16455409202763
 20
274.62670577517292
 30
0.0
  0
VERTEX
  5
1434C
  8
0
 10
570.53199331681606
 20
274.60131428672253
 30
0.0
  0
VERTEX
  5
1434D
  8
0
 10
570.89919184184942
 20
274.56958185269872
 30
0.0
  0
VERTEX
  5
1434E
  8
0
 10
571.2660962496301
 20
274.53151308931558
 30
0.0
  0
VERTEX
  5
1434F
  8
0
 10
571.63265316544698
 20
274.48711353455349
 30
0.0
  0
VERTEX
  5
14350
  8
0
 10
571.9988092651397
 20
274.43638964735192
 30
0.0
  0
VERTEX
  5
14351
  8
0
 10
572.18172036087094
 20
274.40865834910107
 30
0.0
  0
VERTEX
  5
14352
  8
0
 10
572.36451128285546
 20
274.37934880667029
 30
0.0
  0
VERTEX
  5
14353
  8
0
 10
572.72970601879911
 20
274.31599931041541
 30
0.0
  0
VERTEX
  5
14354
  8
0
 10
573.09434034697006
 20
274.24635037423241
 30
0.0
  0
VERTEX
  5
14355
  8
0
 10
573.45836122289268
 20
274.17041213016648
 30
0.0
  0
VERTEX
  5
14356
  8
0
 10
573.82171569133266
 20
274.08819562518732
 30
0.0
  0
VERTEX
  5
14357
  8
0
 10
574.18435089399873
 20
273.99971281958182
 30
0.0
  0
VERTEX
  5
14358
  8
0
 10
574.36538228085169
 20
273.9531255409442
 30
0.0
  0
VERTEX
  5
14359
  8
0
 10
574.54621407723425
 20
273.90497658521622
 30
0.0
  0
VERTEX
  5
1435A
  8
0
 10
574.90725259969065
 20
273.80400070366079
 30
0.0
  0
VERTEX
  5
1435B
  8
0
 10
575.26741393998498
 20
273.69679986418799
 30
0.0
  0
VERTEX
  5
1435C
  8
0
 10
575.62664570434117
 20
273.58338966163251
 30
0.0
  0
VERTEX
  5
1435D
  8
0
 10
575.98489563421037
 20
273.46378659412511
 30
0.0
  0
VERTEX
  5
1435E
  8
0
 10
576.34211161387589
 20
273.33800806069138
 30
0.0
  0
VERTEX
  5
1435F
  8
0
 10
576.52031562714137
 20
273.27280867716598
 30
0.0
  0
VERTEX
  5
14360
  8
0
 10
576.69824167803108
 20
273.20607235872097
 30
0.0
  0
VERTEX
  5
14361
  8
0
 10
577.05323401934186
 20
273.06799868130582
 30
0.0
  0
VERTEX
  5
14362
  8
0
 10
577.40703699598225
 20
272.9238071144477
 30
0.0
  0
VERTEX
  5
14363
  8
0
 10
577.75959913914608
 20
272.77351863413651
 30
0.0
  0
VERTEX
  5
14364
  8
0
 10
578.11086916053591
 20
272.61715510329941
 30
0.0
  0
VERTEX
  5
14365
  8
0
 10
578.46079595982258
 20
272.45473926861939
 30
0.0
  0
VERTEX
  5
14366
  8
0
 10
578.63523973555209
 20
272.3712690865172
 30
0.0
  0
VERTEX
  5
14367
  8
0
 10
578.80932863207988
 20
272.28629475722698
 30
0.0
  0
VERTEX
  5
14368
  8
0
 10
579.15641647518942
 20
272.11184607326248
 30
0.0
  0
VERTEX
  5
14369
  8
0
 10
579.50200899721631
 20
271.93141859431171
 30
0.0
  0
VERTEX
  5
1436A
  8
0
 10
579.84605592375533
 20
271.74503856771429
 30
0.0
  0
VERTEX
  5
1436B
  8
0
 10
580.18850720524267
 20
271.55273310674511
 30
0.0
  0
VERTEX
  5
1436C
  8
0
 10
580.5293130242394
 20
271.35453018667039
 30
0.0
  0
VERTEX
  5
1436D
  8
0
 10
580.69908338260905
 20
271.2532261564408
 30
0.0
  0
VERTEX
  5
1436E
  8
0
 10
580.86842380267558
 20
271.1504586406777
 30
0.0
  0
VERTEX
  5
1436F
  8
0
 10
581.20579020906496
 20
270.94054815568143
 30
0.0
  0
VERTEX
  5
14370
  8
0
 10
581.54136316568008
 20
270.72482926800461
 30
0.0
  0
VERTEX
  5
14371
  8
0
 10
581.70846183467745
 20
270.61480144693149
 30
0.0
  0
VERTEX
  5
14372
  8
0
 10
581.87509385569228
 20
270.50333335893669
 30
0.0
  0
VERTEX
  5
14373
  8
0
 10
582.20693373027302
 20
270.27609265016781
 30
0.0
  0
VERTEX
  5
14374
  8
0
 10
582.53683451565644
 20
270.04314019910152
 30
0.0
  0
VERTEX
  5
14375
  8
0
 10
582.70104274128869
 20
269.92453262798011
 30
0.0
  0
VERTEX
  5
14376
  8
0
 10
582.8647482201618
 20
269.80450989404687
 30
0.0
  0
VERTEX
  5
14377
  8
0
 10
583.1906271411757
 20
269.560236449287
 30
0.0
  0
VERTEX
  5
14378
  8
0
 10
583.51442387209022
 20
269.3103554000304
 30
0.0
  0
VERTEX
  5
14379
  8
0
 10
583.83609130920058
 20
269.05490309724058
 30
0.0
  0
VERTEX
  5
1437A
  8
0
 10
584.15558265855645
 20
268.79391670234872
 30
0.0
  0
VERTEX
  5
1437B
  8
0
 10
584.47285144277043
 20
268.52743418184758
 30
0.0
  0
VERTEX
  5
1437C
  8
0
 10
584.63063793698984
 20
268.39214395779931
 30
0.0
  0
VERTEX
  5
1437D
  8
0
 10
584.7878515077773
 20
268.25549430176761
 30
0.0
  0
VERTEX
  5
1437E
  8
0
 10
585.10053702955042
 20
267.97813662203862
 30
0.0
  0
VERTEX
  5
1437F
  8
0
 10
585.41086252076639
 20
267.69540149073413
 30
0.0
  0
VERTEX
  5
14380
  8
0
 10
585.71878283742285
 20
267.40733003820208
 30
0.0
  0
VERTEX
  5
14381
  8
0
 10
586.02425318540577
 20
267.1139641710817
 30
0.0
  0
VERTEX
  5
14382
  8
0
 10
586.32722912700501
 20
266.81534656620659
 30
0.0
  0
VERTEX
  5
14383
  8
0
 10
586.47776790767296
 20
266.66408190769619
 30
0.0
  0
VERTEX
  5
14384
  8
0
 10
586.62766658738019
 20
266.51152066439698
 30
0.0
  0
VERTEX
  5
14385
  8
0
 10
586.92552186097055
 20
266.20253066413977
 30
0.0
  0
VERTEX
  5
14386
  8
0
 10
587.22075161785494
 20
265.88842151516008
 30
0.0
  0
VERTEX
  5
14387
  8
0
 10
587.36736849119825
 20
265.7294615104974
 30
0.0
  0
SEQEND
  5
14388
  8
0
  0
POLYLINE
  5
8FC7
  8
0
 66
     1
 10
0.0
 20
0.0
 30
0.0
  0
VERTEX
  5
14389
  8
0
 10
587.36736849119825
 20
265.7294615104974
 30
0.0
  0
VERTEX
  5
1438A
  8
0
 10
587.89228806330527
 20
265.14370677933692
 30
0.0
  0
VERTEX
  5
1438B
  8
0
 10
588.91471359167281
 20
263.92371886834911
 30
0.0
  0
VERTEX
  5
1438C
  8
0
 10
589.89897200595055
 20
262.64104232010391
 30
0.0
  0
VERTEX
  5
1438D
  8
0
 10
590.37619972658149
 20
261.97695478205958
 30
0.0
  0
SEQEND
  5
1438E
  8
0
  0
POLYLINE
  5
8FC8
  8
0
 66
     1
 10
0.0
 20
0.0
 30
0.0
  0
VERTEX
  5
1438F
  8
0
 10
590.37619972658149
 20
261.97695478205958
 30
0.0
  0
VERTEX
  5
14390
  8
0
 10
590.84488653863423
 20
261.29559733935929
 30
0.0
  0
VERTEX
  5
14391
  8
0
 10
591.75042259428358
 20
259.88963044650473
 30
0.0
  0
VERTEX
  5
14392
  8
0
 10
592.61206911351235
 20
258.42825384727479
 30
0.0
  0
VERTEX
  5
14393
  8
0
 10
593.02591374554163
 20
257.67765919361472
 30
0.0
  0
VERTEX
  5
14394
  8
0
 10
593.42817274005961
 20
256.91427168013661
 30
0.0
  0
VERTEX
  5
14395
  8
0
 10
594.19716750689554
 20
255.35058902488731
 30
0.0
  0
VERTEX
  5
14396
  8
0
 10
594.91757784105096
 20
253.74020632828771
 30
0.0
  0
VERTEX
  5
14397
  8
0
 10
595.58802139499835
 20
252.0862136467062
 30
0.0
  0
VERTEX
  5
14398
  8
0
 10
596.20721169914304
 20
250.39178471681379
 30
0.0
  0
VERTEX
  5
14399
  8
0
 10
596.77396063034803
 20
248.66017086571171
 30
0.0
  0
VERTEX
  5
1439A
  8
0
 10
597.03732574921514
 20
247.78145531810191
 30
0.0
  0
VERTEX
  5
1439B
  8
0
 10
597.28718069174158
 20
246.89469477217631
 30
0.0
  0
VERTEX
  5
1439C
  8
0
 10
597.74588709944476
 20
245.0987440909914
 30
0.0
  0
VERTEX
  5
1439D
  8
0
 10
598.14919967220703
 20
243.275764952602
 30
0.0
  0
VERTEX
  5
1439E
  8
0
 10
598.49634452032649
 20
241.42925535056381
 30
0.0
  0
VERTEX
  5
1439F
  8
0
 10
598.78665553061808
 20
239.56275842947699
 30
0.0
  0
VERTEX
  5
143A0
  8
0
 10
599.01957564457075
 20
237.6798556862793
 30
0.0
  0
VERTEX
  5
143A1
  8
0
 10
599.11437012164936
 20
236.73338014621751
 30
0.0
  0
VERTEX
  5
143A2
  8
0
 10
599.19465792725282
 20
235.7841600979508
 30
0.0
  0
VERTEX
  5
143A3
  8
0
 10
599.31156642490339
 20
233.87930918881281
 30
0.0
  0
VERTEX
  5
143A4
  8
0
 10
599.37007680957356
 20
231.96895805072239
 30
0.0
  0
VERTEX
  5
143A5
  8
0
 10
599.37739324007748
 20
231.01286519014201
 30
0.0
  0
SEQEND
  5
143A6
  8
0
  0
POLYLINE
  5
8FC9
  8
0
 66
     1
 10
0.0
 20
0.0
 30
0.0
  0
VERTEX
  5
143A7
  8
0
 10
599.37739324007748
 20
231.01286519014201
 30
0.0
  0
VERTEX
  5
143A8
  8
0
 10
599.36762340805615
 20
229.90806112680269
 30
0.0
  0
VERTEX
  5
143A9
  8
0
 10
599.28950230182409
 20
227.7012836942553
 30
0.0
  0
VERTEX
  5
143AA
  8
0
 10
599.13346024879445
 20
225.50299109138649
 30
0.0
  0
VERTEX
  5
143AB
  8
0
 10
599.02633603244249
 20
224.40878796917369
 30
0.0
  0
VERTEX
  5
143AC
  8
0
 10
598.89989705499511
 20
223.31881571418069
 30
0.0
  0
VERTEX
  5
143AD
  8
0
 10
598.58941114867571
 20
221.1543537879115
 30
0.0
  0
VERTEX
  5
143AE
  8
0
 10
598.20279804703398
 20
219.01515102867069
 30
0.0
  0
VERTEX
  5
143AF
  8
0
 10
597.74104831796785
 20
216.90668843430871
 30
0.0
  0
VERTEX
  5
143B0
  8
0
 10
597.20534504207137
 20
214.8343682411946
 30
0.0
  0
VERTEX
  5
143B1
  8
0
 10
596.59706078138515
 20
212.80350008277671
 30
0.0
  0
VERTEX
  5
143B2
  8
0
 10
596.26618066308424
 20
211.8052411025885
 30
0.0
  0
VERTEX
  5
143B3
  8
0
 10
595.91775406265936
 20
210.8192873854079
 30
0.0
  0
VERTEX
  5
143B4
  8
0
 10
595.16916538414728
 20
208.88681403628919
 30
0.0
  0
VERTEX
  5
143B5
  8
0
 10
594.35321275615411
 20
207.0110313576958
 30
0.0
  0
VERTEX
  5
143B6
  8
0
 10
593.4719867867725
 20
205.19674542085431
 30
0.0
  0
VERTEX
  5
143B7
  8
0
 10
592.52774532539183
 20
203.44860473197849
 30
0.0
  0
VERTEX
  5
143B8
  8
0
 10
591.52290767770774
 20
201.77108832201449
 30
0.0
  0
VERTEX
  5
143B9
  8
0
 10
590.99856394801805
 20
200.9601647443391
 30
0.0
  0
VERTEX
  5
143BA
  8
0
 10
590.46004840705427
 20
200.1684942706076
 30
0.0
  0
VERTEX
  5
143BB
  8
0
 10
589.34189073793709
 20
198.6449286936988
 30
0.0
  0
VERTEX
  5
143BC
  8
0
 10
588.17129957867542
 20
197.20429522296371
 30
0.0
  0
VERTEX
  5
143BD
  8
0
 10
587.37739324007748
 20
196.29994437681501
 30
0.0
  0
SEQEND
  5
143BE
  8
0
  0
LINE
  5
8FCA
  8
0
 10
550.37739324007748
 20
265.71827495088559
 30
0.0
 11
550.37739324007748
 21
192.24368873141989
 31
0.0
  0
LINE
  5
8FCB
  8
0
 10
587.37739324007748
 20
192.24368873141989
 30
0.0
 11
587.37739324007748
 21
265.71827495088581
 31
0.0
  0
LINE
  5
8FCC
  8
1
 10
568.87739324007737
 20
303.38049231669049
 30
0.0
 11
568.87739324007737
 21
128.01527732418089
 31
0.0
  0
LINE
  5
8FCD
  8
0
 10
543.27739324007734
 20
196.42868873141981
 30
0.0
 11
543.87739324007737
 21
196.42868873141981
 31
0.0
  0
LINE
  5
8FCE
  8
0
 10
603.11039324007743
 20
206.24368873141989
 30
0.0
 11
600.87739324007737
 21
206.24368873141989
 31
0.0
  0
LINE
  5
8FCF
  8
0
 10
600.87739324007737
 20
198.24368873141989
 30
0.0
 11
603.11039324007743
 21
198.24368873141989
 31
0.0
  0
LINE
  5
8FD0
  8
0
 10
603.87739324007748
 20
205.4766887314199
 30
0.0
 11
603.11039324007743
 21
206.24368873141989
 31
0.0
  0
LINE
  5
8FD1
  8
0
 10
603.11039324007743
 20
198.24368873141989
 30
0.0
 11
603.87739324007748
 21
199.01068873142
 31
0.0
  0
LINE
  5
8FD2
  8
0
 10
538.83681294949292
 20
209.47018960077679
 30
0.0
 11
538.57739324007719
 21
208.50202206475339
 31
0.0
  0
LINE
  5
8FD3
  8
0
 10
538.57739324007719
 20
195.98535539808671
 30
0.0
 11
538.83681294949292
 21
195.017187862063
 31
0.0
  0
LINE
  5
8FD4
  8
0
 10
543.01797353066172
 20
195.017187862063
 30
0.0
 11
543.27739324007734
 21
195.98535539808651
 31
0.0
  0
LINE
  5
8FD5
  8
0
 10
600.87739324007737
 20
208.05868873142001
 30
0.0
 11
598.37739324007737
 21
208.05868873142001
 31
0.0
  0
LINE
  5
8FD6
  8
0
 10
598.37739324007737
 20
196.42868873141981
 30
0.0
 11
600.87739324007737
 21
196.42868873141981
 31
0.0
  0
LINE
  5
8FD7
  8
0
 10
592.87739324007737
 20
195.98535539808671
 30
0.0
 11
593.13681294949276
 21
195.017187862063
 31
0.0
  0
LINE
  5
8FD8
  8
0
 10
598.37739324007737
 20
208.50202206475339
 30
0.0
 11
598.17203817637665
 21
209.2684175960766
 31
0.0
  0
LINE
  5
8FD9
  8
0
 10
598.11797353066186
 20
195.017187862063
 30
0.0
 11
598.37739324007737
 21
195.98535539808671
 31
0.0
  0
LINE
  5
8FDA
  8
0
 10
543.87739324007737
 20
198.24368873141989
 30
0.0
 11
545.11214836744477
 21
198.24368873141989
 31
0.0
  0
LINE
  5
8FDB
  8
0
 10
550.37739324007748
 20
209.74368873141989
 30
0.0
 11
551.37739324007737
 21
209.74368873141989
 31
0.0
  0
LINE
  5
8FDC
  8
0
 10
586.37739324007737
 20
209.74368873141989
 30
0.0
 11
587.37739324007748
 21
209.74368873141989
 31
0.0
  0
LINE
  5
8FDD
  8
0
 10
545.87739324007748
 20
194.74368873141989
 30
0.0
 11
547.37739324007737
 21
194.74368873141989
 31
0.0
  0
LINE
  5
8FDE
  8
0
 10
587.37739324007748
 20
194.74368873141989
 30
0.0
 11
586.37739324007737
 21
194.74368873141989
 31
0.0
  0
LINE
  5
8FDF
  8
0
 10
551.37739324007737
 20
194.74368873141989
 30
0.0
 11
550.37739324007748
 21
194.74368873141989
 31
0.0
  0
LINE
  5
8FE0
  8
0
 10
590.37739324007737
 20
194.74368873141989
 30
0.0
 11
590.87739324007748
 21
194.74368873141989
 31
0.0
  0
LINE
  5
8FE1
  8
0
 10
543.87739324007737
 20
196.42868873141981
 30
0.0
 11
543.87739324007737
 21
200.1832489792688
 31
0.0
  0
LINE
  5
8FE2
  8
0
 10
603.11039324007743
 20
198.24368873141989
 30
0.0
 11
603.11039324007743
 21
206.24368873141989
 31
0.0
  0
LINE
  5
8FE3
  8
0
 10
603.87739324007748
 20
199.01068873142
 30
0.0
 11
603.87739324007748
 21
205.4766887314199
 31
0.0
  0
LINE
  5
8FE4
  8
0
 10
538.57739324007719
 20
195.98535539808651
 30
0.0
 11
538.57739324007719
 21
208.50202206475339
 31
0.0
  0
LINE
  5
8FE5
  8
0
 10
543.27739324007734
 20
195.98535539808651
 30
0.0
 11
543.27739324007734
 21
201.2105906251515
 31
0.0
  0
LINE
  5
8FE6
  8
0
 10
538.83681294949292
 20
195.017187862063
 30
0.0
 11
543.01797353066172
 21
195.017187862063
 31
0.0
  0
POLYLINE
  5
8FE7
  8
0
 66
     1
 10
0.0
 20
0.0
 30
0.0
  0
VERTEX
  5
143BF
  8
0
 10
538.83681294949292
 20
195.017187862063
 30
0.0
  0
VERTEX
  5
143C0
  8
0
 10
538.75596829623464
 20
195.3417617577353
 30
0.0
  0
VERTEX
  5
143C1
  8
0
 10
538.64135795748155
 20
195.9513223365071
 30
0.0
  0
VERTEX
  5
143C2
  8
0
 10
538.58458337369734
 20
196.5337305080829
 30
0.0
  0
VERTEX
  5
143C3
  8
0
 10
538.57739324007719
 20
196.82381307940241
 30
0.0
  0
SEQEND
  5
143C4
  8
0
  0
POLYLINE
  5
8FE8
  8
0
 66
     1
 10
0.0
 20
0.0
 30
0.0
  0
VERTEX
  5
143C5
  8
0
 10
538.57739324007719
 20
196.82381307940241
 30
0.0
  0
VERTEX
  5
143C6
  8
0
 10
538.58458337369734
 20
197.1138956507217
 30
0.0
  0
VERTEX
  5
143C7
  8
0
 10
538.64135795748155
 20
197.69630382229741
 30
0.0
  0
VERTEX
  5
143C8
  8
0
 10
538.75596829623464
 20
198.3058644010693
 30
0.0
  0
VERTEX
  5
143C9
  8
0
 10
538.83681294949292
 20
198.6304382967416
 30
0.0
  0
SEQEND
  5
143CA
  8
0
  0
POLYLINE
  5
8FE9
  8
0
 66
     1
 10
0.0
 20
0.0
 30
0.0
  0
VERTEX
  5
143CB
  8
0
 10
543.01797353066172
 20
198.6304382967416
 30
0.0
  0
VERTEX
  5
143CC
  8
0
 10
543.09881818391989
 20
198.3058644010693
 30
0.0
  0
VERTEX
  5
143CD
  8
0
 10
543.21342852267287
 20
197.69630382229741
 30
0.0
  0
VERTEX
  5
143CE
  8
0
 10
543.27020310645753
 20
197.1138956507217
 30
0.0
  0
VERTEX
  5
143CF
  8
0
 10
543.27739324007734
 20
196.82381307940241
 30
0.0
  0
SEQEND
  5
143D0
  8
0
  0
POLYLINE
  5
8FEA
  8
0
 66
     1
 10
0.0
 20
0.0
 30
0.0
  0
VERTEX
  5
143D1
  8
0
 10
543.27739324007734
 20
196.82381307940241
 30
0.0
  0
VERTEX
  5
143D2
  8
0
 10
543.27020310645753
 20
196.5337305080829
 30
0.0
  0
VERTEX
  5
143D3
  8
0
 10
543.21342852267287
 20
195.9513223365071
 30
0.0
  0
VERTEX
  5
143D4
  8
0
 10
543.09881818391989
 20
195.3417617577353
 30
0.0
  0
VERTEX
  5
143D5
  8
0
 10
543.01797353066172
 20
195.017187862063
 30
0.0
  0
SEQEND
  5
143D6
  8
0
  0
LINE
  5
8FEB
  8
0
 10
538.83681294949292
 20
198.6304382967416
 30
0.0
 11
543.01797353066172
 21
198.6304382967416
 31
0.0
  0
POLYLINE
  5
8FEC
  8
0
 66
     1
 10
0.0
 20
0.0
 30
0.0
  0
VERTEX
  5
143D7
  8
0
 10
538.83681294949292
 20
198.6304382967416
 30
0.0
  0
VERTEX
  5
143D8
  8
0
 10
538.75596829623464
 20
199.27958608808601
 30
0.0
  0
VERTEX
  5
143D9
  8
0
 10
538.64135795748155
 20
200.49870724562959
 30
0.0
  0
VERTEX
  5
143DA
  8
0
 10
538.58458337369734
 20
201.66352358878109
 30
0.0
  0
VERTEX
  5
143DB
  8
0
 10
538.57739324007719
 20
202.24368873141989
 30
0.0
  0
SEQEND
  5
143DC
  8
0
  0
POLYLINE
  5
8FED
  8
0
 66
     1
 10
0.0
 20
0.0
 30
0.0
  0
VERTEX
  5
143DD
  8
0
 10
538.57739324007719
 20
202.24368873141989
 30
0.0
  0
VERTEX
  5
143DE
  8
0
 10
538.58458337369734
 20
202.82385387405881
 30
0.0
  0
VERTEX
  5
143DF
  8
0
 10
538.64135795748155
 20
203.9886702172102
 30
0.0
  0
VERTEX
  5
143E0
  8
0
 10
538.75596829623464
 20
205.2077913747539
 30
0.0
  0
VERTEX
  5
143E1
  8
0
 10
538.83681294949292
 20
205.8569391660985
 30
0.0
  0
SEQEND
  5
143E2
  8
0
  0
POLYLINE
  5
8FEE
  8
0
 66
     1
 10
0.0
 20
0.0
 30
0.0
  0
VERTEX
  5
143E3
  8
0
 10
543.25045252931341
 20
201.25831066584141
 30
0.0
  0
VERTEX
  5
143E4
  8
0
 10
543.21342852267287
 20
200.49870724562959
 30
0.0
  0
VERTEX
  5
143E5
  8
0
 10
543.09881818391989
 20
199.27958608808601
 30
0.0
  0
VERTEX
  5
143E6
  8
0
 10
543.01797353066172
 20
198.6304382967416
 30
0.0
  0
SEQEND
  5
143E7
  8
0
  0
LINE
  5
8FEF
  8
0
 10
538.83681294949292
 20
205.8569391660985
 30
0.0
 11
540.98793134312325
 21
205.8569391660985
 31
0.0
  0
POLYLINE
  5
8FF0
  8
0
 66
     1
 10
0.0
 20
0.0
 30
0.0
  0
VERTEX
  5
143E8
  8
0
 10
538.83681294949292
 20
205.8569391660985
 30
0.0
  0
VERTEX
  5
143E9
  8
0
 10
538.75596829623464
 20
206.18151306177049
 30
0.0
  0
VERTEX
  5
143EA
  8
0
 10
538.64135795748155
 20
206.79107364054241
 30
0.0
  0
VERTEX
  5
143EB
  8
0
 10
538.58458337369734
 20
207.37348181211809
 30
0.0
  0
VERTEX
  5
143EC
  8
0
 10
538.57739324007719
 20
207.6635643834376
 30
0.0
  0
SEQEND
  5
143ED
  8
0
  0
POLYLINE
  5
8FF1
  8
0
 66
     1
 10
0.0
 20
0.0
 30
0.0
  0
VERTEX
  5
143EE
  8
0
 10
538.57739324007719
 20
207.6635643834376
 30
0.0
  0
VERTEX
  5
143EF
  8
0
 10
538.58458337369734
 20
207.95364695475689
 30
0.0
  0
VERTEX
  5
143F0
  8
0
 10
538.64135795748155
 20
208.53605512633271
 30
0.0
  0
VERTEX
  5
143F1
  8
0
 10
538.75596829623464
 20
209.14561570510449
 30
0.0
  0
VERTEX
  5
143F2
  8
0
 10
538.83681294949292
 20
209.47018960077679
 30
0.0
  0
SEQEND
  5
143F3
  8
0
  0
LINE
  5
8FF2
  8
0
 10
538.83681294949292
 20
209.47018960077679
 30
0.0
 11
539.51077387581336
 21
209.47018960077679
 31
0.0
  0
LINE
  5
8FF3
  8
0
 10
600.87739324007737
 20
196.42868873141981
 30
0.0
 11
600.87739324007737
 21
208.05868873142001
 31
0.0
  0
LINE
  5
8FF4
  8
0
 10
592.87739324007737
 20
195.98535539808651
 30
0.0
 11
592.87739324007737
 21
198.59616446178359
 31
0.0
  0
LINE
  5
8FF5
  8
0
 10
598.37739324007737
 20
195.98535539808651
 30
0.0
 11
598.37739324007737
 21
208.50202206475339
 31
0.0
  0
LINE
  5
8FF6
  8
0
 10
593.13681294949276
 20
195.017187862063
 30
0.0
 11
598.11797353066186
 21
195.017187862063
 31
0.0
  0
POLYLINE
  5
8FF7
  8
0
 66
     1
 10
0.0
 20
0.0
 30
0.0
  0
VERTEX
  5
143F4
  8
0
 10
593.13681294949276
 20
195.017187862063
 30
0.0
  0
VERTEX
  5
143F5
  8
0
 10
593.05596829623448
 20
195.3417617577353
 30
0.0
  0
VERTEX
  5
143F6
  8
0
 10
592.9413579574815
 20
195.9513223365071
 30
0.0
  0
VERTEX
  5
143F7
  8
0
 10
592.88458337369718
 20
196.5337305080829
 30
0.0
  0
VERTEX
  5
143F8
  8
0
 10
592.87739324007737
 20
196.82381307940241
 30
0.0
  0
SEQEND
  5
143F9
  8
0
  0
POLYLINE
  5
8FF8
  8
0
 66
     1
 10
0.0
 20
0.0
 30
0.0
  0
VERTEX
  5
143FA
  8
0
 10
592.87739324007737
 20
196.82381307940241
 30
0.0
  0
VERTEX
  5
143FB
  8
0
 10
592.88458337369718
 20
197.1138956507217
 30
0.0
  0
VERTEX
  5
143FC
  8
0
 10
592.9413579574815
 20
197.69630382229741
 30
0.0
  0
VERTEX
  5
143FD
  8
0
 10
593.05596829623482
 20
198.3058644010693
 30
0.0
  0
VERTEX
  5
143FE
  8
0
 10
593.13681294949276
 20
198.6304382967416
 30
0.0
  0
SEQEND
  5
143FF
  8
0
  0
POLYLINE
  5
8FF9
  8
0
 66
     1
 10
0.0
 20
0.0
 30
0.0
  0
VERTEX
  5
14400
  8
0
 10
598.11797353066186
 20
198.6304382967416
 30
0.0
  0
VERTEX
  5
14401
  8
0
 10
598.19881818391991
 20
198.3058644010693
 30
0.0
  0
VERTEX
  5
14402
  8
0
 10
598.31342852267312
 20
197.69630382229741
 30
0.0
  0
VERTEX
  5
14403
  8
0
 10
598.37020310645744
 20
197.1138956507217
 30
0.0
  0
VERTEX
  5
14404
  8
0
 10
598.37739324007737
 20
196.82381307940241
 30
0.0
  0
SEQEND
  5
14405
  8
0
  0
POLYLINE
  5
8FFA
  8
0
 66
     1
 10
0.0
 20
0.0
 30
0.0
  0
VERTEX
  5
14406
  8
0
 10
598.37739324007737
 20
196.82381307940241
 30
0.0
  0
VERTEX
  5
14407
  8
0
 10
598.37020310645744
 20
196.5337305080829
 30
0.0
  0
VERTEX
  5
14408
  8
0
 10
598.31342852267312
 20
195.9513223365071
 30
0.0
  0
VERTEX
  5
14409
  8
0
 10
598.19881818391991
 20
195.3417617577353
 30
0.0
  0
VERTEX
  5
1440A
  8
0
 10
598.11797353066186
 20
195.017187862063
 30
0.0
  0
SEQEND
  5
1440B
  8
0
  0
LINE
  5
8FFB
  8
0
 10
593.13681294949276
 20
198.6304382967416
 30
0.0
 11
598.11797353066186
 21
198.6304382967416
 31
0.0
  0
POLYLINE
  5
8FFC
  8
0
 66
     1
 10
0.0
 20
0.0
 30
0.0
  0
VERTEX
  5
1440C
  8
0
 10
593.13681294949276
 20
198.6304382967416
 30
0.0
  0
VERTEX
  5
1440D
  8
0
 10
593.09873371886886
 20
198.93619813934481
 30
0.0
  0
SEQEND
  5
1440E
  8
0
  0
POLYLINE
  5
8FFD
  8
0
 66
     1
 10
0.0
 20
0.0
 30
0.0
  0
VERTEX
  5
1440F
  8
0
 10
598.11797353066186
 20
205.8569391660985
 30
0.0
  0
VERTEX
  5
14410
  8
0
 10
598.19881818391991
 20
205.2077913747539
 30
0.0
  0
VERTEX
  5
14411
  8
0
 10
598.31342852267312
 20
203.9886702172102
 30
0.0
  0
VERTEX
  5
14412
  8
0
 10
598.37020310645744
 20
202.82385387405881
 30
0.0
  0
VERTEX
  5
14413
  8
0
 10
598.37739324007737
 20
202.24368873141989
 30
0.0
  0
SEQEND
  5
14414
  8
0
  0
POLYLINE
  5
8FFE
  8
0
 66
     1
 10
0.0
 20
0.0
 30
0.0
  0
VERTEX
  5
14415
  8
0
 10
598.37739324007737
 20
202.24368873141989
 30
0.0
  0
VERTEX
  5
14416
  8
0
 10
598.37020310645744
 20
201.66352358878109
 30
0.0
  0
VERTEX
  5
14417
  8
0
 10
598.31342852267312
 20
200.49870724562959
 30
0.0
  0
VERTEX
  5
14418
  8
0
 10
598.19881818391991
 20
199.27958608808601
 30
0.0
  0
VERTEX
  5
14419
  8
0
 10
598.11797353066186
 20
198.6304382967416
 30
0.0
  0
SEQEND
  5
1441A
  8
0
  0
POLYLINE
  5
8FFF
  8
0
 66
     1
 10
0.0
 20
0.0
 30
0.0
  0
VERTEX
  5
1441B
  8
0
 10
598.37739324007737
 20
207.6635643834376
 30
0.0
  0
VERTEX
  5
1441C
  8
0
 10
598.37020310645744
 20
207.37348181211809
 30
0.0
  0
VERTEX
  5
1441D
  8
0
 10
598.31342852267312
 20
206.79107364054241
 30
0.0
  0
VERTEX
  5
1441E
  8
0
 10
598.19881818391991
 20
206.18151306177049
 30
0.0
  0
VERTEX
  5
1441F
  8
0
 10
598.11797353066186
 20
205.8569391660985
 30
0.0
  0
SEQEND
  5
14420
  8
0
  0
LINE
  5
9000
  8
0
 10
596.7668551370316
 20
205.8569391660985
 30
0.0
 11
598.11797353066186
 21
205.8569391660985
 31
0.0
  0
POLYLINE
  5
9001
  8
0
 66
     1
 10
0.0
 20
0.0
 30
0.0
  0
VERTEX
  5
14421
  8
0
 10
598.16979623737745
 20
209.2621325787581
 30
0.0
  0
VERTEX
  5
14422
  8
0
 10
598.19881818391991
 20
209.14561570510449
 30
0.0
  0
VERTEX
  5
14423
  8
0
 10
598.31342852267312
 20
208.53605512633271
 30
0.0
  0
VERTEX
  5
14424
  8
0
 10
598.37020310645744
 20
207.95364695475689
 30
0.0
  0
VERTEX
  5
14425
  8
0
 10
598.37739324007737
 20
207.6635643834376
 30
0.0
  0
SEQEND
  5
14426
  8
0
  0
LINE
  5
9002
  8
0
 10
545.87739324007748
 20
194.74368873141989
 30
0.0
 11
545.87739324007748
 21
197.14597873297669
 31
0.0
  0
LINE
  5
9003
  8
0
 10
590.87739324007748
 20
194.74368873141989
 30
0.0
 11
590.87739324007748
 21
195.86718025688461
 31
0.0
  0
LINE
  5
9004
  8
3
 10
603.87739324007748
 20
205.4766887314199
 30
0.0
 11
600.87739324007737
 21
205.4766887314199
 31
0.0
  0
LINE
  5
9005
  8
3
 10
603.87739324007748
 20
199.01068873142
 30
0.0
 11
600.87739324007737
 21
199.01068873142
 31
0.0
  0
LINE
  5
9006
  8
1
 10
610.48642783259538
 20
202.24368873141989
 30
0.0
 11
527.26835864755947
 21
202.24368873141989
 31
0.0
  0
ARC
  5
9007
  8
0
 10
584.37739324007737
 20
143.76292266256621
 30
0.0
 40
2.0000000000000031
 50
284.84460444708958
 51
0.0
  0
ARC
  5
9008
  8
0
 10
584.37739324007737
 20
260.72445480027358
 30
0.0
 40
2.0000000000000129
 50
0.0
 51
75.155395552910377
  0
ARC
  5
9009
  8
0
 10
568.87739324007771
 20
202.2436887314197
 30
0.0
 40
62.499999999999837
 50
255.15539555291039
 51
284.84460444708958
  0
ARC
  5
900A
  8
0
 10
568.87739324007771
 20
202.24368873141989
 30
0.0
 40
62.500000000000071
 50
75.155395552910377
 51
104.84460444708959
  0
ARC
  5
900B
  8
0
 10
553.37739324007748
 20
143.76292266256621
 30
0.0
 40
1.9999999999999969
 50
180.0
 51
255.15539555291039
  0
ARC
  5
900C
  8
0
 10
553.37739324007748
 20
260.7244548002738
 30
0.0
 40
1.9999999999999889
 50
104.84460444708959
 51
180.0
  0
LINE
  5
900D
  8
0
 10
586.37739324007737
 20
143.76292266256621
 30
0.0
 11
586.37739324007737
 21
260.7244548002738
 31
0.0
  0
LINE
  5
900E
  8
0
 10
551.37739324007737
 20
143.76292266256621
 30
0.0
 11
551.37739324007737
 21
260.7244548002738
 31
0.0
  0
LINE
  5
900F
  8
0
 10
147.4304029516793
 20
292.44368873142002
 30
0.0
 11
147.4304029516793
 21
293.24368873142021
 31
0.0
  0
LINE
  5
9010
  8
0
 10
77.830402951679162
 20
293.24368873142021
 30
0.0
 11
77.830402951679162
 21
292.44368873142002
 31
0.0
  0
LINE
  5
9011
  8
0
 10
147.13162361565719
 20
283.94368873141991
 30
0.0
 11
148.63040295167909
 21
292.44368873142002
 31
0.0
  0
LINE
  5
9012
  8
0
 10
76.630402951679116
 20
292.44368873142002
 30
0.0
 11
78.129182287701042
 21
283.94368873141991
 31
0.0
  0
LINE
  5
9013
  8
0
 10
145.63040295167909
 20
231.01286519014221
 30
0.0
 11
145.63040295167909
 21
283.94368873141991
 31
0.0
  0
LINE
  5
9014
  8
0
 10
79.630402951679116
 20
283.94368873141991
 30
0.0
 11
79.630402951679116
 21
231.01286519014221
 31
0.0
  0
LINE
  5
9015
  8
0
 10
155.13040295167909
 20
295.74368873142021
 30
0.0
 11
155.13040295167909
 21
293.24368873142021
 31
0.0
  0
LINE
  5
9016
  8
0
 10
70.130402951679116
 20
295.74368873142021
 30
0.0
 11
155.13040295167909
 21
295.74368873142021
 31
0.0
  0
LINE
  5
9017
  8
0
 10
70.130402951679116
 20
293.24368873142021
 30
0.0
 11
155.13040295167909
 21
293.24368873142021
 31
0.0
  0
LINE
  5
9018
  8
0
 10
70.130402951679116
 20
295.74368873142021
 30
0.0
 11
70.130402951679116
 21
293.24368873142021
 31
0.0
  0
LINE
  5
9019
  8
0
 10
76.630402951679116
 20
292.44368873142002
 30
0.0
 11
148.63040295167909
 21
292.44368873142002
 31
0.0
  0
LINE
  5
901A
  8
0
 10
78.129182287701042
 20
283.94368873141991
 30
0.0
 11
147.13162361565719
 21
283.94368873141991
 31
0.0
  0
LINE
  5
901B
  8
0
 10
134.13040295167909
 20
281.94368873142002
 30
0.0
 11
91.130402951679116
 21
281.94368873142002
 31
0.0
  0
LINE
  5
901C
  8
0
 10
134.13040295167909
 20
195.37204995221231
 30
0.0
 11
134.13040295167909
 21
281.94368873142002
 31
0.0
  0
LINE
  5
901D
  8
0
 10
91.130402951679116
 20
281.94368873142002
 30
0.0
 11
91.130402951679116
 21
195.37204995221231
 31
0.0
  0
POLYLINE
  5
901E
  8
0
 66
     1
 10
0.0
 20
0.0
 30
0.0
  0
VERTEX
  5
14427
  8
0
 10
90.090180451596098
 20
196.51624007309141
 30
0.0
  0
VERTEX
  5
14428
  8
0
 10
89.547801164380189
 20
197.25892077596831
 30
0.0
  0
VERTEX
  5
14429
  8
0
 10
88.876076627007919
 20
198.24368873142009
 30
0.0
  0
SEQEND
  5
1442A
  8
0
  0
POLYLINE
  5
901F
  8
0
 66
     1
 10
0.0
 20
0.0
 30
0.0
  0
VERTEX
  5
1442B
  8
0
 10
83.335991751162055
 20
209.26928990989029
 30
0.0
  0
VERTEX
  5
1442C
  8
0
 10
83.324327201535425
 20
209.29981829406799
 30
0.0
  0
VERTEX
  5
1442D
  8
0
 10
82.664712438087463
 20
211.22980369505191
 30
0.0
  0
VERTEX
  5
1442E
  8
0
 10
82.358077780801295
 20
212.21040085288311
 30
0.0
  0
VERTEX
  5
1442F
  8
0
 10
82.067105814560364
 20
213.20072627533091
 30
0.0
  0
VERTEX
  5
14430
  8
0
 10
81.532743961063488
 20
215.20850759582839
 30
0.0
  0
VERTEX
  5
14431
  8
0
 10
81.062732635014754
 20
217.24899294551
 30
0.0
  0
VERTEX
  5
14432
  8
0
 10
80.658044432993165
 20
219.31795993874351
 30
0.0
  0
VERTEX
  5
14433
  8
0
 10
80.319516778138677
 20
221.4111272527027
 30
0.0
  0
VERTEX
  5
14434
  8
0
 10
80.047850187270569
 20
223.52416348672679
 30
0.0
  0
VERTEX
  5
14435
  8
0
 10
79.937270904421666
 20
224.5867673968072
 30
0.0
  0
VERTEX
  5
14436
  8
0
 10
79.843606821302956
 20
225.65269612530889
 30
0.0
  0
VERTEX
  5
14437
  8
0
 10
79.707209321963546
 20
227.79232058616071
 30
0.0
  0
VERTEX
  5
14438
  8
0
 10
79.638939937219448
 20
229.93860933463611
 30
0.0
  0
VERTEX
  5
14439
  8
0
 10
79.630402951679116
 20
231.01286519014221
 30
0.0
  0
SEQEND
  5
1443A
  8
0
  0
POLYLINE
  5
9020
  8
0
 66
     1
 10
0.0
 20
0.0
 30
0.0
  0
VERTEX
  5
1443B
  8
0
 10
145.63040295167909
 20
231.01286519014221
 30
0.0
  0
VERTEX
  5
1443C
  8
0
 10
145.62186596613901
 20
229.93860933463611
 30
0.0
  0
VERTEX
  5
1443D
  8
0
 10
145.55359658139491
 20
227.79232058616071
 30
0.0
  0
VERTEX
  5
1443E
  8
0
 10
145.4171990820555
 20
225.65269612530889
 30
0.0
  0
VERTEX
  5
1443F
  8
0
 10
145.32353499893679
 20
224.5867673968072
 30
0.0
  0
VERTEX
  5
14440
  8
0
 10
145.21295571608789
 20
223.52416348672679
 30
0.0
  0
VERTEX
  5
14441
  8
0
 10
144.9412891252195
 20
221.4111272527027
 30
0.0
  0
VERTEX
  5
14442
  8
0
 10
144.60276147036529
 20
219.31795993874351
 30
0.0
  0
VERTEX
  5
14443
  8
0
 10
144.19807326834371
 20
217.24899294551
 30
0.0
  0
VERTEX
  5
14444
  8
0
 10
143.72806194229489
 20
215.20850759582839
 30
0.0
  0
VERTEX
  5
14445
  8
0
 10
143.1937000887979
 20
213.20072627533091
 30
0.0
  0
VERTEX
  5
14446
  8
0
 10
142.90272812255719
 20
212.21040085288311
 30
0.0
  0
VERTEX
  5
14447
  8
0
 10
142.5960934652708
 20
211.22980369505191
 30
0.0
  0
VERTEX
  5
14448
  8
0
 10
141.99470682578499
 20
209.4701896007773
 30
0.0
  0
SEQEND
  5
14449
  8
0
  0
POLYLINE
  5
9021
  8
0
 66
     1
 10
0.0
 20
0.0
 30
0.0
  0
VERTEX
  5
1444A
  8
0
 10
136.3847292763505
 20
198.24368873142009
 30
0.0
  0
VERTEX
  5
1444B
  8
0
 10
135.71300473897821
 20
197.25892077596831
 30
0.0
  0
VERTEX
  5
1444C
  8
0
 10
135.63040295167909
 20
197.14581403517619
 30
0.0
  0
SEQEND
  5
1444D
  8
0
  0
LINE
  5
9022
  8
0
 10
91.130402951679116
 20
192.24368873142009
 30
0.0
 11
94.130402951679116
 21
192.24368873142009
 31
0.0
  0
LINE
  5
9023
  8
0
 10
91.130402951679116
 20
192.24368873142009
 30
0.0
 11
91.130402951679116
 21
195.37204995221231
 31
0.0
  0
POLYLINE
  5
9024
  8
0
 66
     1
 10
0.0
 20
0.0
 30
0.0
  0
VERTEX
  5
1444E
  8
0
 10
90.630402951679116
 20
195.86961553604499
 30
0.0
  0
VERTEX
  5
1444F
  8
0
 10
90.589358715148606
 20
195.9118633988507
 30
0.0
  0
VERTEX
  5
14450
  8
0
 10
90.251305261655034
 20
196.3077671035102
 30
0.0
  0
VERTEX
  5
14451
  8
0
 10
90.090180451596098
 20
196.51624007309141
 30
0.0
  0
SEQEND
  5
14452
  8
0
  0
LINE
  5
9025
  8
0
 10
94.130402951679116
 20
278.24368873142009
 30
0.0
 11
131.13040295167909
 21
278.24368873142009
 31
0.0
  0
LINE
  5
9026
  8
0
 10
134.13040295167909
 20
195.37204995221231
 30
0.0
 11
134.13040295167909
 21
192.24368873142009
 31
0.0
  0
LINE
  5
9027
  8
0
 10
131.13040295167909
 20
192.24368873142009
 30
0.0
 11
134.13040295167909
 21
192.24368873142009
 31
0.0
  0
LINE
  5
9029
  8
0
 10
94.130402951679116
 20
192.24368873142009
 30
0.0
 11
94.130402951679116
 21
263.43109668683019
 31
0.0
  0
LINE
  5
902A
  8
0
 10
131.13040295167909
 20
278.24368873142038
 30
0.0
 11
131.13040295167909
 21
271.4730105916455
 31
0.0
  0
LINE
  5
902B
  8
0
 10
137.63040295167909
 20
196.4286887314201
 30
0.0
 11
138.2304029516792
 21
196.4286887314201
 31
0.0
  0
LINE
  5
902C
  8
0
 10
78.397402951679169
 20
198.24368873142009
 30
0.0
 11
80.630402951679116
 21
198.24368873142009
 31
0.0
  0
LINE
  5
902D
  8
0
 10
80.630402951679116
 20
206.24368873142021
 30
0.0
 11
78.397402951679169
 21
206.24368873142021
 31
0.0
  0
LINE
  5
902E
  8
0
 10
77.630402951679116
 20
199.01068873142
 30
0.0
 11
78.397402951679169
 21
198.24368873142009
 31
0.0
  0
LINE
  5
902F
  8
0
 10
78.397402951679169
 20
206.24368873142021
 30
0.0
 11
77.630402951679116
 21
205.4766887314199
 31
0.0
  0
LINE
  5
9030
  8
0
 10
142.9304029516793
 20
208.50202206475339
 30
0.0
 11
142.6709832422637
 21
209.47018960077679
 31
0.0
  0
LINE
  5
9031
  8
0
 10
142.6709832422637
 20
195.017187862063
 30
0.0
 11
142.9304029516793
 21
195.98535539808691
 31
0.0
  0
LINE
  5
9032
  8
0
 10
138.2304029516792
 20
195.98535539808671
 30
0.0
 11
138.48982266109491
 21
195.017187862063
 31
0.0
  0
LINE
  5
9033
  8
0
 10
88.630402951679116
 20
198.24368873142009
 30
0.0
 11
90.630402951679116
 21
198.24368873142009
 31
0.0
  0
LINE
  5
9034
  8
0
 10
90.630402951679116
 20
206.24368873142021
 30
0.0
 11
88.630402951679116
 21
206.24368873142021
 31
0.0
  0
LINE
  5
9035
  8
0
 10
80.630402951679116
 20
196.4286887314201
 30
0.0
 11
83.130402951679116
 21
196.4286887314201
 31
0.0
  0
LINE
  5
9036
  8
0
 10
83.130402951679116
 20
208.0586887314202
 30
0.0
 11
80.630402951679116
 21
208.0586887314202
 31
0.0
  0
LINE
  5
9037
  8
0
 10
88.370983242263719
 20
195.017187862063
 30
0.0
 11
88.630402951679116
 21
195.98535539808691
 31
0.0
  0
LINE
  5
9038
  8
0
 10
83.389822661094954
 20
209.4701896007773
 30
0.0
 11
83.130402951679116
 21
208.50202206475339
 31
0.0
  0
LINE
  5
9039
  8
0
 10
83.130402951679116
 20
195.98535539808691
 30
0.0
 11
83.389822661094726
 21
195.017187862063
 31
0.0
  0
LINE
  5
903A
  8
0
 10
135.63040295167909
 20
198.24368873142009
 30
0.0
 11
137.63040295167909
 21
198.24368873142009
 31
0.0
  0
LINE
  5
903B
  8
0
 10
90.630402951679116
 20
194.74368873142009
 30
0.0
 11
91.130402951679116
 21
194.74368873142009
 31
0.0
  0
LINE
  5
903C
  8
0
 10
94.130402951679116
 20
194.74368873142009
 30
0.0
 11
95.130402951679116
 21
194.74368873142009
 31
0.0
  0
LINE
  5
903D
  8
0
 10
130.13040295167909
 20
194.74368873142009
 30
0.0
 11
131.13040295167909
 21
194.74368873142009
 31
0.0
  0
LINE
  5
903E
  8
0
 10
134.13040295167909
 20
194.74368873142009
 30
0.0
 11
135.63040295167909
 21
194.74368873142009
 31
0.0
  0
LINE
  5
903F
  8
0
 10
131.13040295167889
 20
209.74368873142021
 30
0.0
 11
130.13040295167909
 21
209.74368873142021
 31
0.0
  0
LINE
  5
9040
  8
0
 10
95.130402951679116
 20
209.74368873142021
 30
0.0
 11
94.130402951679585
 21
209.74368873142021
 31
0.0
  0
LINE
  5
9041
  8
0
 10
137.63040295167909
 20
208.0586887314202
 30
0.0
 11
137.63040295167909
 21
196.4286887314201
 31
0.0
  0
LINE
  5
9042
  8
0
 10
78.397402951679169
 20
206.24368873142021
 30
0.0
 11
78.397402951679169
 21
198.24368873142009
 31
0.0
  0
LINE
  5
9043
  8
0
 10
77.630402951679116
 20
205.4766887314199
 30
0.0
 11
77.630402951679116
 21
199.01068873142
 31
0.0
  0
LINE
  5
9044
  8
0
 10
142.9304029516793
 20
208.50202206475339
 30
0.0
 11
142.9304029516793
 21
195.98535539808691
 31
0.0
  0
LINE
  5
9045
  8
0
 10
138.2304029516792
 20
208.50202206475359
 30
0.0
 11
138.2304029516792
 21
195.98535539808691
 31
0.0
  0
POLYLINE
  5
9046
  8
0
 66
     1
 10
0.0
 20
0.0
 30
0.0
  0
VERTEX
  5
14453
  8
0
 10
142.6709832422637
 20
198.6304382967418
 30
0.0
  0
VERTEX
  5
14454
  8
0
 10
142.7518278955217
 20
198.3058644010693
 30
0.0
  0
VERTEX
  5
14455
  8
0
 10
142.86643823427491
 20
197.69630382229741
 30
0.0
  0
VERTEX
  5
14456
  8
0
 10
142.9232128180592
 20
197.11389565072199
 30
0.0
  0
VERTEX
  5
14457
  8
0
 10
142.9304029516793
 20
196.82381307940241
 30
0.0
  0
SEQEND
  5
14458
  8
0
  0
POLYLINE
  5
9047
  8
0
 66
     1
 10
0.0
 20
0.0
 30
0.0
  0
VERTEX
  5
14459
  8
0
 10
142.9304029516793
 20
196.82381307940241
 30
0.0
  0
VERTEX
  5
1445A
  8
0
 10
142.9232128180592
 20
196.5337305080829
 30
0.0
  0
VERTEX
  5
1445B
  8
0
 10
142.86643823427491
 20
195.95132233650739
 30
0.0
  0
VERTEX
  5
1445C
  8
0
 10
142.7518278955217
 20
195.34176175773561
 30
0.0
  0
VERTEX
  5
1445D
  8
0
 10
142.6709832422637
 20
195.017187862063
 30
0.0
  0
SEQEND
  5
1445E
  8
0
  0
POLYLINE
  5
9048
  8
0
 66
     1
 10
0.0
 20
0.0
 30
0.0
  0
VERTEX
  5
1445F
  8
0
 10
138.48982266109491
 20
195.017187862063
 30
0.0
  0
VERTEX
  5
14460
  8
0
 10
138.40897800783659
 20
195.34176175773561
 30
0.0
  0
VERTEX
  5
14461
  8
0
 10
138.29436766908361
 20
195.95132233650739
 30
0.0
  0
VERTEX
  5
14462
  8
0
 10
138.23759308529901
 20
196.5337305080829
 30
0.0
  0
VERTEX
  5
14463
  8
0
 10
138.2304029516792
 20
196.82381307940241
 30
0.0
  0
SEQEND
  5
14464
  8
0
  0
POLYLINE
  5
9049
  8
0
 66
     1
 10
0.0
 20
0.0
 30
0.0
  0
VERTEX
  5
14465
  8
0
 10
138.2304029516792
 20
196.82381307940241
 30
0.0
  0
VERTEX
  5
14466
  8
0
 10
138.23759308529901
 20
197.11389565072199
 30
0.0
  0
VERTEX
  5
14467
  8
0
 10
138.29436766908361
 20
197.69630382229741
 30
0.0
  0
VERTEX
  5
14468
  8
0
 10
138.40897800783659
 20
198.3058644010693
 30
0.0
  0
VERTEX
  5
14469
  8
0
 10
138.48982266109491
 20
198.6304382967418
 30
0.0
  0
SEQEND
  5
1446A
  8
0
  0
LINE
  5
904A
  8
0
 10
142.6709832422637
 20
195.017187862063
 30
0.0
 11
138.48982266109491
 21
195.017187862063
 31
0.0
  0
POLYLINE
  5
904B
  8
0
 66
     1
 10
0.0
 20
0.0
 30
0.0
  0
VERTEX
  5
1446B
  8
0
 10
142.6709832422637
 20
209.47018960077679
 30
0.0
  0
VERTEX
  5
1446C
  8
0
 10
142.7518278955219
 20
209.14561570510469
 30
0.0
  0
VERTEX
  5
1446D
  8
0
 10
142.86643823427491
 20
208.53605512633291
 30
0.0
  0
VERTEX
  5
1446E
  8
0
 10
142.9232128180592
 20
207.95364695475689
 30
0.0
  0
VERTEX
  5
1446F
  8
0
 10
142.9304029516793
 20
207.66356438343789
 30
0.0
  0
SEQEND
  5
14470
  8
0
  0
POLYLINE
  5
904C
  8
0
 66
     1
 10
0.0
 20
0.0
 30
0.0
  0
VERTEX
  5
14471
  8
0
 10
142.9304029516793
 20
207.66356438343789
 30
0.0
  0
VERTEX
  5
14472
  8
0
 10
142.9232128180592
 20
207.37348181211831
 30
0.0
  0
VERTEX
  5
14473
  8
0
 10
142.86643823427491
 20
206.79107364054241
 30
0.0
  0
VERTEX
  5
14474
  8
0
 10
142.7518278955217
 20
206.18151306177049
 30
0.0
  0
VERTEX
  5
14475
  8
0
 10
142.6709832422637
 20
205.8569391660985
 30
0.0
  0
SEQEND
  5
14476
  8
0
  0
LINE
  5
904D
  8
0
 10
142.6709832422637
 20
205.8569391660985
 30
0.0
 11
138.48982266109491
 21
205.8569391660985
 31
0.0
  0
POLYLINE
  5
904E
  8
0
 66
     1
 10
0.0
 20
0.0
 30
0.0
  0
VERTEX
  5
14477
  8
0
 10
142.6709832422637
 20
205.8569391660985
 30
0.0
  0
VERTEX
  5
14478
  8
0
 10
142.7518278955217
 20
205.2077913747539
 30
0.0
  0
VERTEX
  5
14479
  8
0
 10
142.86643823427491
 20
203.9886702172102
 30
0.0
  0
VERTEX
  5
1447A
  8
0
 10
142.9232128180592
 20
202.82385387405901
 30
0.0
  0
VERTEX
  5
1447B
  8
0
 10
142.9304029516793
 20
202.24368873142021
 30
0.0
  0
SEQEND
  5
1447C
  8
0
  0
POLYLINE
  5
904F
  8
0
 66
     1
 10
0.0
 20
0.0
 30
0.0
  0
VERTEX
  5
1447D
  8
0
 10
142.9304029516793
 20
202.24368873142021
 30
0.0
  0
VERTEX
  5
1447E
  8
0
 10
142.9232128180592
 20
201.66352358878109
 30
0.0
  0
VERTEX
  5
1447F
  8
0
 10
142.86643823427491
 20
200.49870724562959
 30
0.0
  0
VERTEX
  5
14480
  8
0
 10
142.7518278955217
 20
199.27958608808601
 30
0.0
  0
VERTEX
  5
14481
  8
0
 10
142.6709832422637
 20
198.6304382967418
 30
0.0
  0
SEQEND
  5
14482
  8
0
  0
LINE
  5
9050
  8
0
 10
142.6709832422637
 20
198.6304382967418
 30
0.0
 11
138.48982266109491
 21
198.6304382967418
 31
0.0
  0
LINE
  5
9051
  8
0
 10
80.630402951679116
 20
208.0586887314202
 30
0.0
 11
80.630402951679116
 21
196.4286887314201
 31
0.0
  0
LINE
  5
9052
  8
0
 10
88.630402951679116
 20
208.50202206475339
 30
0.0
 11
88.630402951679116
 21
195.98535539808691
 31
0.0
  0
LINE
  5
9053
  8
0
 10
83.130402951679116
 20
208.50202206475339
 30
0.0
 11
83.130402951679116
 21
195.98535539808691
 31
0.0
  0
POLYLINE
  5
9054
  8
0
 66
     1
 10
0.0
 20
0.0
 30
0.0
  0
VERTEX
  5
14483
  8
0
 10
88.370983242263719
 20
198.6304382967418
 30
0.0
  0
VERTEX
  5
14484
  8
0
 10
88.451827895522001
 20
198.3058644010693
 30
0.0
  0
VERTEX
  5
14485
  8
0
 10
88.566438234274983
 20
197.69630382229741
 30
0.0
  0
VERTEX
  5
14486
  8
0
 10
88.623212818059315
 20
197.11389565072199
 30
0.0
  0
VERTEX
  5
14487
  8
0
 10
88.630402951679116
 20
196.82381307940241
 30
0.0
  0
SEQEND
  5
14488
  8
0
  0
POLYLINE
  5
9055
  8
0
 66
     1
 10
0.0
 20
0.0
 30
0.0
  0
VERTEX
  5
14489
  8
0
 10
88.630402951679116
 20
196.82381307940241
 30
0.0
  0
VERTEX
  5
1448A
  8
0
 10
88.623212818059315
 20
196.5337305080829
 30
0.0
  0
VERTEX
  5
1448B
  8
0
 10
88.566438234274983
 20
195.95132233650739
 30
0.0
  0
VERTEX
  5
1448C
  8
0
 10
88.451827895522001
 20
195.34176175773561
 30
0.0
  0
VERTEX
  5
1448D
  8
0
 10
88.370983242263719
 20
195.017187862063
 30
0.0
  0
SEQEND
  5
1448E
  8
0
  0
POLYLINE
  5
9056
  8
0
 66
     1
 10
0.0
 20
0.0
 30
0.0
  0
VERTEX
  5
1448F
  8
0
 10
83.389822661094726
 20
195.017187862063
 30
0.0
  0
VERTEX
  5
14490
  8
0
 10
83.308978007836686
 20
195.34176175773561
 30
0.0
  0
VERTEX
  5
14491
  8
0
 10
83.194367669083476
 20
195.95132233650739
 30
0.0
  0
VERTEX
  5
14492
  8
0
 10
83.137593085299144
 20
196.5337305080829
 30
0.0
  0
VERTEX
  5
14493
  8
0
 10
83.130402951679116
 20
196.82381307940241
 30
0.0
  0
SEQEND
  5
14494
  8
0
  0
POLYLINE
  5
9057
  8
0
 66
     1
 10
0.0
 20
0.0
 30
0.0
  0
VERTEX
  5
14495
  8
0
 10
83.130402951679116
 20
196.82381307940241
 30
0.0
  0
VERTEX
  5
14496
  8
0
 10
83.137593085299144
 20
197.11389565072199
 30
0.0
  0
VERTEX
  5
14497
  8
0
 10
83.194367669083476
 20
197.69630382229741
 30
0.0
  0
VERTEX
  5
14498
  8
0
 10
83.308978007836686
 20
198.3058644010693
 30
0.0
  0
VERTEX
  5
14499
  8
0
 10
83.389822661094726
 20
198.6304382967418
 30
0.0
  0
SEQEND
  5
1449A
  8
0
  0
LINE
  5
9058
  8
0
 10
88.370983242263719
 20
195.017187862063
 30
0.0
 11
83.389822661094726
 21
195.017187862063
 31
0.0
  0
POLYLINE
  5
9059
  8
0
 66
     1
 10
0.0
 20
0.0
 30
0.0
  0
VERTEX
  5
1449B
  8
0
 10
83.130402951679116
 20
207.66356438343789
 30
0.0
  0
VERTEX
  5
1449C
  8
0
 10
83.136141333408659
 20
207.92265641653049
 30
0.0
  0
VERTEX
  5
1449D
  8
0
 10
83.181434241476381
 20
208.4413959833191
 30
0.0
  0
VERTEX
  5
1449E
  8
0
 10
83.272342672089266
 20
208.9780050221793
 30
0.0
  0
VERTEX
  5
1449F
  8
0
 10
83.389822661094726
 20
209.4701896007773
 30
0.0
  0
SEQEND
  5
144A0
  8
0
  0
POLYLINE
  5
905A
  8
0
 66
     1
 10
0.0
 20
0.0
 30
0.0
  0
VERTEX
  5
144A1
  8
0
 10
83.389822661094726
 20
205.8569391660985
 30
0.0
  0
VERTEX
  5
144A2
  8
0
 10
83.308978007836686
 20
206.18151306177049
 30
0.0
  0
VERTEX
  5
144A3
  8
0
 10
83.194367669083476
 20
206.79107364054241
 30
0.0
  0
VERTEX
  5
144A4
  8
0
 10
83.137593085299144
 20
207.37348181211831
 30
0.0
  0
VERTEX
  5
144A5
  8
0
 10
83.130402951679116
 20
207.66356438343789
 30
0.0
  0
SEQEND
  5
144A6
  8
0
  0
POLYLINE
  5
905B
  8
0
 66
     1
 10
0.0
 20
0.0
 30
0.0
  0
VERTEX
  5
144A7
  8
0
 10
83.130402951679116
 20
202.24368873142021
 30
0.0
  0
VERTEX
  5
144A8
  8
0
 10
83.137593085299144
 20
202.82385387405901
 30
0.0
  0
VERTEX
  5
144A9
  8
0
 10
83.194367669083476
 20
203.9886702172102
 30
0.0
  0
VERTEX
  5
144AA
  8
0
 10
83.308978007836686
 20
205.2077913747539
 30
0.0
  0
VERTEX
  5
144AB
  8
0
 10
83.389822661094726
 20
205.8569391660985
 30
0.0
  0
SEQEND
  5
144AC
  8
0
  0
LINE
  5
905C
  8
0
 10
88.370983242263719
 20
198.6304382967418
 30
0.0
 11
83.389822661094726
 21
198.6304382967418
 31
0.0
  0
POLYLINE
  5
905D
  8
0
 66
     1
 10
0.0
 20
0.0
 30
0.0
  0
VERTEX
  5
144AD
  8
0
 10
83.389822661094726
 20
198.6304382967418
 30
0.0
  0
VERTEX
  5
144AE
  8
0
 10
83.308978007836686
 20
199.27958608808601
 30
0.0
  0
VERTEX
  5
144AF
  8
0
 10
83.194367669083476
 20
200.49870724562959
 30
0.0
  0
VERTEX
  5
144B0
  8
0
 10
83.137593085299144
 20
201.66352358878109
 30
0.0
  0
VERTEX
  5
144B1
  8
0
 10
83.130402951679116
 20
202.24368873142021
 30
0.0
  0
SEQEND
  5
144B2
  8
0
  0
LINE
  5
905E
  8
0
 10
135.63040295167909
 20
209.74368873142021
 30
0.0
 11
135.63040295167909
 21
194.74368873142009
 31
0.0
  0
LINE
  5
905F
  8
0
 10
90.630402951679116
 20
209.74368873142021
 30
0.0
 11
90.630402951679116
 21
194.74368873142009
 31
0.0
  0
LINE
  5
9060
  8
3
 10
77.630402951679116
 20
205.4766887314199
 30
0.0
 11
80.630402951679116
 21
205.4766887314201
 31
0.0
  0
ARC
  5
9061
  8
0
 10
128.13040295167909
 20
260.7244548002738
 30
0.0
 40
2.0000000000000031
 50
0.0
 51
75.155395552896962
  0
ARC
  5
9062
  8
0
 10
128.13040295167909
 20
143.76292266256621
 30
0.0
 40
2.0000000000000129
 50
284.84460444710299
 51
0.0
  0
ARC
  5
9063
  8
0
 10
112.6304029516791
 20
202.24368873142021
 30
0.0
 40
62.499999999999901
 50
255.15539555289689
 51
284.84460444710299
  0
ARC
  5
9064
  8
0
 10
112.6304029516791
 20
202.24368873142021
 30
0.0
 40
62.500000000000092
 50
75.155395552896962
 51
78.236799009381585
  0
ARC
  5
9065
  8
0
 10
97.130402951679116
 20
260.7244548002738
 30
0.0
 40
1.9999999999999969
 50
104.84460444710299
 51
180.0
  0
ARC
  5
9066
  8
0
 10
97.130402951679116
 20
143.76292266256621
 30
0.0
 40
1.9999999999999889
 50
180.0
 51
255.15539555289689
  0
LINE
  5
9067
  8
0
 10
130.13040295167909
 20
260.72445480027397
 30
0.0
 11
130.13040295167909
 21
143.76292266256621
 31
0.0
  0
LINE
  5
9068
  8
0
 10
95.130402951679116
 20
260.72445480027397
 30
0.0
 11
95.130402951679116
 21
143.76292266256621
 31
0.0
  0
POLYLINE
  5
9069
  8
0
 66
     1
 10
0.0
 20
0.0
 30
0.0
  0
VERTEX
  5
144B3
  8
0
 10
590.37739324007737
 20
195.37204995221231
 30
0.0
  0
VERTEX
  5
144B4
  8
0
 10
590.46275123890325
 20
195.45066333119749
 30
0.0
  0
VERTEX
  5
144B5
  8
0
 10
590.63112805668493
 20
195.6125501494661
 30
0.0
  0
VERTEX
  5
144B6
  8
0
 10
590.79610137375221
 20
195.780629053486
 30
0.0
  0
VERTEX
  5
144B7
  8
0
 10
590.87720897051281
 20
195.86697766700689
 30
0.0
  0
VERTEX
  5
144B8
  8
0
 10
590.97094618786991
 20
195.97003435694651
 30
0.0
  0
VERTEX
  5
144B9
  8
0
 10
591.15418284126622
 20
196.18238403049409
 30
0.0
  0
VERTEX
  5
144BA
  8
0
 10
591.33139623492139
 20
196.4029354889812
 30
0.0
  0
VERTEX
  5
144BB
  8
0
 10
591.41761574016039
 20
196.51624007309121
 30
0.0
  0
VERTEX
  5
144BC
  8
0
 10
591.62613019394178
 20
196.7977675750314
 30
0.0
  0
VERTEX
  5
144BD
  8
0
 10
592.03799400842149
 20
197.36854619911259
 30
0.0
  0
VERTEX
  5
144BE
  8
0
 10
592.44286766107757
 20
197.94947910358309
 30
0.0
  0
VERTEX
  5
144BF
  8
0
 10
592.64264490705364
 20
198.2436987377109
 30
0.0
  0
VERTEX
  5
144C0
  8
0
 10
592.68031065739478
 20
198.29974703101169
 30
0.0
  0
VERTEX
  5
144C1
  8
0
 10
592.75544846748687
 20
198.4121095205646
 30
0.0
  0
VERTEX
  5
144C2
  8
0
 10
592.83032734475751
 20
198.52482553160721
 30
0.0
  0
VERTEX
  5
144C3
  8
0
 10
592.86766942972986
 20
198.58131572587121
 30
0.0
  0
VERTEX
  5
144C4
  8
0
 10
593.04205748046195
 20
198.84761484309419
 30
0.0
  0
VERTEX
  5
144C5
  8
0
 10
593.38649422909646
 20
199.3859593663268
 30
0.0
  0
VERTEX
  5
144C6
  8
0
 10
593.72507675834254
 20
199.93185826070331
 30
0.0
  0
VERTEX
  5
144C7
  8
0
 10
593.89214736257782
 20
200.20759991893689
 30
0.0
  0
VERTEX
  5
144C8
  8
0
 10
594.05772419471509
 20
200.48518113335871
 30
0.0
  0
VERTEX
  5
144C9
  8
0
 10
594.38435708237989
 20
201.04579581814431
 30
0.0
  0
VERTEX
  5
144CA
  8
0
 10
594.70489740213134
 20
201.61356840719611
 30
0.0
  0
VERTEX
  5
144CB
  8
0
 10
595.7777175020351
 20
203.65516793949041
 30
0.0
  0
VERTEX
  5
144CC
  8
0
 10
597.43213490503695
 20
207.33781887283789
 30
0.0
  0
VERTEX
  5
144CD
  8
0
 10
598.16813768538441
 20
209.25748301960189
 30
0.0
  0
VERTEX
  5
144CE
  8
0
 10
598.36766196168401
 20
209.81682630795621
 30
0.0
  0
VERTEX
  5
144CF
  8
0
 10
598.75103386820842
 20
210.94665617374099
 30
0.0
  0
VERTEX
  5
144D0
  8
0
 10
599.11327918922245
 20
212.0906768268469
 30
0.0
  0
VERTEX
  5
144D1
  8
0
 10
599.28639873550151
 20
212.6677562471379
 30
0.0
  0
VERTEX
  5
144D2
  8
0
 10
599.45414174547955
 20
213.24807921790261
 30
0.0
  0
VERTEX
  5
144D3
  8
0
 10
599.77338047958619
 20
214.41804483399659
 30
0.0
  0
VERTEX
  5
144D4
  8
0
 10
600.0707696264775
 20
215.5997462775257
 30
0.0
  0
VERTEX
  5
144D5
  8
0
 10
600.34609887307795
 20
216.7923478513321
 30
0.0
  0
VERTEX
  5
144D6
  8
0
 10
600.59917350703427
 20
217.9950061497033
 30
0.0
  0
VERTEX
  5
144D7
  8
0
 10
600.82981455441507
 20
219.20687065483091
 30
0.0
  0
VERTEX
  5
144D8
  8
0
 10
600.9366708886389
 20
219.81598765132409
 30
0.0
  0
VERTEX
  5
144D9
  8
0
 10
601.03785890628217
 20
220.4270843382923
 30
0.0
  0
VERTEX
  5
144DA
  8
0
 10
601.22315943403999
 20
221.65478426714111
 30
0.0
  0
VERTEX
  5
144DB
  8
0
 10
601.38558509348491
 20
222.88910221417191
 30
0.0
  0
VERTEX
  5
144DC
  8
0
 10
601.52502101747973
 20
224.1291652719278
 30
0.0
  0
VERTEX
  5
144DD
  8
0
 10
601.64136859718667
 20
225.3740964700205
 30
0.0
  0
VERTEX
  5
144DE
  8
0
 10
601.73454555180456
 20
226.62301539532149
 30
0.0
  0
VERTEX
  5
144DF
  8
0
 10
601.77242381120925
 20
227.24869433837961
 30
0.0
  0
VERTEX
  5
144E0
  8
0
 10
601.80448598675684
 20
227.87503881458829
 30
0.0
  0
VERTEX
  5
144E1
  8
0
 10
601.85114044029217
 20
229.1292812990859
 30
0.0
  0
VERTEX
  5
144E2
  8
0
 10
601.87447591846421
 20
230.3848558507608
 30
0.0
  0
VERTEX
  5
144E3
  8
0
 10
601.87739324007737
 20
231.01286519014201
 30
0.0
  0
SEQEND
  5
144E4
  8
0
  0
LINE
  5
906A
  8
0
 10
88.370983242263719
 20
209.4701896007773
 30
0.0
 11
83.389822661094726
 21
209.4701896007773
 31
0.0
  0
LINE
  5
906B
  8
0
 10
88.370983242263719
 20
209.4701896007773
 30
0.0
 11
88.630402951679116
 21
208.50202206475339
 31
0.0
  0
LINE
  5
906C
  8
3
 10
77.630402951679116
 20
199.0106887314204
 30
0.0
 11
80.630402951679116
 21
199.0106887314204
 31
0.0
  0
LINE
  5
906D
  8
0
 10
88.370983242263719
 20
205.8569391660985
 30
0.0
 11
83.389822661094726
 21
205.8569391660985
 31
0.0
  0
POLYLINE
  5
906E
  8
0
 66
     1
 10
0.0
 20
0.0
 30
0.0
  0
VERTEX
  5
144E5
  8
0
 10
88.370983242263719
 20
205.8569391660985
 30
0.0
  0
VERTEX
  5
144E6
  8
0
 10
88.451827895522001
 20
206.181513061771
 30
0.0
  0
VERTEX
  5
144E7
  8
0
 10
88.566438234274983
 20
206.79107364054281
 30
0.0
  0
VERTEX
  5
144E8
  8
0
 10
88.623212818059315
 20
207.37348181211831
 30
0.0
  0
VERTEX
  5
144E9
  8
0
 10
88.630402951679116
 20
207.66356438343789
 30
0.0
  0
SEQEND
  5
144EA
  8
0
  0
POLYLINE
  5
906F
  8
0
 66
     1
 10
0.0
 20
0.0
 30
0.0
  0
VERTEX
  5
144EB
  8
0
 10
88.630402951679116
 20
207.66356438343789
 30
0.0
  0
VERTEX
  5
144EC
  8
0
 10
88.623212818059315
 20
207.9536469547574
 30
0.0
  0
VERTEX
  5
144ED
  8
0
 10
88.566438234274983
 20
208.53605512633291
 30
0.0
  0
VERTEX
  5
144EE
  8
0
 10
88.451827895522001
 20
209.14561570510469
 30
0.0
  0
VERTEX
  5
144EF
  8
0
 10
88.370983242263719
 20
209.4701896007773
 30
0.0
  0
SEQEND
  5
144F0
  8
0
  0
POLYLINE
  5
9071
  8
0
 66
     1
 10
0.0
 20
0.0
 30
0.0
  0
VERTEX
  5
144F1
  8
0
 10
88.370983242263719
 20
205.8569391660985
 30
0.0
  0
VERTEX
  5
144F2
  8
0
 10
88.451827895522001
 20
205.20779137475409
 30
0.0
  0
VERTEX
  5
144F3
  8
0
 10
88.566438234274983
 20
203.9886702172104
 30
0.0
  0
VERTEX
  5
144F4
  8
0
 10
88.623212818059315
 20
202.82385387405901
 30
0.0
  0
VERTEX
  5
144F5
  8
0
 10
88.630402951679116
 20
202.24368873141989
 30
0.0
  0
SEQEND
  5
144F6
  8
0
  0
POLYLINE
  5
9072
  8
0
 66
     1
 10
0.0
 20
0.0
 30
0.0
  0
VERTEX
  5
144F7
  8
0
 10
88.370983242263719
 20
198.6304382967418
 30
0.0
  0
VERTEX
  5
144F8
  8
0
 10
88.451827895522001
 20
199.27958608808621
 30
0.0
  0
VERTEX
  5
144F9
  8
0
 10
88.566438234274983
 20
200.4987072456299
 30
0.0
  0
VERTEX
  5
144FA
  8
0
 10
88.623212818059315
 20
201.66352358878129
 30
0.0
  0
VERTEX
  5
144FB
  8
0
 10
88.630402951679116
 20
202.24368873142041
 30
0.0
  0
SEQEND
  5
144FC
  8
0
  0
LINE
  5
9073
  8
0
 10
90.630402951679116
 20
209.74368873142021
 30
0.0
 11
91.130402951679116
 21
209.74368873142021
 31
0.0
  0
LINE
  5
9074
  8
0
 10
137.63040295167909
 20
208.0586887314202
 30
0.0
 11
138.2304029516792
 21
208.0586887314202
 31
0.0
  0
LINE
  5
9075
  8
0
 10
138.2304029516792
 20
208.50202206475359
 30
0.0
 11
138.48982266109491
 21
209.4701896007773
 31
0.0
  0
POLYLINE
  5
9076
  8
0
 66
     1
 10
0.0
 20
0.0
 30
0.0
  0
VERTEX
  5
144FD
  8
0
 10
138.48982266109491
 20
209.4701896007773
 30
0.0
  0
VERTEX
  5
144FE
  8
0
 10
138.40897800783659
 20
209.14561570510469
 30
0.0
  0
VERTEX
  5
144FF
  8
0
 10
138.29436766908361
 20
208.53605512633291
 30
0.0
  0
VERTEX
  5
14500
  8
0
 10
138.23759308529901
 20
207.9536469547574
 30
0.0
  0
VERTEX
  5
14501
  8
0
 10
138.2304029516792
 20
207.66356438343789
 30
0.0
  0
SEQEND
  5
14502
  8
0
  0
POLYLINE
  5
9077
  8
0
 66
     1
 10
0.0
 20
0.0
 30
0.0
  0
VERTEX
  5
14503
  8
0
 10
138.2304029516792
 20
207.66356438343789
 30
0.0
  0
VERTEX
  5
14504
  8
0
 10
138.23759308529901
 20
207.37348181211831
 30
0.0
  0
VERTEX
  5
14505
  8
0
 10
138.29436766908361
 20
206.79107364054281
 30
0.0
  0
VERTEX
  5
14506
  8
0
 10
138.40897800783659
 20
206.181513061771
 30
0.0
  0
VERTEX
  5
14507
  8
0
 10
138.48982266109491
 20
205.8569391660985
 30
0.0
  0
SEQEND
  5
14508
  8
0
  0
LINE
  5
9078
  8
0
 10
142.6709832422637
 20
209.4701896007773
 30
0.0
 11
138.48982266109491
 21
209.4701896007773
 31
0.0
  0
LINE
  5
9079
  8
0
 10
134.13040295167909
 20
209.74368873142021
 30
0.0
 11
135.63040295167909
 21
209.74368873142021
 31
0.0
  0
LINE
  5
907A
  8
0
 10
135.63040295167909
 20
206.24368873142021
 30
0.0
 11
137.63040295167909
 21
206.24368873142021
 31
0.0
  0
POLYLINE
  5
907B
  8
0
 66
     1
 10
0.0
 20
0.0
 30
0.0
  0
VERTEX
  5
14509
  8
0
 10
138.2304029516792
 20
202.24368873142021
 30
0.0
  0
VERTEX
  5
1450A
  8
0
 10
138.23759308529901
 20
202.8238538740593
 30
0.0
  0
VERTEX
  5
1450B
  8
0
 10
138.29436766908361
 20
203.98867021721071
 30
0.0
  0
VERTEX
  5
1450C
  8
0
 10
138.40897800783659
 20
205.20779137475429
 30
0.0
  0
VERTEX
  5
1450D
  8
0
 10
138.48982266109491
 20
205.8569391660987
 30
0.0
  0
SEQEND
  5
1450E
  8
0
  0
POLYLINE
  5
907C
  8
0
 66
     1
 10
0.0
 20
0.0
 30
0.0
  0
VERTEX
  5
1450F
  8
0
 10
138.2304029516792
 20
202.24368873142041
 30
0.0
  0
VERTEX
  5
14510
  8
0
 10
138.2375930852993
 20
201.66352358878129
 30
0.0
  0
VERTEX
  5
14511
  8
0
 10
138.29436766908429
 20
200.4987072456299
 30
0.0
  0
VERTEX
  5
14512
  8
0
 10
138.4089780078377
 20
199.27958608808621
 30
0.0
  0
VERTEX
  5
14513
  8
0
 10
138.48982266109621
 20
198.6304382967418
 30
0.0
  0
SEQEND
  5
14514
  8
0
  0
LINE
  5
907D
  8
1
 10
112.6304029516791
 20
303.380492316691
 30
0.0
 11
112.6304029516791
 21
128.01527732418131
 31
0.0
  0
LINE
  5
907E
  8
1
 10
154.23943754419719
 20
202.24368873141989
 30
0.0
 11
71.021368359161443
 21
202.24368873141989
 31
0.0
  0
LINE
  5
90D2
  8
0
 10
131.63040295167909
 20
263.43109668683019
 30
0.0
 11
93.630402951679116
 21
263.43109668683019
 31
0.0
  0
LINE
  5
9114
  8
0
 10
131.63040295167909
 20
263.43109668683019
 30
0.0
 11
131.63040295167909
 21
271.4730105916455
 31
0.0
  0
LINE
  5
9115
  8
0
 10
128.63040295167929
 20
271.4730105916455
 30
0.0
 11
128.63040295167929
 21
272.60214967266182
 31
0.0
  0
LINE
  5
9116
  8
0
 10
131.63040295167909
 20
271.4730105916455
 30
0.0
 11
93.630402951679116
 21
271.4730105916455
 31
0.0
  0
LINE
  5
9117
  8
0
 10
93.630402951679116
 20
263.43109668683019
 30
0.0
 11
93.630402951679116
 21
271.4730105916455
 31
0.0
  0
LINE
  5
911C
  8
0
 10
255.87335676289379
 20
272.6021496726616
 30
0.0
 11
258.41739045640952
 21
272.25182632722039
 31
0.0
  0
LINE
  5
911F
  8
0
 10
255.42243847079411
 20
269.4917089785497
 30
0.0
 11
255.87335676289379
 21
272.6021496726616
 31
0.0
  0
LINE
  5
9120
  8
0
 10
255.42243847079411
 20
269.4917089785497
 30
0.0
 11
256.16038546334721
 21
266.50762619561573
 31
0.0
  0
LINE
  5
9121
  8
0
 10
258.07381807057351
 20
269.20457816917582
 30
0.0
 11
258.41739045640952
 21
272.25182632722061
 31
0.0
  0
LINE
  5
9124
  8
0
 10
258.07381807057351
 20
269.20457816917582
 30
0.0
 11
258.13956915287258
 21
268.82552289940912
 31
0.0
  0
LINE
  5
9125
  8
0
 10
258.44511079549852
 20
268.64615414727467
 30
0.0
 11
258.13956915287258
 21
268.82552289940912
 31
0.0
  0
LINE
  5
9166
  8
0
 10
128.63040295167929
 20
272.60214967266182
 30
0.0
 11
96.630402951678875
 21
272.60214967266182
 31
0.0
  0
LINE
  5
91AE
  8
0
 10
96.630402951678875
 20
271.4730105916455
 30
0.0
 11
96.630402951678875
 21
272.60214967266182
 31
0.0
  0
ARC
  5
91B1
  8
0
 10
112.6304029516791
 20
202.24368873142021
 30
0.0
 40
62.500000000000092
 50
101.7632009906184
 51
104.84460444710299
  0
LINE
  5
91B3
  8
0
 10
131.13040295167909
 20
263.43109668683019
 30
0.0
 11
131.13040295167909
 21
192.24368873142009
 31
0.0
  0
LINE
  5
91B4
  8
0
 10
94.130402951679116
 20
271.4730105916455
 30
0.0
 11
94.130402951679116
 21
278.24368873142038
 31
0.0
  0
LINE
  5
91F5
  8
0
 10
93.630402951679116
 20
266.03581935183382
 30
0.0
 11
131.63040295167909
 21
266.03581935183382
 31
0.0
  0
LINE
  5
9277
  8
0
 10
587.37739324007748
 20
263.4310966868299
 30
0.0
 11
581.61910064914275
 21
263.43109668683019
 31
0.0
  0
LINE
  5
927A
  8
0
 10
556.13568583101255
 20
263.43109668683019
 30
0.0
 11
550.37739324007748
 21
263.4310966868299
 31
0.0
  0
LINE
  5
9E9E
  8
0
 10
91.230402951679025
 20
268.74368873141992
 30
0.0
 11
93.630402951679116
 21
268.74368873141992
 31
0.0
  0
LINE
  5
9E9F
  8
0
 10
131.63040295167909
 20
268.74368873141992
 30
0.0
 11
134.03040295167901
 21
268.74368873141992
 31
0.0
  0
LINE
  5
1229A
  8
0
 10
322.78979817774371
 20
413.27251748446008
 30
0.0
 11
313.99223282712859
 21
413.27251748446008
 31
0.0
  0
LINE
  5
1229B
  8
0
 10
322.78979817774371
 20
456.27251748446008
 30
0.0
 11
313.99223282712859
 21
456.27251748446008
 31
0.0
  0
LINE
  5
1229C
  8
0
 10
313.08731598404802
 20
409.17251748446017
 30
0.0
 11
313.08731598404802
 21
409.77251748446008
 31
0.0
  0
LINE
  5
1229D
  8
0
 10
314.90231598404762
 20
466.77251748446008
 30
0.0
 11
314.90231598404762
 21
469.00551748446009
 31
0.0
  0
LINE
  5
1229E
  8
0
 10
314.90231598404762
 20
469.00551748446009
 30
0.0
 11
315.09659696196883
 21
469.1997984623809
 31
0.0
  0
LINE
  5
1229F
  8
0
 10
314.90231598404762
 20
456.77251748446008
 30
0.0
 11
314.90231598404762
 21
458.77251748446008
 31
0.0
  0
LINE
  5
122A0
  8
0
 10
313.08731598404802
 20
464.27251748446008
 30
0.0
 11
313.08731598404802
 21
466.77251748446008
 31
0.0
  0
LINE
  5
122A1
  8
0
 10
314.90231598404762
 20
409.77251748446008
 30
0.0
 11
314.90231598404762
 21
411.77251748446008
 31
0.0
  0
LINE
  5
122A2
  8
0
 10
313.08731598404802
 20
409.77251748446008
 30
0.0
 11
322.31635608163788
 21
409.77251748446008
 31
0.0
  0
LINE
  5
122A3
  8
0
 10
314.90231598404762
 20
469.00551748446009
 30
0.0
 11
317.42842753974168
 21
469.00551748446009
 31
0.0
  0
LINE
  5
122A4
  8
0
 10
312.64398265071441
 20
404.47251748446013
 30
0.0
 11
320.54735332207377
 21
404.47251748446013
 31
0.0
  0
LINE
  5
122A5
  8
0
 10
312.64398265071441
 20
409.17251748446017
 30
0.0
 11
322.11444017365011
 21
409.17251748446017
 31
0.0
  0
POLYLINE
  5
122A6
  8
0
 66
     1
 10
0.0
 20
0.0
 30
0.0
  0
VERTEX
  5
14515
  8
0
 10
312.64398265071441
 20
404.47251748446013
 30
0.0
  0
VERTEX
  5
14516
  8
0
 10
312.64398265071441
 20
404.47970761808023
 30
0.0
  0
VERTEX
  5
14517
  8
0
 10
312.64398265071441
 20
404.53648220186449
 30
0.0
  0
VERTEX
  5
14518
  8
0
 10
312.64398265071441
 20
404.65109254061753
 30
0.0
  0
VERTEX
  5
14519
  8
0
 10
312.64398265071441
 20
404.73193719387569
 30
0.0
  0
SEQEND
  5
1451A
  8
0
  0
POLYLINE
  5
122A7
  8
0
 66
     1
 10
0.0
 20
0.0
 30
0.0
  0
VERTEX
  5
1451B
  8
0
 10
312.64398265071441
 20
408.91309777504449
 30
0.0
  0
VERTEX
  5
1451C
  8
0
 10
312.64398265071441
 20
408.99394242830289
 30
0.0
  0
VERTEX
  5
1451D
  8
0
 10
312.64398265071441
 20
409.10855276705581
 30
0.0
  0
VERTEX
  5
1451E
  8
0
 10
312.64398265071441
 20
409.16532735084007
 30
0.0
  0
VERTEX
  5
1451F
  8
0
 10
312.64398265071441
 20
409.17251748446017
 30
0.0
  0
SEQEND
  5
14520
  8
0
  0
POLYLINE
  5
122A8
  8
0
 66
     1
 10
0.0
 20
0.0
 30
0.0
  0
VERTEX
  5
14521
  8
0
 10
322.03148265071468
 20
409.17251748446017
 30
0.0
  0
VERTEX
  5
14522
  8
0
 10
321.52904489879887
 20
409.16532735084041
 30
0.0
  0
VERTEX
  5
14523
  8
0
 10
320.52028435488683
 20
409.10855276705581
 30
0.0
  0
VERTEX
  5
14524
  8
0
 10
319.46449446216269
 20
408.99394242830289
 30
0.0
  0
VERTEX
  5
14525
  8
0
 10
318.90231598404762
 20
408.91309777504449
 30
0.0
  0
SEQEND
  5
14526
  8
0
  0
POLYLINE
  5
122A9
  8
0
 66
     1
 10
0.0
 20
0.0
 30
0.0
  0
VERTEX
  5
14527
  8
0
 10
318.90231598404762
 20
404.73193719387569
 30
0.0
  0
VERTEX
  5
14528
  8
0
 10
319.1954619174644
 20
404.68821803474242
 30
0.0
  0
VERTEX
  5
14529
  8
0
 10
319.75985895439641
 20
404.61385214856438
 30
0.0
  0
VERTEX
  5
1452A
  8
0
 10
320.30166470085078
 20
404.55585558094327
 30
0.0
  0
VERTEX
  5
1452B
  8
0
 10
320.56639845914788
 20
404.53270453047861
 30
0.0
  0
SEQEND
  5
1452C
  8
0
  0
POLYLINE
  5
122AA
  8
0
 66
     1
 10
0.0
 20
0.0
 30
0.0
  0
VERTEX
  5
1452D
  8
0
 10
322.11270276843379
 20
409.17232920395639
 30
0.0
  0
VERTEX
  5
1452E
  8
0
 10
322.09917796962918
 20
409.17238668593637
 30
0.0
  0
VERTEX
  5
1452F
  8
0
 10
322.07211449434539
 20
409.1724703618371
 30
0.0
  0
VERTEX
  5
14530
  8
0
 10
322.04503165529292
 20
409.17251224463729
 30
0.0
  0
VERTEX
  5
14531
  8
0
 10
322.03148265071468
 20
409.17251748446017
 30
0.0
  0
SEQEND
  5
14532
  8
0
  0
POLYLINE
  5
122AB
  8
0
 66
     1
 10
0.0
 20
0.0
 30
0.0
  0
VERTEX
  5
14533
  8
0
 10
315.77314931738101
 20
409.17251748446017
 30
0.0
  0
VERTEX
  5
14534
  8
0
 10
315.27071156546572
 20
409.16532735084041
 30
0.0
  0
VERTEX
  5
14535
  8
0
 10
314.26195102155322
 20
409.10855276705581
 30
0.0
  0
VERTEX
  5
14536
  8
0
 10
313.20616112882948
 20
408.99394242830289
 30
0.0
  0
VERTEX
  5
14537
  8
0
 10
312.64398265071441
 20
408.91309777504449
 30
0.0
  0
SEQEND
  5
14538
  8
0
  0
LINE
  5
122AC
  8
0
 10
312.64398265071441
 20
404.73193719387569
 30
0.0
 11
312.64398265071441
 21
408.91309777504449
 31
0.0
  0
POLYLINE
  5
122AD
  8
0
 66
     1
 10
0.0
 20
0.0
 30
0.0
  0
VERTEX
  5
14539
  8
0
 10
312.64398265071441
 20
404.73193719387569
 30
0.0
  0
VERTEX
  5
1453A
  8
0
 10
313.20616112882948
 20
404.65109254061753
 30
0.0
  0
VERTEX
  5
1453B
  8
0
 10
314.26195102155322
 20
404.53648220186449
 30
0.0
  0
VERTEX
  5
1453C
  8
0
 10
315.27071156546572
 20
404.47970761808023
 30
0.0
  0
VERTEX
  5
1453D
  8
0
 10
315.77314931738101
 20
404.47251748446013
 30
0.0
  0
SEQEND
  5
1453E
  8
0
  0
POLYLINE
  5
122AE
  8
0
 66
     1
 10
0.0
 20
0.0
 30
0.0
  0
VERTEX
  5
1453F
  8
0
 10
315.77314931738101
 20
404.47251748446013
 30
0.0
  0
VERTEX
  5
14540
  8
0
 10
316.27558706929682
 20
404.47970761808023
 30
0.0
  0
VERTEX
  5
14541
  8
0
 10
317.28434761320892
 20
404.53648220186449
 30
0.0
  0
VERTEX
  5
14542
  8
0
 10
318.34013750593289
 20
404.65109254061753
 30
0.0
  0
VERTEX
  5
14543
  8
0
 10
318.90231598404762
 20
404.73193719387569
 30
0.0
  0
SEQEND
  5
14544
  8
0
  0
LINE
  5
122AF
  8
0
 10
318.90231598404762
 20
404.73193719387569
 30
0.0
 11
318.90231598404762
 21
408.91309777504449
 31
0.0
  0
POLYLINE
  5
122B0
  8
0
 66
     1
 10
0.0
 20
0.0
 30
0.0
  0
VERTEX
  5
14545
  8
0
 10
318.90231598404762
 20
408.91309777504449
 30
0.0
  0
VERTEX
  5
14546
  8
0
 10
318.34013750593289
 20
408.99394242830289
 30
0.0
  0
VERTEX
  5
14547
  8
0
 10
317.28434761320892
 20
409.10855276705581
 30
0.0
  0
VERTEX
  5
14548
  8
0
 10
316.27558706929682
 20
409.16532735084007
 30
0.0
  0
VERTEX
  5
14549
  8
0
 10
315.77314931738101
 20
409.17251748446017
 30
0.0
  0
SEQEND
  5
1454A
  8
0
  0
LINE
  5
122B1
  8
0
 10
313.08731598404802
 20
466.77251748446008
 30
0.0
 11
319.93410254259879
 21
466.77251748446008
 31
0.0
  0
LINE
  5
122B2
  8
0
 10
313.15380780377569
 20
458.77251748446008
 30
0.0
 11
322.64891274977617
 21
458.77251748446008
 31
0.0
  0
LINE
  5
122B3
  8
0
 10
312.64398265071441
 20
464.27251748446008
 30
0.0
 11
320.81389470980412
 21
464.27251748446008
 31
0.0
  0
POLYLINE
  5
122B4
  8
0
 66
     1
 10
0.0
 20
0.0
 30
0.0
  0
VERTEX
  5
1454B
  8
0
 10
312.64398265071441
 20
464.01309777504468
 30
0.0
  0
VERTEX
  5
1454C
  8
0
 10
312.64398265071441
 20
464.09394242830268
 30
0.0
  0
VERTEX
  5
1454D
  8
0
 10
312.64398265071441
 20
464.20855276705601
 30
0.0
  0
VERTEX
  5
1454E
  8
0
 10
312.64398265071441
 20
464.26532735084032
 30
0.0
  0
VERTEX
  5
1454F
  8
0
 10
312.64398265071441
 20
464.27251748446008
 30
0.0
  0
SEQEND
  5
14550
  8
0
  0
POLYLINE
  5
122B5
  8
0
 66
     1
 10
0.0
 20
0.0
 30
0.0
  0
VERTEX
  5
14551
  8
0
 10
320.82826897619771
 20
464.23169181288438
 30
0.0
  0
VERTEX
  5
14552
  8
0
 10
320.52257508474759
 20
464.20874299072818
 30
0.0
  0
VERTEX
  5
14553
  8
0
 10
319.8971771618194
 20
464.14717988756991
 30
0.0
  0
VERTEX
  5
14554
  8
0
 10
319.24356344891021
 20
464.06367083512288
 30
0.0
  0
VERTEX
  5
14555
  8
0
 10
318.90231598404762
 20
464.01309777504468
 30
0.0
  0
SEQEND
  5
14556
  8
0
  0
POLYLINE
  5
122B6
  8
0
 66
     1
 10
0.0
 20
0.0
 30
0.0
  0
VERTEX
  5
14557
  8
0
 10
318.90231598404762
 20
459.03193719387582
 30
0.0
  0
VERTEX
  5
14558
  8
0
 10
319.46449446216269
 20
458.95109254061742
 30
0.0
  0
VERTEX
  5
14559
  8
0
 10
320.52028435488683
 20
458.8364822018645
 30
0.0
  0
VERTEX
  5
1455A
  8
0
 10
321.52904489879887
 20
458.77970761808018
 30
0.0
  0
VERTEX
  5
1455B
  8
0
 10
322.03148265071468
 20
458.77251748446008
 30
0.0
  0
SEQEND
  5
1455C
  8
0
  0
POLYLINE
  5
122B7
  8
0
 66
     1
 10
0.0
 20
0.0
 30
0.0
  0
VERTEX
  5
1455D
  8
0
 10
322.03148265071468
 20
458.77251748446008
 30
0.0
  0
VERTEX
  5
1455E
  8
0
 10
322.13372408094892
 20
458.7728158287315
 30
0.0
  0
VERTEX
  5
1455F
  8
0
 10
322.33753292576063
 20
458.77518890499891
 30
0.0
  0
VERTEX
  5
14560
  8
0
 10
322.54080470757123
 20
458.77990556846578
 30
0.0
  0
VERTEX
  5
14561
  8
0
 10
322.64237237074212
 20
458.78313579253688
 30
0.0
  0
SEQEND
  5
14562
  8
0
  0
POLYLINE
  5
122B8
  8
0
 66
     1
 10
0.0
 20
0.0
 30
0.0
  0
VERTEX
  5
14563
  8
0
 10
315.77314931738101
 20
464.27251748446008
 30
0.0
  0
VERTEX
  5
14564
  8
0
 10
315.27071156546572
 20
464.26532735084032
 30
0.0
  0
VERTEX
  5
14565
  8
0
 10
314.26195102155322
 20
464.20855276705601
 30
0.0
  0
VERTEX
  5
14566
  8
0
 10
313.20616112882948
 20
464.09394242830268
 30
0.0
  0
VERTEX
  5
14567
  8
0
 10
312.64398265071441
 20
464.01309777504468
 30
0.0
  0
SEQEND
  5
14568
  8
0
  0
LINE
  5
122B9
  8
0
 10
312.64398265071441
 20
460.31726801370257
 30
0.0
 11
312.64398265071441
 21
464.01309777504468
 31
0.0
  0
POLYLINE
  5
122BA
  8
0
 66
     1
 10
0.0
 20
0.0
 30
0.0
  0
VERTEX
  5
14569
  8
0
 10
313.10233262146949
 20
458.96506871476328
 30
0.0
  0
VERTEX
  5
1456A
  8
0
 10
313.5716063234554
 20
458.90558106357901
 30
0.0
  0
VERTEX
  5
1456B
  8
0
 10
314.46876133437399
 20
458.82039810401483
 30
0.0
  0
VERTEX
  5
1456C
  8
0
 10
315.33847868789189
 20
458.77790174955243
 30
0.0
  0
VERTEX
  5
1456D
  8
0
 10
315.77314931738101
 20
458.77251748446008
 30
0.0
  0
SEQEND
  5
1456E
  8
0
  0
POLYLINE
  5
122BB
  8
0
 66
     1
 10
0.0
 20
0.0
 30
0.0
  0
VERTEX
  5
1456F
  8
0
 10
315.77314931738101
 20
458.77251748446008
 30
0.0
  0
VERTEX
  5
14570
  8
0
 10
316.27558706929682
 20
458.77970761808018
 30
0.0
  0
VERTEX
  5
14571
  8
0
 10
317.28434761320892
 20
458.8364822018645
 30
0.0
  0
VERTEX
  5
14572
  8
0
 10
318.34013750593289
 20
458.95109254061742
 30
0.0
  0
VERTEX
  5
14573
  8
0
 10
318.90231598404762
 20
459.03193719387582
 30
0.0
  0
SEQEND
  5
14574
  8
0
  0
LINE
  5
122BC
  8
0
 10
318.90231598404762
 20
459.03193719387582
 30
0.0
 11
318.90231598404762
 21
464.01309777504468
 31
0.0
  0
POLYLINE
  5
122BD
  8
0
 66
     1
 10
0.0
 20
0.0
 30
0.0
  0
VERTEX
  5
14575
  8
0
 10
318.90231598404762
 20
464.01309777504468
 30
0.0
  0
VERTEX
  5
14576
  8
0
 10
318.34013750593289
 20
464.09394242830268
 30
0.0
  0
VERTEX
  5
14577
  8
0
 10
317.28434761320892
 20
464.20855276705601
 30
0.0
  0
VERTEX
  5
14578
  8
0
 10
316.27558706929682
 20
464.26532735084032
 30
0.0
  0
VERTEX
  5
14579
  8
0
 10
315.77314931738101
 20
464.27251748446008
 30
0.0
  0
SEQEND
  5
1457A
  8
0
  0
LINE
  5
122BE
  8
0
 10
313.48773652497403
 20
411.77251748446008
 30
0.0
 11
322.87845513940829
 21
411.77251748446008
 31
0.0
  0
LINE
  5
122BF
  8
0
 10
313.81965487585421
 20
456.77251748446008
 30
0.0
 11
322.87845513940829
 21
456.77251748446008
 31
0.0
  0
LINE
  5
1407B
  8
3
 10
88.630402951679571
 20
205.4766887314199
 30
0.0
 11
90.630402951679116
 21
205.47668873142001
 31
0.0
  0
LINE
  5
1407C
  8
3
 10
88.630402951679571
 20
199.0106887314204
 30
0.0
 11
90.630402951679116
 21
199.0106887314204
 31
0.0
  0
LINE
  5
1407D
  8
3
 10
135.63040295167909
 20
205.47668873141981
 30
0.0
 11
137.6304029516786
 21
205.47668873142001
 31
0.0
  0
LINE
  5
1407E
  8
3
 10
135.63040295167909
 20
199.0106887314204
 30
0.0
 11
137.6304029516786
 21
199.0106887314204
 31
0.0
  0
TEXT
  5
1412E
  8
0
 62
     3
 10
0.0
 20
0.0
 30
0.0
 40
10.0
  1
CAFF-125SBF-SUS
  7
STANDARD1
  0
ENDSEC
  0
EOF
