  0
SECTION
  2
HEADER
  9
$ACADVER
  1
AC1009
  9
$INSBASE
 10
0.0
 20
0.0
 30
0.0
  9
$EXTMIN
 10
0.0
 20
-2.960436562073669
 30
0.0
  9
$EXTMAX
 10
557.96552534442787
 20
434.5690887083685
 30
0.0
  9
$LIMMIN
 10
0.0
 20
0.0
  9
$LIMMAX
 10
375.0
 20
270.0
  9
$ORTHOMODE
 70
     1
  9
$REGENMODE
 70
     1
  9
$FILLMODE
 70
     1
  9
$QTEXTMODE
 70
     0
  9
$MIRRTEXT
 70
     1
  9
$DRAGMODE
 70
     2
  9
$LTSCALE
 40
10.0
  9
$OSMODE
 70
  3071
  9
$ATTMODE
 70
     1
  9
$TEXTSIZE
 40
5.0
  9
$TRACEWID
 40
0.05
  9
$TEXTSTYLE
  7
STANDARD
  9
$CLAYER
  8
0
  9
$CELTYPE
  6
BYLAYER
  9
$CECOLOR
 62
     6
  9
$DIMSCALE
 40
1.0
  9
$DIMASZ
 40
3.0
  9
$DIMEXO
 40
2.0
  9
$DIMDLI
 40
0.38
  9
$DIMRND
 40
0.0
  9
$DIMDLE
 40
0.0
  9
$DIMEXE
 40
2.0
  9
$DIMTP
 40
0.0
  9
$DIMTM
 40
0.0
  9
$DIMTXT
 40
3.2000000000000002
  9
$DIMCEN
 40
0.0
  9
$DIMTSZ
 40
0.0
  9
$DIMTOL
 70
     0
  9
$DIMLIM
 70
     0
  9
$DIMTIH
 70
     0
  9
$DIMTOH
 70
     0
  9
$DIMSE1
 70
     0
  9
$DIMSE2
 70
     0
  9
$DIMTAD
 70
     1
  9
$DIMZIN
 70
     8
  9
$DIMBLK
  1

  9
$DIMASO
 70
     0
  9
$DIMSHO
 70
     0
  9
$DIMPOST
  1

  9
$DIMAPOST
  1

  9
$DIMALT
 70
     0
  9
$DIMALTD
 70
     2
  9
$DIMALTF
 40
25.399999999999999
  9
$DIMLFAC
 40
1.0
  9
$DIMTOFL
 70
     0
  9
$DIMTVP
 40
1.6000000000000001
  9
$DIMTIX
 70
     1
  9
$DIMSOXD
 70
     0
  9
$DIMSAH
 70
     0
  9
$DIMBLK1
  1

  9
$DIMBLK2
  1

  9
$DIMSTYLE
  2
STANDARD
  9
$DIMCLRD
 70
     0
  9
$DIMCLRE
 70
     0
  9
$DIMCLRT
 70
     0
  9
$DIMTFAC
 40
1.0
  9
$DIMGAP
 40
1.1999999999999991
  9
$LUNITS
 70
     2
  9
$LUPREC
 70
     4
  9
$SKETCHINC
 40
0.1
  9
$FILLETRAD
 40
0.0
  9
$AUNITS
 70
     0
  9
$AUPREC
 70
     4
  9
$MENU
  1
ACAD
  9
$ELEVATION
 40
0.0
  9
$PELEVATION
 40
0.0
  9
$THICKNESS
 40
0.0
  9
$LIMCHECK
 70
     0
  9
$BLIPMODE
 70
     0
  9
$CHAMFERA
 40
0.0
  9
$CHAMFERB
 40
0.0
  9
$SKPOLY
 70
     0
  9
$TDCREATE
 40
2448055.7149187499
  9
$TDUPDATE
 40
2456598.5774206598
  9
$TDINDWG
 40
2.0645991666999999
  9
$TDUSRTIMER
 40
2.0645991666999999
  9
$USRTIMER
 70
     1
  9
$ANGBASE
 50
0.0
  9
$ANGDIR
 70
     0
  9
$PDMODE
 70
     0
  9
$PDSIZE
 40
0.0
  9
$PLINEWID
 40
0.0
  9
$COORDS
 70
     1
  9
$SPLFRAME
 70
     0
  9
$SPLINETYPE
 70
     6
  9
$SPLINESEGS
 70
     8
  9
$ATTDIA
 70
     0
  9
$ATTREQ
 70
     1
  9
$HANDLING
 70
     1
  9
$HANDSEED
  5
1430C
  9
$SURFTAB1
 70
     6
  9
$SURFTAB2
 70
     6
  9
$SURFTYPE
 70
     6
  9
$SURFU
 70
     6
  9
$SURFV
 70
     6
  9
$UCSNAME
  2

  9
$UCSORG
 10
0.0
 20
0.0
 30
0.0
  9
$UCSXDIR
 10
1.0
 20
0.0
 30
0.0
  9
$UCSYDIR
 10
0.0
 20
1.0
 30
0.0
  9
$PUCSNAME
  2

  9
$PUCSORG
 10
0.0
 20
0.0
 30
0.0
  9
$PUCSXDIR
 10
1.0
 20
0.0
 30
0.0
  9
$PUCSYDIR
 10
0.0
 20
1.0
 30
0.0
  9
$USERI1
 70
     0
  9
$USERI2
 70
     0
  9
$USERI3
 70
     0
  9
$USERI4
 70
     0
  9
$USERI5
 70
     0
  9
$USERR1
 40
0.0
  9
$USERR2
 40
0.0
  9
$USERR3
 40
0.0
  9
$USERR4
 40
0.0
  9
$USERR5
 40
0.0
  9
$WORLDVIEW
 70
     1
  9
$SHADEDGE
 70
     3
  9
$SHADEDIF
 70
    70
  9
$TILEMODE
 70
     1
  9
$MAXACTVP
 70
    16
  9
$PLIMCHECK
 70
     0
  9
$PEXTMIN
 10
1.0000000000000000E+020
 20
1.0000000000000000E+020
 30
1.0000000000000000E+020
  9
$PEXTMAX
 10
-1.0000000000000000E+020
 20
-1.0000000000000000E+020
 30
-1.0000000000000000E+020
  9
$PLIMMIN
 10
0.0
 20
0.0
  9
$PLIMMAX
 10
12.0
 20
9.0
  9
$UNITMODE
 70
     0
  9
$VISRETAIN
 70
     0
  9
$PLINEGEN
 70
     1
  9
$PSLTSCALE
 70
     0
  0
ENDSEC
  0
SECTION
  2
TABLES
  0
TABLE
  2
VPORT
 70
     1
  0
VPORT
  2
*ACTIVE
 70
     0
 10
0.0
 20
0.0
 11
1.0
 21
1.0
 12
291.1067024136816
 22
215.80914829644209
 13
0.0
 23
0.0
 14
5.0
 24
5.0
 15
10.0
 25
10.0
 16
0.0
 26
0.0
 36
1.0
 17
0.0
 27
0.0
 37
0.0
 40
441.47058986071897
 41
1.831871345029239
 42
50.0
 43
0.0
 44
0.0
 50
0.0
 51
0.0
 71
     0
 72
   500
 73
     1
 74
     1
 75
     0
 76
     0
 77
     0
 78
     2
  0
ENDTAB
  0
TABLE
  2
LTYPE
 70
     3
  0
LTYPE
  2
CONTINUOUS
 70
     0
  3
実線
 72
    65
 73
     0
 40
0.0
  0
LTYPE
  2
CENTER
 70
     0
  3
____ _ ____ _ ____ _ ____ _ ____ _ ____ _ ____
 72
    65
 73
     4
 40
2.0
 49
1.25
 49
-0.25
 49
0.25
 49
-0.25
  0
LTYPE
  2
PHANTOM2
 70
     0
  3
___ _ _ ___ _ _ ___ _ _ ___ _ _
 72
    65
 73
     6
 40
1.25
 49
0.625
 49
-0.125
 49
0.125
 49
-0.125
 49
0.125
 49
-0.125
  0
ENDTAB
  0
TABLE
  2
LAYER
 70
     4
  0
LAYER
  2
0
 70
     0
 62
     7
  6
CONTINUOUS
  0
LAYER
  2
1
 70
     0
 62
     1
  6
CENTER
  0
LAYER
  2
DEFPOINTS
 70
     0
 62
     7
  6
CONTINUOUS
  0
LAYER
  2
3
 70
     0
 62
     3
  6
CONTINUOUS
  0
ENDTAB
  0
TABLE
  2
STYLE
 70
     3
  0
STYLE
  2
STANDARD
 70
     0
 40
0.0
 41
1.0
 50
0.0
 71
     0
 42
5.0
  3
simplex.shx
  4
bigfont.shx
  0
STYLE
  2
07500
 70
     0
 40
0.0
 41
0.75
 50
0.0
 71
     0
 42
0.2
  3
simplex.shx
  4
bigfont.shx
  0
STYLE
  2
STANDARD1
 70
     0
 40
0.0
 41
1.0
 50
0.0
 71
     0
 42
3.0
  3
txt
  4

  0
ENDTAB
  0
TABLE
  2
VIEW
 70
     2
  0
VIEW
  2
ALL
 70
     0
 40
270.0
 10
220.99159663865549
 20
135.0
 41
0.0
 11
0.0
 21
0.0
 31
1.0
 12
0.0
 22
0.0
 32
0.0
 42
0.0
 43
0.0
 44
0.0
 50
0.0
 71
     0
  0
VIEW
  2
OLE1
 70
     0
 40
168.2487151179721
 10
2892.3009567448912
 20
702.51600084347126
 41
162.5749581879237
 11
0.0
 21
0.0
 31
1.0
 12
0.0
 22
0.0
 32
0.0
 42
50.0
 43
0.0
 44
0.0
 50
0.0
 71
     0
  0
ENDTAB
  0
TABLE
  2
UCS
 70
     0
  0
ENDTAB
  0
TABLE
  2
APPID
 70
    48
  0
APPID
  2
ACAD
 70
     0
  0
APPID
  2
DCO15
 70
     0
  0
APPID
  2
GENIUS_GENOREF_13
 70
     0
  0
APPID
  2
GENIUS_GENOENT_13
 70
     0
  0
APPID
  2
GENIUS_GENBH_13
 70
     0
  0
APPID
  2
GENIUS_GENOBJ_13
 70
     0
  0
APPID
  2
GENIUS_GENODEF_13
 70
     0
  0
APPID
  2
GENIUS_GENOLIS_13
 70
     0
  0
APPID
  2
GENIUS_GENOBJ-NBEHI-BHF_13
 70
     0
  0
APPID
  2
GENIUS_GENOBJ-NBEHI-BHB_13
 70
     0
  0
APPID
  2
GENIUS_GENOBJ-F-PART_13
 70
     0
  0
APPID
  2
GENIUS_GEFSTDP_13
 70
     0
  0
APPID
  2
GENIUS_GENOBJ-N-RSSYM_13
 70
     0
  0
APPID
  2
GENIUS_GENSYMENT_13
 70
     0
  0
APPID
  2
GENIUS_GENOBJ-N-TIT_13
 70
     0
  0
APPID
  2
GENIUS_GENTITLE_13
 70
     0
  0
APPID
  2
GENIUS_GENZVEED_13
 70
     0
  0
APPID
  2
GENIUS_GENOBJ-N-LEADER_13
 70
     0
  0
APPID
  2
GENIUS_GENOBJ-N-FIL_13
 70
     0
  0
APPID
  2
GENIUS_GENOBJ-N-SEC_13
 70
     0
  0
APPID
  2
GENIUS_GENOBJ-N-CRS_13
 70
     0
  0
APPID
  2
GENIUS_GENOBJ-N-ZOO_13
 70
     0
  0
APPID
  2
GENIUS_GENZOO_13
 70
     0
  0
APPID
  2
GENIUS_GENOBJ-F-TOL_13
 70
     0
  0
APPID
  2
GENIUS_GENFIL_13
 70
     0
  0
APPID
  2
GENIUS_GENOBJ-N-CHA_13
 70
     0
  0
APPID
  2
_CALL_MAC$
 70
     0
  0
APPID
  2
ASM_BASE
 70
     0
  0
APPID
  2
ASM_EXPLO_VER_2_00
 70
     0
  0
APPID
  2
ASM_CADM_VER_12_00
 70
     0
  0
APPID
  2
ASM_BASEFORO
 70
     0
  0
APPID
  2
ASM_BASETRAVI
 70
     0
  0
APPID
  2
ASM_BASETRAVI1
 70
     0
  0
APPID
  2
ASM_GRUPPI
 70
     0
  0
APPID
  2
ASM_CADM_ALBERO
 70
     0
  0
APPID
  2
ASM_GOLE
 70
     0
  0
APPID
  2
ACAD_MLEADERVER
 70
     0
  0
APPID
  2
ACAD_DSTYLE_DIMJAG
 70
     0
  0
APPID
  2
ACAD_DSTYLE_DIMTALN
 70
     0
  0
APPID
  2
ACAD_EXEMPT_FROM_CAD_STANDARDS
 70
     0
  0
APPID
  2
ACAD_DSTYLE_DIMRADIAL_EXTENSION
 70
     0
  0
APPID
  2
ACAD_PSEXT
 70
     0
  0
APPID
  2
ACAD_DSTYLE_DIMBREAK
 70
     0
  0
APPID
  2
ACAECLAYERSTANDARD
 70
     0
  0
APPID
  2
ACCMTRANSPARENCY
 70
     0
  0
APPID
  2
GRADIENTCOLOR1ACI
 70
     0
  0
APPID
  2
GRADIENTCOLOR2ACI
 70
     0
  0
APPID
  2
ACAD_NAV_VCDISPLAY
 70
     0
  0
ENDTAB
  0
TABLE
  2
DIMSTYLE
 70
     1
  0
DIMSTYLE
  2
STANDARD
 70
     0
  3

  4

  5

  6

  7

 40
1.0
 41
0.18
 42
0.0625
 43
0.38
 44
0.18
 45
0.0
 46
0.0
 47
0.0
 48
0.0
140
0.18
141
0.09
142
0.0
143
25.399999999999999
144
1.0
145
0.0
146
1.0
147
0.09
 71
     0
 72
     0
 73
     1
 74
     1
 75
     0
 76
     0
 77
     0
 78
     0
170
     0
171
     2
172
     0
173
     0
174
     0
175
     0
176
     0
177
     0
178
     0
  0
ENDTAB
  0
ENDSEC
  0
SECTION
  2
BLOCKS
  0
BLOCK
  8
0
  2
$MODEL_SPACE
 70
     0
 10
0.0
 20
0.0
 30
0.0
  3
$MODEL_SPACE
  1

  0
ENDBLK
  5
36
  8
0
  0
BLOCK
 67
     1
  8
0
  2
$PAPER_SPACE
 70
     0
 10
0.0
 20
0.0
 30
0.0
  3
$PAPER_SPACE
  1

  0
ENDBLK
  5
34
 67
     1
  8
0
  0
ENDSEC
  0
SECTION
  2
ENTITIES
  0
CIRCLE
  5
C9FF
  8
0
 10
357.90231598404739
 20
384.07567298692851
 30
0.0
 40
8.9249999999999972
  0
LINE
  5
CA00
  8
0
 10
304.2023159840474
 20
361.57567298692851
 30
0.0
 11
304.2023159840474
 21
364.57567298692851
 31
0.0
  0
LINE
  5
CA01
  8
0
 10
304.2023159840474
 20
403.57567298692851
 30
0.0
 11
304.2023159840474
 21
406.57567298692851
 31
0.0
  0
LINE
  5
CA06
  8
0
 10
307.90231598404739
 20
350.57567298692851
 30
0.0
 11
307.90231598404739
 21
417.5756729869284
 31
0.0
  0
ARC
  5
CA07
  8
0
 10
316.90231598404739
 20
350.57567298692851
 30
0.0
 40
8.9999999999999911
 50
180.0
 51
270.0
  0
LINE
  5
CA08
  8
0
 10
398.90231598404762
 20
341.57567298692851
 30
0.0
 11
316.90231598404739
 21
341.57567298692851
 31
0.0
  0
ARC
  5
CA09
  8
0
 10
398.90231598404762
 20
350.57567298692851
 30
0.0
 40
9.0000000000000142
 50
270.0
 51
0.0
  0
LINE
  5
CA0A
  8
0
 10
407.90231598404762
 20
417.5756729869284
 30
0.0
 11
407.90231598404762
 21
350.57567298692851
 31
0.0
  0
ARC
  5
CA0B
  8
0
 10
398.90231598404762
 20
417.5756729869284
 30
0.0
 40
9.0
 50
0.0
 51
90.0
  0
LINE
  5
CA0C
  8
0
 10
316.90231598404739
 20
426.57567298692851
 30
0.0
 11
398.90231598404762
 21
426.57567298692851
 31
0.0
  0
ARC
  5
CA0D
  8
0
 10
316.90231598404739
 20
417.5756729869284
 30
0.0
 40
8.9999999999999947
 50
90.0
 51
180.0
  0
LINE
  5
CA0E
  8
0
 10
402.1713908252745
 20
412.65264803985281
 30
0.0
 11
399.6713908252745
 21
405.15264803985269
 31
0.0
  0
ARC
  5
CA0F
  8
0
 10
395.40231598404762
 20
406.57567298692851
 30
0.0
 40
4.499999999999968
 50
161.565051177078
 51
341.56505117707798
  0
LINE
  5
CA10
  8
0
 10
391.13324114282022
 20
407.9986979340041
 30
0.0
 11
393.63324114282022
 21
415.49869793400421
 31
0.0
  0
ARC
  5
CA11
  8
0
 10
397.90231598404762
 20
414.07567298692851
 30
0.0
 40
4.499999999999968
 50
341.56505117707798
 51
161.565051177078
  0
LINE
  5
CA12
  8
0
 10
393.63324114282022
 20
352.65264803985281
 30
0.0
 11
391.13324114282022
 21
360.15264803985269
 31
0.0
  0
ARC
  5
CA13
  8
0
 10
395.40231598404762
 20
361.57567298692851
 30
0.0
 40
4.4999999999999938
 50
18.43494882292201
 51
198.434948822922
  0
LINE
  5
CA14
  8
0
 10
399.6713908252745
 20
362.99869793400421
 30
0.0
 11
402.1713908252745
 21
355.49869793400433
 31
0.0
  0
ARC
  5
CA15
  8
0
 10
397.90231598404762
 20
354.07567298692851
 30
0.0
 40
4.4999999999999929
 50
198.434948822922
 51
18.43494882292201
  0
LINE
  5
CA16
  8
0
 10
316.13324114282011
 20
405.15264803985269
 30
0.0
 11
313.63324114282011
 21
412.65264803985269
 31
0.0
  0
ARC
  5
CA17
  8
0
 10
317.90231598404739
 20
414.07567298692851
 30
0.0
 40
4.4999999999999956
 50
18.43494882292201
 51
198.434948822922
  0
LINE
  5
CA18
  8
0
 10
322.17139082527473
 20
415.49869793400421
 30
0.0
 11
324.67139082527473
 21
407.99869793400421
 31
0.0
  0
ARC
  5
CA19
  8
0
 10
320.40231598404739
 20
406.57567298692851
 30
0.0
 40
4.4999999999999973
 50
198.434948822922
 51
18.43494882292201
  0
LINE
  5
CA1A
  8
0
 10
324.67139082527473
 20
360.15264803985269
 30
0.0
 11
322.17139082527473
 21
352.65264803985281
 31
0.0
  0
ARC
  5
CA1B
  8
0
 10
317.90231598404739
 20
354.07567298692851
 30
0.0
 40
4.4999999999999956
 50
161.565051177078
 51
341.56505117707798
  0
LINE
  5
CA1C
  8
0
 10
313.63324114282011
 20
355.49869793400433
 30
0.0
 11
316.13324114282011
 21
362.99869793400421
 31
0.0
  0
ARC
  5
CA1D
  8
0
 10
320.40231598404739
 20
361.57567298692851
 30
0.0
 40
4.4999999999999947
 50
341.56505117707798
 51
161.565051177078
  0
CIRCLE
  5
CA22
  8
0
 10
357.90231598404739
 20
384.07567298692851
 30
0.0
 40
13.579006893609151
  0
CIRCLE
  5
CA26
  8
0
 10
357.90231598404739
 20
384.07567298692851
 30
0.0
 40
20.175000000000001
  0
CIRCLE
  5
CA29
  8
0
 10
357.90231598404739
 20
384.07567298692851
 30
0.0
 40
25.668546822706869
  0
CIRCLE
  5
CA2B
  8
0
 10
357.90231598404739
 20
384.07567298692851
 30
0.0
 40
27.174999999999962
  0
CIRCLE
  5
CA2C
  8
0
 10
357.90231598404739
 20
384.07567298692851
 30
0.0
 40
31.175000000000001
  0
LINE
  5
CA32
  8
0
 10
324.90231598404739
 20
361.57567298692851
 30
0.0
 11
315.65889949379482
 21
361.57567298692851
 31
0.0
  0
LINE
  5
CA36
  8
0
 10
324.90231598404739
 20
406.57567298692851
 30
0.0
 11
315.65889949379482
 21
406.57567298692851
 31
0.0
  0
LINE
  5
CA3A
  8
0
 10
304.2023159840474
 20
361.57567298692851
 30
0.0
 11
307.90231598404739
 21
361.57567298692851
 31
0.0
  0
LINE
  5
CA3B
  8
0
 10
307.90231598404739
 20
406.57567298692851
 30
0.0
 11
304.2023159840474
 21
406.57567298692851
 31
0.0
  0
LINE
  5
CA45
  8
0
 10
307.90231598404739
 20
403.57567298692851
 30
0.0
 11
304.2023159840474
 21
403.57567298692851
 31
0.0
  0
LINE
  5
CA46
  8
0
 10
304.2023159840474
 20
364.57567298692851
 30
0.0
 11
307.90231598404739
 21
364.57567298692851
 31
0.0
  0
LINE
  5
CA48
  8
1
 10
270.90890026260729
 20
384.07567298692828
 30
0.0
 11
415.89573170548778
 21
384.07567298692828
 31
0.0
  0
LINE
  5
CA49
  8
1
 10
357.9023159840475
 20
434.5690887083685
 30
0.0
 11
357.9023159840475
 21
333.58225726548841
 31
0.0
  0
LINE
  5
CA5D
  8
0
 10
314.90231598404739
 20
416.57567298692851
 30
0.0
 11
314.90231598404739
 21
417.42977495317808
 31
0.0
  0
LINE
  5
CA61
  8
0
 10
322.90231598404739
 20
408.5756729869284
 30
0.0
 11
322.90231598404739
 21
406.57567298692851
 31
0.0
  0
LINE
  5
CA65
  8
0
 10
322.90231598404739
 20
361.57567298692851
 30
0.0
 11
322.90231598404739
 21
359.57567298692851
 31
0.0
  0
LINE
  5
CA68
  8
0
 10
314.98753491410582
 20
359.57567298692851
 30
0.0
 11
324.48122964774348
 21
359.57567298692851
 31
0.0
  0
LINE
  5
CA6E
  8
0
 10
313.40245607981001
 20
354.2756729869285
 30
0.0
 11
322.71652682917659
 21
354.2756729869285
 31
0.0
  0
LINE
  5
CA71
  8
0
 10
314.79172237938582
 20
358.97567298692849
 30
0.0
 11
324.28481268213892
 21
358.97567298692849
 31
0.0
  0
POLYLINE
  5
CA7D
  8
0
 66
     1
 10
0.0
 20
0.0
 30
0.0
  0
VERTEX
  5
13F68
  8
0
 10
322.031482650714
 20
358.97567298692849
 30
0.0
  0
VERTEX
  5
13F69
  8
0
 10
321.52904489879847
 20
358.96848285330861
 30
0.0
  0
VERTEX
  5
13F6A
  8
0
 10
320.52028435488609
 20
358.91170826952418
 30
0.0
  0
VERTEX
  5
13F6B
  8
0
 10
319.46449446216218
 20
358.7970979307712
 30
0.0
  0
VERTEX
  5
13F6C
  8
0
 10
318.90231598404739
 20
358.71625327751298
 30
0.0
  0
SEQEND
  5
13F6D
  8
0
  0
POLYLINE
  5
CA7E
  8
0
 66
     1
 10
0.0
 20
0.0
 30
0.0
  0
VERTEX
  5
13F6E
  8
0
 10
318.90231598404739
 20
354.53509269634412
 30
0.0
  0
VERTEX
  5
13F6F
  8
0
 10
319.46449446216218
 20
354.4542480430859
 30
0.0
  0
VERTEX
  5
13F70
  8
0
 10
320.52028435488609
 20
354.3396377043328
 30
0.0
  0
VERTEX
  5
13F71
  8
0
 10
321.52904489879847
 20
354.28286312054843
 30
0.0
  0
VERTEX
  5
13F72
  8
0
 10
322.031482650714
 20
354.2756729869285
 30
0.0
  0
SEQEND
  5
13F73
  8
0
  0
POLYLINE
  5
CA7F
  8
0
 66
     1
 10
0.0
 20
0.0
 30
0.0
  0
VERTEX
  5
13F74
  8
0
 10
322.031482650714
 20
354.2756729869285
 30
0.0
  0
VERTEX
  5
13F75
  8
0
 10
322.14620962865621
 20
354.27604863829163
 30
0.0
  0
VERTEX
  5
13F76
  8
0
 10
322.37484828954803
 20
354.27903485796588
 30
0.0
  0
VERTEX
  5
13F77
  8
0
 10
322.60290931759732
 20
354.28496739257349
 30
0.0
  0
VERTEX
  5
13F78
  8
0
 10
322.71691060272133
 20
354.28902971147841
 30
0.0
  0
SEQEND
  5
13F79
  8
0
  0
POLYLINE
  5
CA82
  8
0
 66
     1
 10
0.0
 20
0.0
 30
0.0
  0
VERTEX
  5
13F7A
  8
0
 10
324.23241001275721
 20
358.84268108257282
 30
0.0
  0
VERTEX
  5
13F7B
  8
0
 10
323.85328395880111
 20
358.88347389787958
 30
0.0
  0
VERTEX
  5
13F7C
  8
0
 10
323.11683914025969
 20
358.94237964800863
 30
0.0
  0
VERTEX
  5
13F7D
  8
0
 10
322.39380813051542
 20
358.97193002128893
 30
0.0
  0
VERTEX
  5
13F7E
  8
0
 10
322.031482650714
 20
358.97567298692849
 30
0.0
  0
SEQEND
  5
13F7F
  8
0
  0
POLYLINE
  5
CA83
  8
0
 66
     1
 10
0.0
 20
0.0
 30
0.0
  0
VERTEX
  5
13F80
  8
0
 10
315.77314931738078
 20
358.97567298692849
 30
0.0
  0
VERTEX
  5
13F81
  8
0
 10
315.60779837582248
 20
358.9748927709739
 30
0.0
  0
VERTEX
  5
13F82
  8
0
 10
315.27850997299493
 20
358.96870386106582
 30
0.0
  0
VERTEX
  5
13F83
  8
0
 10
314.94959719707708
 20
358.95642438170512
 30
0.0
  0
VERTEX
  5
13F84
  8
0
 10
314.78472788484822
 20
358.9480150353574
 30
0.0
  0
SEQEND
  5
13F85
  8
0
  0
POLYLINE
  5
CA87
  8
0
 66
     1
 10
0.0
 20
0.0
 30
0.0
  0
VERTEX
  5
13F86
  8
0
 10
313.41815622273077
 20
354.42713329494183
 30
0.0
  0
VERTEX
  5
13F87
  8
0
 10
313.82631080777759
 20
354.38057562616939
 30
0.0
  0
VERTEX
  5
13F88
  8
0
 10
314.61524436247191
 20
354.31351511152928
 30
0.0
  0
VERTEX
  5
13F89
  8
0
 10
315.38680399702957
 20
354.27992802226117
 30
0.0
  0
VERTEX
  5
13F8A
  8
0
 10
315.77314931738078
 20
354.2756729869285
 30
0.0
  0
SEQEND
  5
13F8B
  8
0
  0
POLYLINE
  5
CA88
  8
0
 66
     1
 10
0.0
 20
0.0
 30
0.0
  0
VERTEX
  5
13F8C
  8
0
 10
315.77314931738078
 20
354.2756729869285
 30
0.0
  0
VERTEX
  5
13F8D
  8
0
 10
316.27558706929631
 20
354.28286312054843
 30
0.0
  0
VERTEX
  5
13F8E
  8
0
 10
317.28434761320858
 20
354.3396377043328
 30
0.0
  0
VERTEX
  5
13F8F
  8
0
 10
318.3401375059326
 20
354.4542480430859
 30
0.0
  0
VERTEX
  5
13F90
  8
0
 10
318.90231598404739
 20
354.53509269634412
 30
0.0
  0
SEQEND
  5
13F91
  8
0
  0
LINE
  5
CA89
  8
0
 10
318.90231598404739
 20
354.53509269634412
 30
0.0
 11
318.90231598404739
 21
358.71625327751298
 31
0.0
  0
POLYLINE
  5
CA8A
  8
0
 66
     1
 10
0.0
 20
0.0
 30
0.0
  0
VERTEX
  5
13F92
  8
0
 10
318.90231598404739
 20
358.71625327751298
 30
0.0
  0
VERTEX
  5
13F93
  8
0
 10
318.3401375059326
 20
358.7970979307712
 30
0.0
  0
VERTEX
  5
13F94
  8
0
 10
317.28434761320858
 20
358.91170826952418
 30
0.0
  0
VERTEX
  5
13F95
  8
0
 10
316.27558706929631
 20
358.96848285330861
 30
0.0
  0
VERTEX
  5
13F96
  8
0
 10
315.77314931738078
 20
358.97567298692849
 30
0.0
  0
SEQEND
  5
13F97
  8
0
  0
LINE
  5
CA8E
  8
0
 10
314.15615184239141
 20
416.57567298692851
 30
0.0
 11
321.64398724818028
 21
416.57567298692851
 31
0.0
  0
LINE
  5
CA92
  8
0
 10
314.98800225626809
 20
408.5756729869284
 30
0.0
 11
324.48044479778008
 21
408.5756729869284
 31
0.0
  0
LINE
  5
CA95
  8
0
 10
313.39821634312369
 20
414.07567298692851
 30
0.0
 11
322.64891274977577
 21
414.07567298692851
 31
0.0
  0
POLYLINE
  5
CAA1
  8
0
 66
     1
 10
0.0
 20
0.0
 30
0.0
  0
VERTEX
  5
13F98
  8
0
 10
322.031482650714
 20
414.07567298692851
 30
0.0
  0
VERTEX
  5
13F99
  8
0
 10
321.52904489879847
 20
414.06848285330852
 30
0.0
  0
VERTEX
  5
13F9A
  8
0
 10
320.52028435488609
 20
414.01170826952409
 30
0.0
  0
VERTEX
  5
13F9B
  8
0
 10
319.46449446216218
 20
413.89709793077111
 30
0.0
  0
VERTEX
  5
13F9C
  8
0
 10
318.90231598404739
 20
413.816253277513
 30
0.0
  0
SEQEND
  5
13F9D
  8
0
  0
POLYLINE
  5
CAA2
  8
0
 66
     1
 10
0.0
 20
0.0
 30
0.0
  0
VERTEX
  5
13F9E
  8
0
 10
318.90231598404739
 20
408.83509269634402
 30
0.0
  0
VERTEX
  5
13F9F
  8
0
 10
319.46449446216218
 20
408.75424804308579
 30
0.0
  0
VERTEX
  5
13FA0
  8
0
 10
320.52028435488609
 20
408.6396377043327
 30
0.0
  0
VERTEX
  5
13FA1
  8
0
 10
321.52904489879847
 20
408.58286312054838
 30
0.0
  0
VERTEX
  5
13FA2
  8
0
 10
322.031482650714
 20
408.5756729869284
 30
0.0
  0
SEQEND
  5
13FA3
  8
0
  0
POLYLINE
  5
CAA3
  8
0
 66
     1
 10
0.0
 20
0.0
 30
0.0
  0
VERTEX
  5
13FA4
  8
0
 10
322.031482650714
 20
408.5756729869284
 30
0.0
  0
VERTEX
  5
13FA5
  8
0
 10
322.42358436641609
 20
408.58005559712598
 30
0.0
  0
VERTEX
  5
13FA6
  8
0
 10
323.20679819250199
 20
408.61464865090369
 30
0.0
  0
VERTEX
  5
13FA7
  8
0
 10
324.00843289830289
 20
408.68374669350328
 30
0.0
  0
VERTEX
  5
13FA8
  8
0
 10
324.4236706229168
 20
408.73174986256038
 30
0.0
  0
SEQEND
  5
13FA9
  8
0
  0
POLYLINE
  5
CAA6
  8
0
 66
     1
 10
0.0
 20
0.0
 30
0.0
  0
VERTEX
  5
13FAA
  8
0
 10
322.64951204052409
 20
414.0648058328872
 30
0.0
  0
VERTEX
  5
13FAB
  8
0
 10
322.54675442768439
 20
414.06811167446062
 30
0.0
  0
VERTEX
  5
13FAC
  8
0
 10
322.34110837964209
 20
414.07293883477081
 30
0.0
  0
VERTEX
  5
13FAD
  8
0
 10
322.13492031950472
 20
414.0753676211184
 30
0.0
  0
VERTEX
  5
13FAE
  8
0
 10
322.031482650714
 20
414.07567298692851
 30
0.0
  0
SEQEND
  5
13FAF
  8
0
  0
POLYLINE
  5
CAA7
  8
0
 66
     1
 10
0.0
 20
0.0
 30
0.0
  0
VERTEX
  5
13FB0
  8
0
 10
315.77314931738078
 20
414.07567298692851
 30
0.0
  0
VERTEX
  5
13FB1
  8
0
 10
315.38512846228292
 20
414.0713810115904
 30
0.0
  0
VERTEX
  5
13FB2
  8
0
 10
314.61017760109019
 20
414.03750265226478
 30
0.0
  0
VERTEX
  5
13FB3
  8
0
 10
313.8175520990448
 20
413.96985240769078
 30
0.0
  0
VERTEX
  5
13FB4
  8
0
 10
313.40734100176587
 20
413.9228765736151
 30
0.0
  0
SEQEND
  5
13FB5
  8
0
  0
POLYLINE
  5
CAAB
  8
0
 66
     1
 10
0.0
 20
0.0
 30
0.0
  0
VERTEX
  5
13FB6
  8
0
 10
314.9866762447981
 20
408.59323611492459
 30
0.0
  0
VERTEX
  5
13FB7
  8
0
 10
315.11757606539192
 20
408.58789562904252
 30
0.0
  0
VERTEX
  5
13FB8
  8
0
 10
315.37925139790008
 20
408.58009578932013
 30
0.0
  0
VERTEX
  5
13FB9
  8
0
 10
315.64151203441548
 20
408.57616752107992
 30
0.0
  0
VERTEX
  5
13FBA
  8
0
 10
315.77314931738078
 20
408.5756729869284
 30
0.0
  0
SEQEND
  5
13FBB
  8
0
  0
POLYLINE
  5
CAAC
  8
0
 66
     1
 10
0.0
 20
0.0
 30
0.0
  0
VERTEX
  5
13FBC
  8
0
 10
315.77314931738078
 20
408.5756729869284
 30
0.0
  0
VERTEX
  5
13FBD
  8
0
 10
316.27558706929631
 20
408.58286312054838
 30
0.0
  0
VERTEX
  5
13FBE
  8
0
 10
317.28434761320858
 20
408.6396377043327
 30
0.0
  0
VERTEX
  5
13FBF
  8
0
 10
318.3401375059326
 20
408.75424804308579
 30
0.0
  0
VERTEX
  5
13FC0
  8
0
 10
318.90231598404739
 20
408.83509269634402
 30
0.0
  0
SEQEND
  5
13FC1
  8
0
  0
LINE
  5
CAAD
  8
0
 10
318.90231598404739
 20
408.83509269634402
 30
0.0
 11
318.90231598404739
 21
413.816253277513
 31
0.0
  0
POLYLINE
  5
CAAE
  8
0
 66
     1
 10
0.0
 20
0.0
 30
0.0
  0
VERTEX
  5
13FC2
  8
0
 10
318.90231598404739
 20
413.816253277513
 30
0.0
  0
VERTEX
  5
13FC3
  8
0
 10
318.3401375059326
 20
413.89709793077111
 30
0.0
  0
VERTEX
  5
13FC4
  8
0
 10
317.28434761320858
 20
414.01170826952409
 30
0.0
  0
VERTEX
  5
13FC5
  8
0
 10
316.27558706929631
 20
414.06848285330852
 30
0.0
  0
VERTEX
  5
13FC6
  8
0
 10
315.77314931738078
 20
414.07567298692851
 30
0.0
  0
SEQEND
  5
13FC7
  8
0
  0
ARC
  5
CAD6
  8
0
 10
283.1951738413332
 20
371.07567298692851
 30
0.0
 40
1.9999999999999869
 50
200.00519008816099
 51
270.0
  0
ARC
  5
CAD8
  8
0
 10
318.90231598404739
 20
384.0756729869284
 30
0.0
 40
39.999999999999979
 50
159.99480991183901
 51
200.00519008816099
  0
ARC
  5
CADA
  8
0
 10
283.1951738413332
 20
397.07567298692851
 30
0.0
 40
1.999999999999958
 50
90.0
 51
159.99480991183901
  0
LINE
  5
CAE6
  8
0
 10
283.1951738413332
 20
369.07567298692851
 30
0.0
 11
307.89356436636552
 21
369.07567298692851
 31
0.0
  0
LINE
  5
CAEA
  8
0
 10
283.1951738413332
 20
399.07567298692851
 30
0.0
 11
307.89356436636552
 21
399.07567298692851
 31
0.0
  0
LINE
  5
CB11
  8
0
 10
480.6655253444282
 20
243.44368873142051
 30
0.0
 11
480.6655253444282
 21
244.24368873142049
 31
0.0
  0
LINE
  5
CB12
  8
0
 10
550.26552534442806
 20
244.24368873142049
 30
0.0
 11
550.26552534442806
 21
243.44368873142051
 31
0.0
  0
LINE
  5
CB13
  8
0
 10
480.96430468044991
 20
234.94368873142051
 30
0.0
 11
479.46552534442799
 21
243.44368873142051
 31
0.0
  0
LINE
  5
CB14
  8
0
 10
551.46552534442799
 20
243.44368873142051
 30
0.0
 11
549.96674600840606
 21
234.94368873142051
 31
0.0
  0
LINE
  5
CB15
  8
0
 10
482.46552534442787
 20
198.24419727447321
 30
0.0
 11
482.46552534442787
 21
234.94368873142051
 31
0.0
  0
LINE
  5
CB16
  8
0
 10
548.46552534442787
 20
234.94368873142051
 30
0.0
 11
548.46552534442787
 21
198.24419727447321
 31
0.0
  0
LINE
  5
CB1D
  8
0
 10
472.96552534442787
 20
246.74368873142049
 30
0.0
 11
472.96552534442787
 21
244.24368873142049
 31
0.0
  0
LINE
  5
CB1F
  8
0
 10
557.96552534442787
 20
246.74368873142049
 30
0.0
 11
472.96552534442787
 21
246.74368873142049
 31
0.0
  0
LINE
  5
CB21
  8
0
 10
557.96552534442787
 20
244.24368873142049
 30
0.0
 11
472.96552534442787
 21
244.24368873142049
 31
0.0
  0
LINE
  5
CB22
  8
0
 10
557.96552534442787
 20
246.74368873142049
 30
0.0
 11
557.96552534442787
 21
244.24368873142049
 31
0.0
  0
LINE
  5
CB36
  8
0
 10
551.46552534442799
 20
243.44368873142051
 30
0.0
 11
479.46552534442799
 21
243.44368873142051
 31
0.0
  0
LINE
  5
CB37
  8
0
 10
549.96674600840606
 20
234.94368873142051
 30
0.0
 11
480.96430468044991
 21
234.94368873142051
 31
0.0
  0
LINE
  5
CB3F
  8
0
 10
492.96552534442799
 20
175.56739723372459
 30
0.0
 11
492.96552534442799
 21
169.74368873142049
 31
0.0
  0
LINE
  5
CB40
  8
0
 10
495.96552534442799
 20
169.74368873142049
 30
0.0
 11
492.96552534442799
 21
169.74368873142049
 31
0.0
  0
LINE
  5
CB41
  8
0
 10
537.96552534442799
 20
169.74368873142049
 30
0.0
 11
534.96552534442799
 21
169.74368873142049
 31
0.0
  0
LINE
  5
CB42
  8
0
 10
537.96552534442799
 20
169.74368873142049
 30
0.0
 11
537.96552534442799
 21
175.56739723372459
 31
0.0
  0
POLYLINE
  5
CB43
  8
0
 66
     1
 10
0.0
 20
0.0
 30
0.0
  0
VERTEX
  5
13FC8
  8
0
 10
534.96552534442799
 20
176.21381799020401
 30
0.0
  0
VERTEX
  5
13FC9
  8
0
 10
535.53109800188156
 20
176.66663373647251
 30
0.0
  0
VERTEX
  5
13FCA
  8
0
 10
536.62617952436312
 20
177.61041666368521
 30
0.0
  0
VERTEX
  5
13FCB
  8
0
 10
537.67102134813013
 20
178.60318838455339
 30
0.0
  0
VERTEX
  5
13FCC
  8
0
 10
538.17382234214119
 20
179.1172128591077
 30
0.0
  0
VERTEX
  5
13FCD
  8
0
 10
538.66314280609186
 20
179.64259185700629
 30
0.0
  0
VERTEX
  5
13FCE
  8
0
 10
539.60018840003374
 20
180.72615932570639
 30
0.0
  0
VERTEX
  5
13FCF
  8
0
 10
540.47993339304958
 20
181.8513181810024
 30
0.0
  0
VERTEX
  5
13FD0
  8
0
 10
541.30028909151861
 20
183.015397066829
 30
0.0
  0
VERTEX
  5
13FD1
  8
0
 10
542.05930780408971
 20
184.21563222304849
 30
0.0
  0
VERTEX
  5
13FD2
  8
0
 10
542.75518746589648
 20
185.44917404718069
 30
0.0
  0
VERTEX
  5
13FD3
  8
0
 10
543.07892788739616
 20
186.07752264745741
 30
0.0
  0
VERTEX
  5
13FD4
  8
0
 10
543.38627591702755
 20
186.71309385993871
 30
0.0
  0
VERTEX
  5
13FD5
  8
0
 10
543.95107482508797
 20
188.00439085850911
 30
0.0
  0
VERTEX
  5
13FD6
  8
0
 10
544.44824324254648
 20
189.3199992410691
 30
0.0
  0
VERTEX
  5
13FD7
  8
0
 10
544.87660079041893
 20
190.65679548562321
 30
0.0
  0
VERTEX
  5
13FD8
  8
0
 10
545.23513046072514
 20
192.0116057658806
 30
0.0
  0
VERTEX
  5
13FD9
  8
0
 10
545.52298103107614
 20
193.38121348656401
 30
0.0
  0
VERTEX
  5
13FDA
  8
0
 10
545.64018148427022
 20
194.07055138398741
 30
0.0
  0
VERTEX
  5
13FDB
  8
0
 10
545.73946908564665
 20
194.762366920262
 30
0.0
  0
VERTEX
  5
13FDC
  8
0
 10
545.88408063774523
 20
196.15178692769081
 30
0.0
  0
VERTEX
  5
13FDD
  8
0
 10
545.95647235012211
 20
197.5461747430389
 30
0.0
  0
VERTEX
  5
13FDE
  8
0
 10
545.96552534442799
 20
198.24419727447321
 30
0.0
  0
SEQEND
  5
13FDF
  8
0
  0
POLYLINE
  5
CB44
  8
0
 66
     1
 10
0.0
 20
0.0
 30
0.0
  0
VERTEX
  5
13FE0
  8
0
 10
545.96552534442799
 20
198.24419727447321
 30
0.0
  0
VERTEX
  5
13FE1
  8
0
 10
545.96229941820491
 20
198.66089514251959
 30
0.0
  0
VERTEX
  5
13FE2
  8
0
 10
545.93649610267494
 20
199.4939383106146
 30
0.0
  0
VERTEX
  5
13FE3
  8
0
 10
545.88491130379543
 20
200.3259240730244
 30
0.0
  0
VERTEX
  5
13FE4
  8
0
 10
545.84946363622635
 20
200.74130039366301
 30
0.0
  0
VERTEX
  5
13FE5
  8
0
 10
545.80758866745714
 20
201.15614848673221
 30
0.0
  0
VERTEX
  5
13FE6
  8
0
 10
545.70459361632948
 20
201.983909098998
 30
0.0
  0
VERTEX
  5
13FE7
  8
0
 10
545.5760132945079
 20
202.80850554170391
 30
0.0
  0
VERTEX
  5
13FE8
  8
0
 10
545.4219564937822
 20
203.62924012393529
 30
0.0
  0
VERTEX
  5
13FE9
  8
0
 10
545.24255356158608
 20
204.44541842229711
 30
0.0
  0
VERTEX
  5
13FEA
  8
0
 10
545.03795629071055
 20
205.25634986846509
 30
0.0
  0
VERTEX
  5
13FEB
  8
0
 10
544.92626304624457
 20
205.65963341736111
 30
0.0
  0
VERTEX
  5
13FEC
  8
0
 10
544.80833779087334
 20
206.06134833347619
 30
0.0
  0
VERTEX
  5
13FED
  8
0
 10
544.55389234224913
 20
206.85973270826139
 30
0.0
  0
VERTEX
  5
13FEE
  8
0
 10
544.27483523109004
 20
207.6508274799325
 30
0.0
  0
VERTEX
  5
13FEF
  8
0
 10
543.97140256757211
 20
208.43396330333329
 30
0.0
  0
VERTEX
  5
13FF0
  8
0
 10
543.64385108602232
 20
209.2084775673722
 30
0.0
  0
VERTEX
  5
13FF1
  8
0
 10
543.29245792769495
 20
209.97371495565781
 30
0.0
  0
VERTEX
  5
13FF2
  8
0
 10
543.10791284904587
 20
210.35265216624941
 30
0.0
  0
VERTEX
  5
13FF3
  8
0
 10
542.91752040628376
 20
210.7290280009617
 30
0.0
  0
VERTEX
  5
13FF4
  8
0
 10
542.51935575636378
 20
211.4737776330405
 30
0.0
  0
VERTEX
  5
13FF5
  8
0
 10
542.09830086498005
 20
212.20733371935279
 30
0.0
  0
VERTEX
  5
13FF6
  8
0
 10
541.87930015985319
 20
212.56971984169891
 30
0.0
  0
VERTEX
  5
13FF7
  8
0
 10
541.65471198660669
 20
212.92907559821469
 30
0.0
  0
VERTEX
  5
13FF8
  8
0
 10
541.18896444172105
 20
213.6383926039411
 30
0.0
  0
VERTEX
  5
13FF9
  8
0
 10
540.7014522992439
 20
214.33468458352999
 30
0.0
  0
VERTEX
  5
13FFA
  8
0
 10
540.4496626952423
 20
214.67776164042479
 30
0.0
  0
VERTEX
  5
13FFB
  8
0
 10
540.19258804311937
 20
215.01736240445209
 30
0.0
  0
VERTEX
  5
13FFC
  8
0
 10
539.66280222331079
 20
215.6858484531152
 30
0.0
  0
VERTEX
  5
13FFD
  8
0
 10
539.11254309151263
 20
216.33957712358341
 30
0.0
  0
VERTEX
  5
13FFE
  8
0
 10
538.54227622188648
 20
216.9779952961363
 30
0.0
  0
VERTEX
  5
13FFF
  8
0
 10
537.95248411713681
 20
217.6005628052628
 30
0.0
  0
VERTEX
  5
14000
  8
0
 10
537.34366580026654
 20
218.206752896696
 30
0.0
  0
VERTEX
  5
14001
  8
0
 10
537.03228217061758
 20
218.50354557712561
 30
0.0
  0
VERTEX
  5
14002
  8
0
 10
536.71633639235324
 20
218.79605267309901
 30
0.0
  0
VERTEX
  5
14003
  8
0
 10
536.07102667670551
 20
219.36796352802821
 30
0.0
  0
VERTEX
  5
14004
  8
0
 10
535.40828264976881
 20
219.92200156780291
 30
0.0
  0
VERTEX
  5
14005
  8
0
 10
534.72866505915408
 20
220.4576980209288
 30
0.0
  0
VERTEX
  5
14006
  8
0
 10
534.03274892919387
 20
220.97459963472511
 30
0.0
  0
VERTEX
  5
14007
  8
0
 10
533.32112307441128
 20
221.4722690588213
 30
0.0
  0
VERTEX
  5
14008
  8
0
 10
532.95960665313476
 20
221.71375946737521
 30
0.0
  0
VERTEX
  5
14009
  8
0
 10
532.59438960132445
 20
221.9502852151995
 30
0.0
  0
VERTEX
  5
1400A
  8
0
 10
531.85316339900601
 20
222.40824365446829
 30
0.0
  0
VERTEX
  5
1400B
  8
0
 10
531.09807161882406
 20
222.84575689806769
 30
0.0
  0
VERTEX
  5
1400C
  8
0
 10
530.32975314380883
 20
223.26245476611399
 30
0.0
  0
VERTEX
  5
1400D
  8
0
 10
529.54885804809635
 20
223.65798469060971
 30
0.0
  0
VERTEX
  5
1400E
  8
0
 10
528.75604704689874
 20
224.0320120137506
 30
0.0
  0
VERTEX
  5
1400F
  8
0
 10
528.35538232751924
 20
224.2108625865649
 30
0.0
  0
VERTEX
  5
14010
  8
0
 10
527.95199093747385
 20
224.38422027108021
 30
0.0
  0
VERTEX
  5
14011
  8
0
 10
527.13737003156336
 20
224.71431145924981
 30
0.0
  0
VERTEX
  5
14012
  8
0
 10
526.31287357978181
 20
225.0220062881595
 30
0.0
  0
VERTEX
  5
14013
  8
0
 10
525.47919918844173
 20
225.3070444172649
 30
0.0
  0
VERTEX
  5
14014
  8
0
 10
524.63705222930821
 20
225.56918467585189
 30
0.0
  0
VERTEX
  5
14015
  8
0
 10
523.78714524278575
 20
225.80820526709101
 30
0.0
  0
VERTEX
  5
14016
  8
0
 10
523.35950622005475
 20
225.91898172001339
 30
0.0
  0
VERTEX
  5
14017
  8
0
 10
522.93019733503479
 20
226.0239039556989
 30
0.0
  0
VERTEX
  5
14018
  8
0
 10
522.0669335695402
 20
226.21609823905101
 30
0.0
  0
VERTEX
  5
14019
  8
0
 10
521.19808435363154
 20
226.38462550159551
 30
0.0
  0
VERTEX
  5
1401A
  8
0
 10
520.32438482048735
 20
226.5293431524434
 30
0.0
  0
VERTEX
  5
1401B
  8
0
 10
519.44657420713975
 20
226.65012874601399
 30
0.0
  0
VERTEX
  5
1401C
  8
0
 10
518.56539522900346
 20
226.7468800856366
 30
0.0
  0
VERTEX
  5
1401D
  8
0
 10
518.12377549823157
 20
226.78621653220091
 30
0.0
  0
VERTEX
  5
1401E
  8
0
 10
517.68159345146739
 20
226.8195153100184
 30
0.0
  0
VERTEX
  5
1401F
  8
0
 10
516.79591665907083
 20
226.8679729625083
 30
0.0
  0
VERTEX
  5
14020
  8
0
 10
515.90911422280124
 20
226.8922120430943
 30
0.0
  0
VERTEX
  5
14021
  8
0
 10
515.46552534442787
 20
226.8952424089245
 30
0.0
  0
VERTEX
  5
14022
  8
0
 10
515.02193646605474
 20
226.8922120430943
 30
0.0
  0
VERTEX
  5
14023
  8
0
 10
514.13513402978515
 20
226.8679729625083
 30
0.0
  0
VERTEX
  5
14024
  8
0
 10
513.24945723738836
 20
226.8195153100184
 30
0.0
  0
VERTEX
  5
14025
  8
0
 10
512.8072751906243
 20
226.78621653220091
 30
0.0
  0
VERTEX
  5
14026
  8
0
 10
512.36565545985229
 20
226.7468800856366
 30
0.0
  0
VERTEX
  5
14027
  8
0
 10
511.48447648171663
 20
226.65012874601399
 30
0.0
  0
VERTEX
  5
14028
  8
0
 10
510.60666586836851
 20
226.5293431524434
 30
0.0
  0
VERTEX
  5
14029
  8
0
 10
509.73296633522477
 20
226.38462550159551
 30
0.0
  0
VERTEX
  5
1402A
  8
0
 10
508.86411711931578
 20
226.21609823905101
 30
0.0
  0
VERTEX
  5
1402B
  8
0
 10
508.00085335382119
 20
226.0239039556989
 30
0.0
  0
VERTEX
  5
1402C
  8
0
 10
507.57154446880122
 20
225.91898172001339
 30
0.0
  0
VERTEX
  5
1402D
  8
0
 10
507.14390544607062
 20
225.80820526709101
 30
0.0
  0
VERTEX
  5
1402E
  8
0
 10
506.29399845954782
 20
225.56918467585189
 30
0.0
  0
VERTEX
  5
1402F
  8
0
 10
505.45185150041419
 20
225.3070444172649
 30
0.0
  0
VERTEX
  5
14030
  8
0
 10
504.61817710907422
 20
225.0220062881595
 30
0.0
  0
VERTEX
  5
14031
  8
0
 10
503.7936806572929
 20
224.71431145924981
 30
0.0
  0
VERTEX
  5
14032
  8
0
 10
502.97905975138241
 20
224.38422027108021
 30
0.0
  0
VERTEX
  5
14033
  8
0
 10
502.57566836133668
 20
224.2108625865649
 30
0.0
  0
VERTEX
  5
14034
  8
0
 10
502.17500364195712
 20
224.0320120137506
 30
0.0
  0
VERTEX
  5
14035
  8
0
 10
501.38219264075951
 20
223.65798469060971
 30
0.0
  0
VERTEX
  5
14036
  8
0
 10
500.60129754504709
 20
223.26245476611399
 30
0.0
  0
VERTEX
  5
14037
  8
0
 10
499.83297907003231
 20
222.84575689806769
 30
0.0
  0
VERTEX
  5
14038
  8
0
 10
499.07788728984991
 20
222.40824365446829
 30
0.0
  0
VERTEX
  5
14039
  8
0
 10
498.33666108753141
 20
221.9502852151995
 30
0.0
  0
VERTEX
  5
1403A
  8
0
 10
497.97144403572111
 20
221.71375946737521
 30
0.0
  0
VERTEX
  5
1403B
  8
0
 10
497.60992761444498
 20
221.4722690588213
 30
0.0
  0
VERTEX
  5
1403C
  8
0
 10
496.89830175966188
 20
220.97459963472511
 30
0.0
  0
VERTEX
  5
1403D
  8
0
 10
496.20238562970189
 20
220.4576980209288
 30
0.0
  0
VERTEX
  5
1403E
  8
0
 10
495.52276803908751
 20
219.92200156780291
 30
0.0
  0
VERTEX
  5
1403F
  8
0
 10
494.8600240121504
 20
219.36796352802821
 30
0.0
  0
VERTEX
  5
14040
  8
0
 10
494.21471429650319
 20
218.7960526730991
 30
0.0
  0
VERTEX
  5
14041
  8
0
 10
493.89876851823823
 20
218.50354557712561
 30
0.0
  0
VERTEX
  5
14042
  8
0
 10
493.5873848885899
 20
218.206752896696
 30
0.0
  0
VERTEX
  5
14043
  8
0
 10
492.97856657171951
 20
217.6005628052628
 30
0.0
  0
VERTEX
  5
14044
  8
0
 10
492.38877446696961
 20
216.9779952961363
 30
0.0
  0
VERTEX
  5
14045
  8
0
 10
491.81850759734328
 20
216.33957712358341
 30
0.0
  0
VERTEX
  5
14046
  8
0
 10
491.26824846554558
 20
215.6858484531152
 30
0.0
  0
VERTEX
  5
14047
  8
0
 10
490.73846264573638
 20
215.01736240445209
 30
0.0
  0
VERTEX
  5
14048
  8
0
 10
490.48138799361368
 20
214.67776164042479
 30
0.0
  0
VERTEX
  5
14049
  8
0
 10
490.22959838961191
 20
214.33468458352999
 30
0.0
  0
VERTEX
  5
1404A
  8
0
 10
489.74208624713481
 20
213.6383926039411
 30
0.0
  0
VERTEX
  5
1404B
  8
0
 10
489.27633870224912
 20
212.92907559821481
 30
0.0
  0
VERTEX
  5
1404C
  8
0
 10
489.05175052900262
 20
212.56971984169891
 30
0.0
  0
VERTEX
  5
1404D
  8
0
 10
488.83274982387587
 20
212.20733371935279
 30
0.0
  0
VERTEX
  5
1404E
  8
0
 10
488.41169493249248
 20
211.4737776330405
 30
0.0
  0
VERTEX
  5
1404F
  8
0
 10
488.01353028257239
 20
210.7290280009617
 30
0.0
  0
VERTEX
  5
14050
  8
0
 10
487.82313783981039
 20
210.35265216624941
 30
0.0
  0
VERTEX
  5
14051
  8
0
 10
487.63859276116142
 20
209.97371495565781
 30
0.0
  0
VERTEX
  5
14052
  8
0
 10
487.28719960283382
 20
209.2084775673722
 30
0.0
  0
VERTEX
  5
14053
  8
0
 10
486.95964812128381
 20
208.43396330333329
 30
0.0
  0
VERTEX
  5
14054
  8
0
 10
486.65621545776588
 20
207.6508274799325
 30
0.0
  0
VERTEX
  5
14055
  8
0
 10
486.3771583466073
 20
206.85973270826139
 30
0.0
  0
VERTEX
  5
14056
  8
0
 10
486.12271289798298
 20
206.06134833347619
 30
0.0
  0
VERTEX
  5
14057
  8
0
 10
486.00478764261152
 20
205.65963341736111
 30
0.0
  0
VERTEX
  5
14058
  8
0
 10
485.89309439814542
 20
205.25634986846509
 30
0.0
  0
VERTEX
  5
14059
  8
0
 10
485.68849712727018
 20
204.44541842229711
 30
0.0
  0
VERTEX
  5
1405A
  8
0
 10
485.50909419507389
 20
203.62924012393529
 30
0.0
  0
VERTEX
  5
1405B
  8
0
 10
485.35503739434802
 20
202.80850554170391
 30
0.0
  0
VERTEX
  5
1405C
  8
0
 10
485.2264570725269
 20
201.983909098998
 30
0.0
  0
VERTEX
  5
1405D
  8
0
 10
485.12346202139912
 20
201.15614848673221
 30
0.0
  0
VERTEX
  5
1405E
  8
0
 10
485.0815870526298
 20
200.74130039366301
 30
0.0
  0
VERTEX
  5
1405F
  8
0
 10
485.04613938506048
 20
200.3259240730244
 30
0.0
  0
VERTEX
  5
14060
  8
0
 10
484.99455458618149
 20
199.4939383106146
 30
0.0
  0
VERTEX
  5
14061
  8
0
 10
484.9687512706513
 20
198.66089514251959
 30
0.0
  0
VERTEX
  5
14062
  8
0
 10
484.96552534442799
 20
198.24419727447321
 30
0.0
  0
SEQEND
  5
14063
  8
0
  0
POLYLINE
  5
CB45
  8
0
 66
     1
 10
0.0
 20
0.0
 30
0.0
  0
VERTEX
  5
14064
  8
0
 10
484.96552534442799
 20
198.24419727447321
 30
0.0
  0
VERTEX
  5
14065
  8
0
 10
484.97457833873381
 20
197.5461747430389
 30
0.0
  0
VERTEX
  5
14066
  8
0
 10
485.04697005111069
 20
196.15178692769081
 30
0.0
  0
VERTEX
  5
14067
  8
0
 10
485.19158160320961
 20
194.76236692026191
 30
0.0
  0
VERTEX
  5
14068
  8
0
 10
485.29086920458622
 20
194.07055138398741
 30
0.0
  0
VERTEX
  5
14069
  8
0
 10
485.40806965778029
 20
193.38121348656401
 30
0.0
  0
VERTEX
  5
1406A
  8
0
 10
485.69592022813089
 20
192.0116057658806
 30
0.0
  0
VERTEX
  5
1406B
  8
0
 10
486.05444989843721
 20
190.65679548562321
 30
0.0
  0
VERTEX
  5
1406C
  8
0
 10
486.48280744630932
 20
189.3199992410691
 30
0.0
  0
VERTEX
  5
1406D
  8
0
 10
486.97997586376812
 20
188.00439085850911
 30
0.0
  0
VERTEX
  5
1406E
  8
0
 10
487.54477477182849
 20
186.71309385993871
 30
0.0
  0
VERTEX
  5
1406F
  8
0
 10
487.8521228014601
 20
186.07752264745741
 30
0.0
  0
VERTEX
  5
14070
  8
0
 10
488.17586322295932
 20
185.44917404718069
 30
0.0
  0
VERTEX
  5
14071
  8
0
 10
488.87174288476672
 20
184.21563222304849
 30
0.0
  0
VERTEX
  5
14072
  8
0
 10
489.63076159733782
 20
183.015397066829
 30
0.0
  0
VERTEX
  5
14073
  8
0
 10
490.4511172958064
 20
181.8513181810024
 30
0.0
  0
VERTEX
  5
14074
  8
0
 10
491.33086228882257
 20
180.72615932570639
 30
0.0
  0
VERTEX
  5
14075
  8
0
 10
492.26790788276458
 20
179.64259185700629
 30
0.0
  0
VERTEX
  5
14076
  8
0
 10
492.75722834671518
 20
179.1172128591077
 30
0.0
  0
VERTEX
  5
14077
  8
0
 10
493.26002934072619
 20
178.6031883845535
 30
0.0
  0
VERTEX
  5
14078
  8
0
 10
494.30487116449279
 20
177.61041666368521
 30
0.0
  0
VERTEX
  5
14079
  8
0
 10
495.3999526869747
 20
176.66663373647251
 30
0.0
  0
VERTEX
  5
1407A
  8
0
 10
495.96552534442799
 20
176.21381799020401
 30
0.0
  0
SEQEND
  5
1407B
  8
0
  0
POLYLINE
  5
CB47
  8
0
 66
     1
 10
0.0
 20
0.0
 30
0.0
  0
VERTEX
  5
1407C
  8
0
 10
537.96552534442799
 20
175.56739723372459
 30
0.0
  0
VERTEX
  5
1407D
  8
0
 10
538.50986329924638
 20
176.0550008885194
 30
0.0
  0
VERTEX
  5
1407E
  8
0
 10
539.56234788634345
 20
177.06453091150181
 30
0.0
  0
VERTEX
  5
1407F
  8
0
 10
540.56476556158759
 20
178.11806675670539
 30
0.0
  0
VERTEX
  5
14080
  8
0
 10
541.04654426063485
 20
178.66065625715871
 30
0.0
  0
VERTEX
  5
14081
  8
0
 10
541.51503356251851
 20
179.21341945144729
 30
0.0
  0
VERTEX
  5
14082
  8
0
 10
542.41117748009708
 20
180.34831313853829
 30
0.0
  0
VERTEX
  5
14083
  8
0
 10
543.25133536101248
 20
181.520389804921
 30
0.0
  0
VERTEX
  5
14084
  8
0
 10
544.03376157633329
 20
182.72721418100571
 30
0.0
  0
VERTEX
  5
14085
  8
0
 10
544.75683044847108
 20
183.966278800526
 30
0.0
  0
VERTEX
  5
14086
  8
0
 10
545.41903962891524
 20
185.23500921039849
 30
0.0
  0
VERTEX
  5
14087
  8
0
 10
545.72688684717605
 20
185.8796775671106
 30
0.0
  0
VERTEX
  5
14088
  8
0
 10
546.01901321971764
 20
186.53076931976591
 30
0.0
  0
VERTEX
  5
14089
  8
0
 10
546.55550463225325
 20
187.8508668771054
 30
0.0
  0
VERTEX
  5
1408A
  8
0
 10
547.02739917730514
 20
189.19255906402589
 30
0.0
  0
VERTEX
  5
1408B
  8
0
 10
547.43371638109693
 20
190.55305819412831
 30
0.0
  0
VERTEX
  5
1408C
  8
0
 10
547.77361202246175
 20
191.9295375050913
 30
0.0
  0
VERTEX
  5
1408D
  8
0
 10
548.04637988691593
 20
193.3191370319463
 30
0.0
  0
VERTEX
  5
1408E
  8
0
 10
548.15740831400853
 20
194.0179555195686
 30
0.0
  0
VERTEX
  5
1408F
  8
0
 10
548.25145323398476
 20
194.71896954933791
 30
0.0
  0
VERTEX
  5
14090
  8
0
 10
548.38840597474473
 20
196.12612657042581
 30
0.0
  0
VERTEX
  5
14091
  8
0
 10
548.45695355712257
 20
197.5376843899615
 30
0.0
  0
VERTEX
  5
14092
  8
0
 10
548.46552534442787
 20
198.24419727447321
 30
0.0
  0
SEQEND
  5
14093
  8
0
  0
POLYLINE
  5
CB48
  8
0
 66
     1
 10
0.0
 20
0.0
 30
0.0
  0
VERTEX
  5
14094
  8
0
 10
548.46552534442787
 20
198.24419727447321
 30
0.0
  0
VERTEX
  5
14095
  8
0
 10
548.46203499802266
 20
198.69505070547419
 30
0.0
  0
VERTEX
  5
14096
  8
0
 10
548.43411665662927
 20
199.59637610046229
 30
0.0
  0
VERTEX
  5
14097
  8
0
 10
548.3783035955471
 20
200.49655741716791
 30
0.0
  0
VERTEX
  5
14098
  8
0
 10
548.33995038145565
 20
200.94598097720319
 30
0.0
  0
VERTEX
  5
14099
  8
0
 10
548.29464303819714
 20
201.39483301232721
 30
0.0
  0
VERTEX
  5
1409A
  8
0
 10
548.18320576976384
 20
202.29044285510659
 30
0.0
  0
VERTEX
  5
1409B
  8
0
 10
548.04408607730136
 20
203.1826291701654
 30
0.0
  0
VERTEX
  5
1409C
  8
0
 10
547.87740166995889
 20
204.07063707880931
 30
0.0
  0
VERTEX
  5
1409D
  8
0
 10
547.68329357938592
 20
204.95371523769239
 30
0.0
  0
VERTEX
  5
1409E
  8
0
 10
547.46192604040596
 20
205.83111647453001
 30
0.0
  0
VERTEX
  5
1409F
  8
0
 10
547.34107761196708
 20
206.2674560520241
 30
0.0
  0
VERTEX
  5
140A0
  8
0
 10
547.2134863520572
 20
206.70209842027981
 30
0.0
  0
VERTEX
  5
140A1
  8
0
 10
546.93818471911948
 20
207.56592413726051
 30
0.0
  0
VERTEX
  5
140A2
  8
0
 10
546.63625407425877
 20
208.4218627426751
 30
0.0
  0
VERTEX
  5
140A3
  8
0
 10
546.30794988094465
 20
209.2691900270103
 30
0.0
  0
VERTEX
  5
140A4
  8
0
 10
545.95354991730073
 20
210.10718906679011
 30
0.0
  0
VERTEX
  5
140A5
  8
0
 10
545.57335404107744
 20
210.93515083116469
 30
0.0
  0
VERTEX
  5
140A6
  8
0
 10
545.37368231663754
 20
211.34514846885401
 30
0.0
  0
VERTEX
  5
140A7
  8
0
 10
545.16768393594396
 20
211.7523747818214
 30
0.0
  0
VERTEX
  5
140A8
  8
0
 10
544.7368828393096
 20
212.55816946570991
 30
0.0
  0
VERTEX
  5
140A9
  8
0
 10
544.28131525191066
 20
213.3518531000806
 30
0.0
  0
VERTEX
  5
140AA
  8
0
 10
544.04436366931441
 20
213.74394300294691
 30
0.0
  0
VERTEX
  5
140AB
  8
0
 10
543.80136662940811
 20
214.132754149341
 30
0.0
  0
VERTEX
  5
140AC
  8
0
 10
543.2974430562532
 20
214.9002118932417
 30
0.0
  0
VERTEX
  5
140AD
  8
0
 10
542.76997090209807
 20
215.65357698591171
 30
0.0
  0
VERTEX
  5
140AE
  8
0
 10
542.49754280596471
 20
216.02477511304369
 30
0.0
  0
VERTEX
  5
140AF
  8
0
 10
542.21939646104511
 20
216.39221200527001
 30
0.0
  0
VERTEX
  5
140B0
  8
0
 10
541.64618557403901
 20
217.1154919923481
 30
0.0
  0
VERTEX
  5
140B1
  8
0
 10
541.05082323471652
 20
217.8228049800679
 30
0.0
  0
VERTEX
  5
140B2
  8
0
 10
540.43381317905551
 20
218.51355251102669
 30
0.0
  0
VERTEX
  5
140B3
  8
0
 10
539.79567745916199
 20
219.18715014385211
 30
0.0
  0
VERTEX
  5
140B4
  8
0
 10
539.13695600156461
 20
219.84302794769781
 30
0.0
  0
VERTEX
  5
140B5
  8
0
 10
538.80004912358413
 20
220.16414789701511
 30
0.0
  0
VERTEX
  5
140B6
  8
0
 10
538.45820615037974
 20
220.48063098446181
 30
0.0
  0
VERTEX
  5
140B7
  8
0
 10
537.76000219574485
 20
221.09941977831949
 30
0.0
  0
VERTEX
  5
140B8
  8
0
 10
537.04293488791154
 20
221.6988707721741
 30
0.0
  0
VERTEX
  5
140B9
  8
0
 10
536.30761093741046
 20
222.27847677063821
 30
0.0
  0
VERTEX
  5
140BA
  8
0
 10
535.55465250171574
 20
222.83774736917201
 30
0.0
  0
VERTEX
  5
140BB
  8
0
 10
534.7846966588362
 20
223.37620936901371
 30
0.0
  0
VERTEX
  5
140BC
  8
0
 10
534.39354774401272
 20
223.63749407335081
 30
0.0
  0
VERTEX
  5
140BD
  8
0
 10
533.99839486828341
 20
223.89340717755411
 30
0.0
  0
VERTEX
  5
140BE
  8
0
 10
533.19641241987335
 20
224.38890319381221
 30
0.0
  0
VERTEX
  5
140BF
  8
0
 10
532.37942787082375
 20
224.86227817869019
 30
0.0
  0
VERTEX
  5
140C0
  8
0
 10
531.5481324716269
 20
225.31313160969111
 30
0.0
  0
VERTEX
  5
140C1
  8
0
 10
530.70322958118413
 20
225.74108201980121
 30
0.0
  0
VERTEX
  5
140C2
  8
0
 10
529.84543407169156
 20
226.14576732024881
 30
0.0
  0
VERTEX
  5
140C3
  8
0
 10
529.41192798187103
 20
226.33927777608071
 30
0.0
  0
VERTEX
  5
140C4
  8
0
 10
528.97547172378916
 20
226.52684510686771
 30
0.0
  0
VERTEX
  5
140C5
  8
0
 10
528.0940786124761
 20
226.8839929498053
 30
0.0
  0
VERTEX
  5
140C6
  8
0
 10
527.20200048431889
 20
227.2169086663304
 30
0.0
  0
VERTEX
  5
140C7
  8
0
 10
526.29999212647544
 20
227.52531057651009
 30
0.0
  0
VERTEX
  5
140C8
  8
0
 10
525.38881672806929
 20
227.8089377415387
 30
0.0
  0
VERTEX
  5
140C9
  8
0
 10
524.46924523445432
 20
228.06755018451861
 30
0.0
  0
VERTEX
  5
140CA
  8
0
 10
524.00655383281128
 20
228.18740667456589
 30
0.0
  0
VERTEX
  5
140CB
  8
0
 10
523.54205569492069
 20
228.30092909350429
 30
0.0
  0
VERTEX
  5
140CC
  8
0
 10
522.60803260438524
 20
228.50887700663941
 30
0.0
  0
VERTEX
  5
140CD
  8
0
 10
521.66796623963182
 20
228.6912179792285
 30
0.0
  0
VERTEX
  5
140CE
  8
0
 10
520.72265199065623
 20
228.8477977326049
 30
0.0
  0
VERTEX
  5
140CF
  8
0
 10
519.7728896876896
 20
228.97848378466489
 30
0.0
  0
VERTEX
  5
140D0
  8
0
 10
518.8194829244602
 20
229.08316556196141
 30
0.0
  0
VERTEX
  5
140D1
  8
0
 10
518.34166485510059
 20
229.12572630742449
 30
0.0
  0
VERTEX
  5
140D2
  8
0
 10
517.8632383782741
 20
229.16175449325991
 30
0.0
  0
VERTEX
  5
140D3
  8
0
 10
516.90496512748405
 20
229.2141840844784
 30
0.0
  0
VERTEX
  5
140D4
  8
0
 10
515.94547396693042
 20
229.24040997494851
 30
0.0
  0
VERTEX
  5
140D5
  8
0
 10
515.46552534442787
 20
229.24368873142049
 30
0.0
  0
VERTEX
  5
140D6
  8
0
 10
514.98557672192601
 20
229.24040997494851
 30
0.0
  0
VERTEX
  5
140D7
  8
0
 10
514.02608556137193
 20
229.2141840844784
 30
0.0
  0
VERTEX
  5
140D8
  8
0
 10
513.06781231058164
 20
229.16175449325991
 30
0.0
  0
VERTEX
  5
140D9
  8
0
 10
512.58938583375539
 20
229.12572630742449
 30
0.0
  0
VERTEX
  5
140DA
  8
0
 10
512.11156776439555
 20
229.08316556196141
 30
0.0
  0
VERTEX
  5
140DB
  8
0
 10
511.15816100116621
 20
228.97848378466489
 30
0.0
  0
VERTEX
  5
140DC
  8
0
 10
510.20839869819969
 20
228.8477977326049
 30
0.0
  0
VERTEX
  5
140DD
  8
0
 10
509.26308444922461
 20
228.6912179792285
 30
0.0
  0
VERTEX
  5
140DE
  8
0
 10
508.32301808447068
 20
228.50887700663941
 30
0.0
  0
VERTEX
  5
140DF
  8
0
 10
507.38899499393528
 20
228.30092909350429
 30
0.0
  0
VERTEX
  5
140E0
  8
0
 10
506.9244968560447
 20
228.18740667456589
 30
0.0
  0
VERTEX
  5
140E1
  8
0
 10
506.4618054544016
 20
228.06755018451861
 30
0.0
  0
VERTEX
  5
140E2
  8
0
 10
505.54223396078709
 20
227.8089377415387
 30
0.0
  0
VERTEX
  5
140E3
  8
0
 10
504.63105856238047
 20
227.52531057651009
 30
0.0
  0
VERTEX
  5
140E4
  8
0
 10
503.72905020453709
 20
227.2169086663304
 30
0.0
  0
VERTEX
  5
140E5
  8
0
 10
502.83697207638028
 20
226.8839929498053
 30
0.0
  0
VERTEX
  5
140E6
  8
0
 10
501.9555789650671
 20
226.52684510686771
 30
0.0
  0
VERTEX
  5
140E7
  8
0
 10
501.51912270698489
 20
226.33927777608071
 30
0.0
  0
VERTEX
  5
140E8
  8
0
 10
501.08561661716431
 20
226.14576732024881
 30
0.0
  0
VERTEX
  5
140E9
  8
0
 10
500.22782110767179
 20
225.74108201980121
 30
0.0
  0
VERTEX
  5
140EA
  8
0
 10
499.38291821722891
 20
225.31313160969111
 30
0.0
  0
VERTEX
  5
140EB
  8
0
 10
498.55162281803263
 20
224.86227817869019
 30
0.0
  0
VERTEX
  5
140EC
  8
0
 10
497.73463826898291
 20
224.38890319381221
 30
0.0
  0
VERTEX
  5
140ED
  8
0
 10
496.93265582057302
 20
223.89340717755411
 30
0.0
  0
VERTEX
  5
140EE
  8
0
 10
496.53750294484371
 20
223.63749407335081
 30
0.0
  0
VERTEX
  5
140EF
  8
0
 10
496.14635403002012
 20
223.37620936901371
 30
0.0
  0
VERTEX
  5
140F0
  8
0
 10
495.37639818714018
 20
222.83774736917201
 30
0.0
  0
VERTEX
  5
140F1
  8
0
 10
494.6234397514458
 20
222.27847677063821
 30
0.0
  0
VERTEX
  5
140F2
  8
0
 10
493.88811580094489
 20
221.6988707721741
 30
0.0
  0
VERTEX
  5
140F3
  8
0
 10
493.1710484931113
 20
221.09941977831949
 30
0.0
  0
VERTEX
  5
140F4
  8
0
 10
492.47284453847669
 20
220.4806309844619
 30
0.0
  0
VERTEX
  5
140F5
  8
0
 10
492.13100156527202
 20
220.16414789701511
 30
0.0
  0
VERTEX
  5
140F6
  8
0
 10
491.79409468729142
 20
219.84302794769781
 30
0.0
  0
VERTEX
  5
140F7
  8
0
 10
491.13537322969381
 20
219.18715014385211
 30
0.0
  0
VERTEX
  5
140F8
  8
0
 10
490.49723750980093
 20
218.51355251102669
 30
0.0
  0
VERTEX
  5
140F9
  8
0
 10
489.88022745413991
 20
217.8228049800679
 30
0.0
  0
VERTEX
  5
140FA
  8
0
 10
489.28486511481742
 20
217.1154919923481
 30
0.0
  0
VERTEX
  5
140FB
  8
0
 10
488.71165422781081
 20
216.39221200527001
 30
0.0
  0
VERTEX
  5
140FC
  8
0
 10
488.43350788289121
 20
216.02477511304369
 30
0.0
  0
VERTEX
  5
140FD
  8
0
 10
488.16107978675831
 20
215.6535769859118
 30
0.0
  0
VERTEX
  5
140FE
  8
0
 10
487.63360763260289
 20
214.9002118932417
 30
0.0
  0
VERTEX
  5
140FF
  8
0
 10
487.1296840594477
 20
214.132754149341
 30
0.0
  0
VERTEX
  5
14100
  8
0
 10
486.88668701954151
 20
213.74394300294691
 30
0.0
  0
VERTEX
  5
14101
  8
0
 10
486.64973543694578
 20
213.35185310008069
 30
0.0
  0
VERTEX
  5
14102
  8
0
 10
486.19416784954677
 20
212.55816946570991
 30
0.0
  0
VERTEX
  5
14103
  8
0
 10
485.76336675291208
 20
211.7523747818214
 30
0.0
  0
VERTEX
  5
14104
  8
0
 10
485.55736837221872
 20
211.34514846885401
 30
0.0
  0
VERTEX
  5
14105
  8
0
 10
485.35769664777848
 20
210.93515083116469
 30
0.0
  0
VERTEX
  5
14106
  8
0
 10
484.9775007715557
 20
210.10718906679011
 30
0.0
  0
VERTEX
  5
14107
  8
0
 10
484.62310080791161
 20
209.2691900270103
 30
0.0
  0
VERTEX
  5
14108
  8
0
 10
484.29479661459698
 20
208.4218627426751
 30
0.0
  0
VERTEX
  5
14109
  8
0
 10
483.99286596973661
 20
207.56592413726051
 30
0.0
  0
VERTEX
  5
1410A
  8
0
 10
483.7175643367986
 20
206.70209842027981
 30
0.0
  0
VERTEX
  5
1410B
  8
0
 10
483.58997307688873
 20
206.2674560520241
 30
0.0
  0
VERTEX
  5
1410C
  8
0
 10
483.4691246484503
 20
205.83111647453001
 30
0.0
  0
VERTEX
  5
1410D
  8
0
 10
483.24775710947
 20
204.95371523769239
 30
0.0
  0
VERTEX
  5
1410E
  8
0
 10
483.05364901889737
 20
204.0706370788092
 30
0.0
  0
VERTEX
  5
1410F
  8
0
 10
482.8869646115549
 20
203.1826291701654
 30
0.0
  0
VERTEX
  5
14110
  8
0
 10
482.74784491909207
 20
202.29044285510659
 30
0.0
  0
VERTEX
  5
14111
  8
0
 10
482.63640765065878
 20
201.39483301232721
 30
0.0
  0
VERTEX
  5
14112
  8
0
 10
482.59110030740061
 20
200.94598097720319
 30
0.0
  0
VERTEX
  5
14113
  8
0
 10
482.55274709330928
 20
200.49655741716791
 30
0.0
  0
VERTEX
  5
14114
  8
0
 10
482.49693403222682
 20
199.59637610046229
 30
0.0
  0
VERTEX
  5
14115
  8
0
 10
482.4690156908336
 20
198.69505070547419
 30
0.0
  0
VERTEX
  5
14116
  8
0
 10
482.46552534442787
 20
198.24419727447321
 30
0.0
  0
SEQEND
  5
14117
  8
0
  0
POLYLINE
  5
CB49
  8
0
 66
     1
 10
0.0
 20
0.0
 30
0.0
  0
VERTEX
  5
14118
  8
0
 10
482.46552534442787
 20
198.24419727447321
 30
0.0
  0
VERTEX
  5
14119
  8
0
 10
482.47409713173317
 20
197.53768438996141
 30
0.0
  0
VERTEX
  5
1411A
  8
0
 10
482.54264471411119
 20
196.12612657042581
 30
0.0
  0
VERTEX
  5
1411B
  8
0
 10
482.67959745487133
 20
194.71896954933791
 30
0.0
  0
VERTEX
  5
1411C
  8
0
 10
482.77364237484738
 20
194.0179555195686
 30
0.0
  0
VERTEX
  5
1411D
  8
0
 10
482.8846708019405
 20
193.31913703194621
 30
0.0
  0
VERTEX
  5
1411E
  8
0
 10
483.15743866639423
 20
191.9295375050913
 30
0.0
  0
VERTEX
  5
1411F
  8
0
 10
483.4973343077595
 20
190.5530581941282
 30
0.0
  0
VERTEX
  5
14120
  8
0
 10
483.90365151155078
 20
189.19255906402589
 30
0.0
  0
VERTEX
  5
14121
  8
0
 10
484.37554605660262
 20
187.8508668771054
 30
0.0
  0
VERTEX
  5
14122
  8
0
 10
484.91203746913828
 20
186.53076931976591
 30
0.0
  0
VERTEX
  5
14123
  8
0
 10
485.20416384167987
 20
185.8796775671106
 30
0.0
  0
VERTEX
  5
14124
  8
0
 10
485.5120110599409
 20
185.23500921039849
 30
0.0
  0
VERTEX
  5
14125
  8
0
 10
486.17422024038473
 20
183.966278800526
 30
0.0
  0
VERTEX
  5
14126
  8
0
 10
486.89728911252308
 20
182.72721418100571
 30
0.0
  0
VERTEX
  5
14127
  8
0
 10
487.67971532784389
 20
181.520389804921
 30
0.0
  0
VERTEX
  5
14128
  8
0
 10
488.51987320875872
 20
180.34831313853829
 30
0.0
  0
VERTEX
  5
14129
  8
0
 10
489.41601712633781
 20
179.21341945144729
 30
0.0
  0
VERTEX
  5
1412A
  8
0
 10
489.8845064282213
 20
178.66065625715871
 30
0.0
  0
VERTEX
  5
1412B
  8
0
 10
490.36628512726838
 20
178.11806675670539
 30
0.0
  0
VERTEX
  5
1412C
  8
0
 10
491.3687028025123
 20
177.06453091150181
 30
0.0
  0
VERTEX
  5
1412D
  8
0
 10
492.42118738960971
 20
176.0550008885194
 30
0.0
  0
VERTEX
  5
1412E
  8
0
 10
492.96552534442799
 20
175.56739723372459
 30
0.0
  0
SEQEND
  5
1412F
  8
0
  0
LINE
  5
CB4B
  8
0
 10
534.96552534442799
 20
169.74368873142049
 30
0.0
 11
534.96552534442799
 21
220.27460548655031
 31
0.0
  0
LINE
  5
CB4E
  8
0
 10
495.96552534442799
 20
220.27460548655031
 30
0.0
 11
495.96552534442799
 21
169.74368873142049
 31
0.0
  0
LINE
  5
CB50
  8
0
 10
490.96552534442787
 20
173.92868873142049
 30
0.0
 11
490.36552534442808
 21
173.92868873142049
 31
0.0
  0
LINE
  5
CB52
  8
0
 10
550.19852534442805
 20
175.74368873142049
 30
0.0
 11
547.96552534442787
 21
175.74368873142049
 31
0.0
  0
LINE
  5
CB53
  8
0
 10
547.96552534442787
 20
183.74368873142041
 30
0.0
 11
550.19852534442805
 21
183.74368873142041
 31
0.0
  0
LINE
  5
CB54
  8
0
 10
550.96552534442799
 20
176.51068873142049
 30
0.0
 11
550.19852534442805
 21
175.74368873142049
 31
0.0
  0
LINE
  5
CB55
  8
0
 10
550.19852534442805
 20
183.74368873142041
 30
0.0
 11
550.96552534442799
 21
182.9766887314205
 31
0.0
  0
LINE
  5
CB57
  8
0
 10
485.9249450538436
 20
172.51718786206371
 30
0.0
 11
485.6655253444282
 21
173.48535539808711
 31
0.0
  0
LINE
  5
CB59
  8
0
 10
490.36552534442808
 20
173.48535539808711
 30
0.0
 11
490.10610563501263
 21
172.51718786206371
 31
0.0
  0
LINE
  5
CB5A
  8
0
 10
539.96552534442787
 20
175.74368873142049
 30
0.0
 11
538.16525620872608
 21
175.74368873142049
 31
0.0
  0
LINE
  5
CB5D
  8
0
 10
547.96552534442787
 20
173.92868873142049
 30
0.0
 11
545.46552534442787
 21
173.92868873142049
 31
0.0
  0
LINE
  5
CB5F
  8
0
 10
545.57591637203166
 20
185.55868873142049
 30
0.0
 11
547.96552534442787
 21
185.55868873142049
 31
0.0
  0
LINE
  5
CB61
  8
0
 10
540.22494505384361
 20
172.51718786206371
 30
0.0
 11
539.96552534442787
 21
173.48535539808711
 31
0.0
  0
LINE
  5
CB63
  8
0
 10
545.46552534442787
 20
173.48535539808711
 30
0.0
 11
545.20610563501248
 21
172.51718786206371
 31
0.0
  0
LINE
  5
CB65
  8
0
 10
492.7657944801299
 20
175.74368873142049
 30
0.0
 11
490.96552534442787
 21
175.74368873142049
 31
0.0
  0
LINE
  5
CB68
  8
0
 10
534.96552534442799
 20
173.74368873142049
 30
0.0
 11
530.46552534442799
 21
173.74368873142049
 31
0.0
  0
LINE
  5
CB6A
  8
0
 10
500.46552534442799
 20
173.74368873142049
 30
0.0
 11
495.96552534442799
 21
173.74368873142049
 31
0.0
  0
LINE
  5
CB6D
  8
0
 10
495.96552534442799
 20
185.74368873142049
 30
0.0
 11
500.46552534442799
 21
185.74368873142049
 31
0.0
  0
LINE
  5
CB6F
  8
0
 10
530.46552534442799
 20
185.74368873142049
 30
0.0
 11
534.96552534442799
 21
185.74368873142049
 31
0.0
  0
LINE
  5
CB72
  8
0
 10
490.96552534442787
 20
177.47591541084961
 30
0.0
 11
490.96552534442787
 21
173.92868873142049
 31
0.0
  0
LINE
  5
CB73
  8
0
 10
550.19852534442805
 20
183.74368873142041
 30
0.0
 11
550.19852534442805
 21
175.74368873142049
 31
0.0
  0
LINE
  5
CB74
  8
0
 10
550.96552534442799
 20
182.9766887314205
 30
0.0
 11
550.96552534442799
 21
176.51068873142049
 31
0.0
  0
LINE
  5
CB76
  8
0
 10
485.6655253444282
 20
184.93225686379671
 30
0.0
 11
485.6655253444282
 21
173.48535539808711
 31
0.0
  0
LINE
  5
CB78
  8
0
 10
490.36552534442808
 20
178.11758416269839
 30
0.0
 11
490.36552534442808
 21
173.48535539808711
 31
0.0
  0
POLYLINE
  5
CB79
  8
0
 66
     1
 10
0.0
 20
0.0
 30
0.0
  0
VERTEX
  5
14130
  8
0
 10
485.9249450538436
 20
176.130438296742
 30
0.0
  0
VERTEX
  5
14131
  8
0
 10
485.84410040058532
 20
175.80586440106981
 30
0.0
  0
VERTEX
  5
14132
  8
0
 10
485.72949006183211
 20
175.19630382229801
 30
0.0
  0
VERTEX
  5
14133
  8
0
 10
485.67271547804779
 20
174.6138956507223
 30
0.0
  0
VERTEX
  5
14134
  8
0
 10
485.6655253444282
 20
174.3238130794029
 30
0.0
  0
SEQEND
  5
14135
  8
0
  0
POLYLINE
  5
CB7A
  8
0
 66
     1
 10
0.0
 20
0.0
 30
0.0
  0
VERTEX
  5
14136
  8
0
 10
485.6655253444282
 20
174.3238130794029
 30
0.0
  0
VERTEX
  5
14137
  8
0
 10
485.67271547804779
 20
174.03373050808341
 30
0.0
  0
VERTEX
  5
14138
  8
0
 10
485.72949006183262
 20
173.4513223365077
 30
0.0
  0
VERTEX
  5
14139
  8
0
 10
485.84410040058532
 20
172.84176175773581
 30
0.0
  0
VERTEX
  5
1413A
  8
0
 10
485.9249450538436
 20
172.51718786206371
 30
0.0
  0
SEQEND
  5
1413B
  8
0
  0
POLYLINE
  5
CB7B
  8
0
 66
     1
 10
0.0
 20
0.0
 30
0.0
  0
VERTEX
  5
1413C
  8
0
 10
490.10610563501263
 20
172.51718786206371
 30
0.0
  0
VERTEX
  5
1413D
  8
0
 10
490.1869502882704
 20
172.84176175773581
 30
0.0
  0
VERTEX
  5
1413E
  8
0
 10
490.30156062702372
 20
173.4513223365077
 30
0.0
  0
VERTEX
  5
1413F
  8
0
 10
490.35833521080798
 20
174.03373050808341
 30
0.0
  0
VERTEX
  5
14140
  8
0
 10
490.36552534442808
 20
174.3238130794029
 30
0.0
  0
SEQEND
  5
14141
  8
0
  0
POLYLINE
  5
CB7C
  8
0
 66
     1
 10
0.0
 20
0.0
 30
0.0
  0
VERTEX
  5
14142
  8
0
 10
490.36552534442808
 20
174.3238130794029
 30
0.0
  0
VERTEX
  5
14143
  8
0
 10
490.35833521080798
 20
174.6138956507223
 30
0.0
  0
VERTEX
  5
14144
  8
0
 10
490.30156062702372
 20
175.19630382229801
 30
0.0
  0
VERTEX
  5
14145
  8
0
 10
490.1869502882704
 20
175.80586440106981
 30
0.0
  0
VERTEX
  5
14146
  8
0
 10
490.10610563501263
 20
176.130438296742
 30
0.0
  0
SEQEND
  5
14147
  8
0
  0
LINE
  5
CB7D
  8
0
 10
485.9249450538436
 20
172.51718786206371
 30
0.0
 11
490.10610563501263
 21
172.51718786206371
 31
0.0
  0
POLYLINE
  5
CB89
  8
0
 66
     1
 10
0.0
 20
0.0
 30
0.0
  0
VERTEX
  5
14148
  8
0
 10
485.67071484137841
 20
184.91719513900509
 30
0.0
  0
VERTEX
  5
14149
  8
0
 10
485.68636058875012
 20
184.66876147166511
 30
0.0
  0
VERTEX
  5
1414A
  8
0
 10
485.74884366214508
 20
184.16497491744741
 30
0.0
  0
VERTEX
  5
1414B
  8
0
 10
485.85453593433931
 20
183.6365734059533
 30
0.0
  0
VERTEX
  5
1414C
  8
0
 10
485.9249450538436
 20
183.3569391660989
 30
0.0
  0
SEQEND
  5
1414D
  8
0
  0
LINE
  5
CB91
  8
0
 10
485.9249450538436
 20
183.3569391660989
 30
0.0
 11
486.51999435014199
 21
183.3569391660989
 31
0.0
  0
POLYLINE
  5
CB93
  8
0
 66
     1
 10
0.0
 20
0.0
 30
0.0
  0
VERTEX
  5
1414E
  8
0
 10
485.9249450538436
 20
183.3569391660989
 30
0.0
  0
VERTEX
  5
1414F
  8
0
 10
485.84410040058532
 20
182.70779137475449
 30
0.0
  0
VERTEX
  5
14150
  8
0
 10
485.72949006183211
 20
181.4886702172108
 30
0.0
  0
VERTEX
  5
14151
  8
0
 10
485.67271547804779
 20
180.32385387405941
 30
0.0
  0
VERTEX
  5
14152
  8
0
 10
485.6655253444282
 20
179.74368873142049
 30
0.0
  0
SEQEND
  5
14153
  8
0
  0
POLYLINE
  5
CB94
  8
0
 66
     1
 10
0.0
 20
0.0
 30
0.0
  0
VERTEX
  5
14154
  8
0
 10
485.6655253444282
 20
179.74368873142049
 30
0.0
  0
VERTEX
  5
14155
  8
0
 10
485.67271547804779
 20
179.16352358878149
 30
0.0
  0
VERTEX
  5
14156
  8
0
 10
485.72949006183262
 20
177.99870724563019
 30
0.0
  0
VERTEX
  5
14157
  8
0
 10
485.84410040058532
 20
176.7795860880864
 30
0.0
  0
VERTEX
  5
14158
  8
0
 10
485.9249450538436
 20
176.130438296742
 30
0.0
  0
SEQEND
  5
14159
  8
0
  0
LINE
  5
CB95
  8
0
 10
485.9249450538436
 20
176.130438296742
 30
0.0
 11
490.10610563501263
 21
176.130438296742
 31
0.0
  0
POLYLINE
  5
CB96
  8
0
 66
     1
 10
0.0
 20
0.0
 30
0.0
  0
VERTEX
  5
1415A
  8
0
 10
490.10610563501263
 20
176.130438296742
 30
0.0
  0
VERTEX
  5
1415B
  8
0
 10
490.15268355327453
 20
176.4920100950946
 30
0.0
  0
VERTEX
  5
1415C
  8
0
 10
490.23095143031742
 20
177.18662579527111
 30
0.0
  0
VERTEX
  5
1415D
  8
0
 10
490.29062819467703
 20
177.85244848189251
 30
0.0
  0
VERTEX
  5
1415E
  8
0
 10
490.31382977715612
 20
178.1777804568506
 30
0.0
  0
SEQEND
  5
1415F
  8
0
  0
LINE
  5
CB98
  8
0
 10
547.96552534442787
 20
185.55868873142049
 30
0.0
 11
547.96552534442787
 21
173.92868873142049
 31
0.0
  0
LINE
  5
CB99
  8
0
 10
539.96552534442787
 20
177.4758750368575
 30
0.0
 11
539.96552534442787
 21
173.48535539808711
 31
0.0
  0
LINE
  5
CB9C
  8
0
 10
545.46552534442787
 20
185.3375168407639
 30
0.0
 11
545.46552534442787
 21
173.48535539808711
 31
0.0
  0
POLYLINE
  5
CB9D
  8
0
 66
     1
 10
0.0
 20
0.0
 30
0.0
  0
VERTEX
  5
14160
  8
0
 10
540.22494505384361
 20
176.130438296742
 30
0.0
  0
VERTEX
  5
14161
  8
0
 10
540.14410040058544
 20
175.80586440106981
 30
0.0
  0
VERTEX
  5
14162
  8
0
 10
540.02949006183235
 20
175.19630382229801
 30
0.0
  0
VERTEX
  5
14163
  8
0
 10
539.97271547804803
 20
174.6138956507223
 30
0.0
  0
VERTEX
  5
14164
  8
0
 10
539.96552534442787
 20
174.3238130794029
 30
0.0
  0
SEQEND
  5
14165
  8
0
  0
POLYLINE
  5
CB9E
  8
0
 66
     1
 10
0.0
 20
0.0
 30
0.0
  0
VERTEX
  5
14166
  8
0
 10
539.96552534442787
 20
174.3238130794029
 30
0.0
  0
VERTEX
  5
14167
  8
0
 10
539.97271547804803
 20
174.03373050808341
 30
0.0
  0
VERTEX
  5
14168
  8
0
 10
540.02949006183235
 20
173.4513223365077
 30
0.0
  0
VERTEX
  5
14169
  8
0
 10
540.14410040058544
 20
172.84176175773581
 30
0.0
  0
VERTEX
  5
1416A
  8
0
 10
540.22494505384361
 20
172.51718786206371
 30
0.0
  0
SEQEND
  5
1416B
  8
0
  0
POLYLINE
  5
CB9F
  8
0
 66
     1
 10
0.0
 20
0.0
 30
0.0
  0
VERTEX
  5
1416C
  8
0
 10
545.20610563501248
 20
172.51718786206371
 30
0.0
  0
VERTEX
  5
1416D
  8
0
 10
545.28695028827076
 20
172.84176175773581
 30
0.0
  0
VERTEX
  5
1416E
  8
0
 10
545.40156062702363
 20
173.4513223365077
 30
0.0
  0
VERTEX
  5
1416F
  8
0
 10
545.45833521080806
 20
174.03373050808341
 30
0.0
  0
VERTEX
  5
14170
  8
0
 10
545.46552534442787
 20
174.3238130794029
 30
0.0
  0
SEQEND
  5
14171
  8
0
  0
POLYLINE
  5
CBA0
  8
0
 66
     1
 10
0.0
 20
0.0
 30
0.0
  0
VERTEX
  5
14172
  8
0
 10
545.46552534442787
 20
174.3238130794029
 30
0.0
  0
VERTEX
  5
14173
  8
0
 10
545.45833521080806
 20
174.6138956507223
 30
0.0
  0
VERTEX
  5
14174
  8
0
 10
545.40156062702363
 20
175.19630382229801
 30
0.0
  0
VERTEX
  5
14175
  8
0
 10
545.28695028827076
 20
175.80586440106981
 30
0.0
  0
VERTEX
  5
14176
  8
0
 10
545.20610563501248
 20
176.130438296742
 30
0.0
  0
SEQEND
  5
14177
  8
0
  0
LINE
  5
CBA1
  8
0
 10
540.22494505384361
 20
172.51718786206371
 30
0.0
 11
545.20610563501248
 21
172.51718786206371
 31
0.0
  0
POLYLINE
  5
CBAA
  8
0
 66
     1
 10
0.0
 20
0.0
 30
0.0
  0
VERTEX
  5
14178
  8
0
 10
545.46552534442787
 20
185.16356438343811
 30
0.0
  0
VERTEX
  5
14179
  8
0
 10
545.46546250621213
 20
185.19065407832261
 30
0.0
  0
VERTEX
  5
1417A
  8
0
 10
545.46496122449753
 20
185.24473715313229
 30
0.0
  0
VERTEX
  5
1417B
  8
0
 10
545.46396205275505
 20
185.29871228975171
 30
0.0
  0
VERTEX
  5
1417C
  8
0
 10
545.46327674217673
 20
185.32566698368171
 30
0.0
  0
SEQEND
  5
1417D
  8
0
  0
POLYLINE
  5
CBAE
  8
0
 66
     1
 10
0.0
 20
0.0
 30
0.0
  0
VERTEX
  5
1417E
  8
0
 10
545.20610563501248
 20
183.3569391660989
 30
0.0
  0
VERTEX
  5
1417F
  8
0
 10
545.28695028827076
 20
183.68151306177111
 30
0.0
  0
VERTEX
  5
14180
  8
0
 10
545.40156062702363
 20
184.29107364054289
 30
0.0
  0
VERTEX
  5
14181
  8
0
 10
545.45833521080806
 20
184.8734818121186
 30
0.0
  0
VERTEX
  5
14182
  8
0
 10
545.46552534442787
 20
185.16356438343811
 30
0.0
  0
SEQEND
  5
14183
  8
0
  0
POLYLINE
  5
CBB4
  8
0
 66
     1
 10
0.0
 20
0.0
 30
0.0
  0
VERTEX
  5
14184
  8
0
 10
545.46552534442787
 20
179.74368873142049
 30
0.0
  0
VERTEX
  5
14185
  8
0
 10
545.45833521080806
 20
180.32385387405941
 30
0.0
  0
VERTEX
  5
14186
  8
0
 10
545.40156062702363
 20
181.4886702172108
 30
0.0
  0
VERTEX
  5
14187
  8
0
 10
545.28695028827076
 20
182.70779137475449
 30
0.0
  0
VERTEX
  5
14188
  8
0
 10
545.20610563501248
 20
183.3569391660989
 30
0.0
  0
SEQEND
  5
14189
  8
0
  0
LINE
  5
CBB6
  8
0
 10
544.41105633871405
 20
183.3569391660989
 30
0.0
 11
545.20610563501248
 21
183.3569391660989
 31
0.0
  0
POLYLINE
  5
CBB9
  8
0
 66
     1
 10
0.0
 20
0.0
 30
0.0
  0
VERTEX
  5
1418A
  8
0
 10
540.06253706376208
 20
177.584342843835
 30
0.0
  0
VERTEX
  5
1418B
  8
0
 10
540.08385384840358
 20
177.35151866865451
 30
0.0
  0
VERTEX
  5
1418C
  8
0
 10
540.13320416888928
 20
176.8758739883032
 30
0.0
  0
VERTEX
  5
1418D
  8
0
 10
540.19190521360042
 20
176.3838321732218
 30
0.0
  0
VERTEX
  5
1418E
  8
0
 10
540.22494505384361
 20
176.130438296742
 30
0.0
  0
SEQEND
  5
1418F
  8
0
  0
LINE
  5
CBBA
  8
0
 10
540.22494505384361
 20
176.130438296742
 30
0.0
 11
545.20610563501248
 21
176.130438296742
 31
0.0
  0
POLYLINE
  5
CBBB
  8
0
 66
     1
 10
0.0
 20
0.0
 30
0.0
  0
VERTEX
  5
14190
  8
0
 10
545.20610563501248
 20
176.130438296742
 30
0.0
  0
VERTEX
  5
14191
  8
0
 10
545.28695028827076
 20
176.7795860880864
 30
0.0
  0
VERTEX
  5
14192
  8
0
 10
545.40156062702363
 20
177.99870724563019
 30
0.0
  0
VERTEX
  5
14193
  8
0
 10
545.45833521080806
 20
179.16352358878149
 30
0.0
  0
VERTEX
  5
14194
  8
0
 10
545.46552534442787
 20
179.74368873142049
 30
0.0
  0
SEQEND
  5
14195
  8
0
  0
ARC
  5
CBE1
  8
0
 10
502.46552534442787
 20
215.45083087413471
 30
0.0
 40
1.9999999999999889
 50
110.005190088161
 51
180.0
  0
ARC
  5
CBE2
  8
0
 10
502.46552534442787
 20
144.03654658870619
 30
0.0
 40
1.9999999999999849
 50
180.0
 51
249.99480991183901
  0
ARC
  5
CBE3
  8
0
 10
515.46552534442787
 20
179.74368873142029
 30
0.0
 40
39.999999999999922
 50
249.99480991183901
 51
290.00519008816099
  0
ARC
  5
CBE4
  8
0
 10
515.46552534442787
 20
179.74368873142049
 30
0.0
 40
39.999999999999929
 50
69.994809911838999
 51
110.005190088161
  0
ARC
  5
CBE5
  8
0
 10
528.46552534442787
 20
215.45083087413471
 30
0.0
 40
1.999999999999958
 50
0.0
 51
69.994809911838999
  0
ARC
  5
CBE6
  8
0
 10
528.46552534442787
 20
144.03654658870619
 30
0.0
 40
1.999999999999966
 50
290.00519008816099
 51
0.0
  0
LINE
  5
CBF1
  8
0
 10
500.46552534442799
 20
215.45083087413471
 30
0.0
 11
500.46552534442799
 21
144.03654658870619
 31
0.0
  0
LINE
  5
CBF3
  8
0
 10
530.46552534442799
 20
215.45083087413471
 30
0.0
 11
530.46552534442799
 21
144.03654658870619
 31
0.0
  0
LINE
  5
CC18
  8
0
 10
392.70231598404729
 20
243.44368873142051
 30
0.0
 11
392.70231598404729
 21
244.24368873142049
 31
0.0
  0
LINE
  5
CC19
  8
0
 10
323.10231598404749
 20
244.24368873142049
 30
0.0
 11
323.10231598404749
 21
243.44368873142051
 31
0.0
  0
LINE
  5
CC1A
  8
0
 10
392.40353664802569
 20
234.94368873142051
 30
0.0
 11
393.90231598404762
 21
243.44368873142051
 31
0.0
  0
LINE
  5
CC1B
  8
0
 10
321.9023159840475
 20
243.44368873142051
 30
0.0
 11
323.40109532006937
 21
234.94368873142051
 31
0.0
  0
LINE
  5
CC1C
  8
0
 10
390.90231598404762
 20
229.24368873142049
 30
0.0
 11
390.90231598404762
 21
234.94368873142051
 31
0.0
  0
LINE
  5
CC1D
  8
0
 10
324.9023159840475
 20
234.94368873142051
 30
0.0
 11
324.9023159840475
 21
232.94368873142051
 31
0.0
  0
LINE
  5
CC20
  8
0
 10
407.90231598404762
 20
246.74368873142049
 30
0.0
 11
407.90231598404762
 21
244.24368873142049
 31
0.0
  0
LINE
  5
CC22
  8
0
 10
307.9023159840475
 20
246.74368873142049
 30
0.0
 11
307.9023159840475
 21
244.24368873142049
 31
0.0
  0
LINE
  5
CC23
  8
0
 10
307.9023159840475
 20
246.74368873142049
 30
0.0
 11
407.90231598404762
 21
246.74368873142049
 31
0.0
  0
LINE
  5
CC25
  8
0
 10
307.9023159840475
 20
244.24368873142049
 30
0.0
 11
407.90231598404762
 21
244.24368873142049
 31
0.0
  0
LINE
  5
CC39
  8
0
 10
321.9023159840475
 20
243.44368873142051
 30
0.0
 11
393.90231598404762
 21
243.44368873142051
 31
0.0
  0
LINE
  5
CC3A
  8
0
 10
323.40109532006937
 20
234.94368873142051
 30
0.0
 11
392.40353664802569
 21
234.94368873142051
 31
0.0
  0
LINE
  5
CC3B
  8
0
 10
333.76210057490101
 20
232.94368873142051
 30
0.0
 11
312.9023159840475
 21
232.94368873142051
 31
0.0
  0
LINE
  5
CC3C
  8
0
 10
333.76210057490101
 20
232.94368873142051
 30
0.0
 11
333.76210057490101
 21
175.56739723372459
 31
0.0
  0
LINE
  5
CC3D
  8
0
 10
312.9023159840475
 20
232.94368873142051
 30
0.0
 11
312.9023159840475
 21
229.24368873142049
 31
0.0
  0
LINE
  5
CC3F
  8
0
 10
312.9023159840475
 20
229.24368873142049
 30
0.0
 11
304.35871541098601
 21
181.50537194869361
 31
0.0
  0
ARC
  5
CC40
  8
0
 10
314.20231598404752
 20
179.74368873142049
 30
0.0
 40
9.9999999999999911
 50
169.85334562261639
 51
270.0
  0
LINE
  5
CC41
  8
0
 10
314.20231598404752
 20
169.74368873142049
 30
0.0
 11
323.60231598404749
 21
169.74368873142049
 31
0.0
  0
ARC
  5
CC42
  8
0
 10
323.60231598404749
 20
179.74368873142049
 30
0.0
 40
9.9999999999999751
 50
270.0
 51
313.20962034754717
  0
LINE
  5
CC43
  8
0
 10
330.44901093428962
 20
172.45515196068729
 30
0.0
 11
333.76210057490101
 21
175.56739723372459
 31
0.0
  0
POLYLINE
  5
CC44
  8
0
 66
     1
 10
0.0
 20
0.0
 30
0.0
  0
VERTEX
  5
14196
  8
0
 10
333.76210057490101
 20
175.56739723372459
 30
0.0
  0
VERTEX
  5
14197
  8
0
 10
334.01267357122799
 20
175.802780126421
 30
0.0
  0
VERTEX
  5
14198
  8
0
 10
334.52257273546991
 20
176.28176845326419
 30
0.0
  0
VERTEX
  5
14199
  8
0
 10
335.0439338845851
 20
176.77152392259691
 30
0.0
  0
VERTEX
  5
1419A
  8
0
 10
335.30883304494972
 20
177.020364506193
 30
0.0
  0
VERTEX
  5
1419B
  8
0
 10
335.57650141980412
 20
177.2718064304232
 30
0.0
  0
VERTEX
  5
1419C
  8
0
 10
336.12001424839508
 20
177.78237071183679
 30
0.0
  0
VERTEX
  5
1419D
  8
0
 10
336.67420591166558
 20
178.30296646126291
 30
0.0
  0
VERTEX
  5
1419E
  8
0
 10
337.23880471559397
 20
178.83333845517151
 30
0.0
  0
VERTEX
  5
1419F
  8
0
 10
337.81353386402918
 20
179.3732266772011
 30
0.0
  0
VERTEX
  5
141A0
  8
0
 10
338.39811159438989
 20
179.92236644563249
 30
0.0
  0
VERTEX
  5
141A1
  8
0
 10
338.69400430292291
 20
180.2003217029156
 30
0.0
  0
VERTEX
  5
141A2
  8
0
 10
338.99225131579999
 20
180.4804885431503
 30
0.0
  0
VERTEX
  5
141A3
  8
0
 10
339.59566174959019
 20
181.04731934882651
 30
0.0
  0
VERTEX
  5
141A4
  8
0
 10
340.20804707209868
 20
181.62258097226459
 30
0.0
  0
VERTEX
  5
141A5
  8
0
 10
340.8291070596988
 20
182.20599138983621
 30
0.0
  0
VERTEX
  5
141A6
  8
0
 10
341.45853723598532
 20
182.7972645829434
 30
0.0
  0
VERTEX
  5
141A7
  8
0
 10
342.0960290210441
 20
183.3961106782406
 30
0.0
  0
VERTEX
  5
141A8
  8
0
 10
342.41770050077662
 20
183.69828195969239
 30
0.0
  0
VERTEX
  5
141A9
  8
0
 10
342.7412698827352
 20
184.00223608974559
 30
0.0
  0
VERTEX
  5
141AA
  8
0
 10
343.39394348991129
 20
184.61534366277081
 30
0.0
  0
VERTEX
  5
141AB
  8
0
 10
344.05372986750137
 20
185.2351328196045
 30
0.0
  0
VERTEX
  5
141AC
  8
0
 10
344.38618939517539
 20
185.5474381616624
 30
0.0
  0
VERTEX
  5
141AD
  8
0
 10
344.72030555337852
 20
185.8612997068698
 30
0.0
  0
VERTEX
  5
141AE
  8
0
 10
345.3933437569379
 20
186.4935373444892
 30
0.0
  0
VERTEX
  5
141AF
  8
0
 10
346.0725145193079
 20
187.131535776183
 30
0.0
  0
VERTEX
  5
141B0
  8
0
 10
346.41429567135458
 20
187.4525976520321
 30
0.0
  0
VERTEX
  5
141B1
  8
0
 10
346.75748487511231
 20
187.77498222142609
 30
0.0
  0
VERTEX
  5
141B2
  8
0
 10
347.4479190157079
 20
188.4235612287892
 30
0.0
  0
VERTEX
  5
141B3
  8
0
 10
348.14347845381599
 20
189.07695483059001
 30
0.0
  0
VERTEX
  5
141B4
  8
0
 10
348.84382218946581
 20
189.7348426987779
 30
0.0
  0
VERTEX
  5
141B5
  8
0
 10
349.54860687717149
 20
190.3969023019755
 30
0.0
  0
VERTEX
  5
141B6
  8
0
 10
350.2574869942581
 20
191.06280906360061
 30
0.0
  0
VERTEX
  5
141B7
  8
0
 10
350.61335430932428
 20
191.39710317854599
 30
0.0
  0
VERTEX
  5
141B8
  8
0
 10
350.97011501025497
 20
191.73223652099071
 30
0.0
  0
VERTEX
  5
141B9
  8
0
 10
351.68614155727289
 20
192.40485648545231
 30
0.0
  0
VERTEX
  5
141BA
  8
0
 10
352.40521560128411
 20
193.08033920315631
 30
0.0
  0
VERTEX
  5
141BB
  8
0
 10
353.1269846142161
 20
193.75835351680109
 30
0.0
  0
VERTEX
  5
141BC
  8
0
 10
353.85109474678069
 20
194.43856702796251
 30
0.0
  0
VERTEX
  5
141BD
  8
0
 10
354.57719100194942
 20
195.12064626005409
 30
0.0
  0
VERTEX
  5
141BE
  8
0
 10
354.94087271792301
 20
195.46228105542889
 30
0.0
  0
VERTEX
  5
141BF
  8
0
 10
355.304917408991
 20
195.80425682181411
 30
0.0
  0
VERTEX
  5
141C0
  8
0
 10
356.0339171979881
 20
196.48906357124241
 30
0.0
  0
VERTEX
  5
141C1
  8
0
 10
356.7638329747441
 20
197.17473077990419
 30
0.0
  0
VERTEX
  5
141C2
  8
0
 10
357.49430689599689
 20
197.86092229752239
 30
0.0
  0
VERTEX
  5
141C3
  8
0
 10
358.22498084485272
 20
198.54730171677579
 30
0.0
  0
VERTEX
  5
141C4
  8
0
 10
358.95549660635288
 20
199.2335325382241
 30
0.0
  0
VERTEX
  5
141C5
  8
0
 10
359.32058324107419
 20
199.57648708410571
 30
0.0
  0
VERTEX
  5
141C6
  8
0
 10
359.68549604309129
 20
199.9192783352772
 30
0.0
  0
VERTEX
  5
141C7
  8
0
 10
360.4146212707916
 20
200.60420291912979
 30
0.0
  0
VERTEX
  5
141C8
  8
0
 10
361.14251483376017
 20
201.28797050357861
 30
0.0
  0
VERTEX
  5
141C9
  8
0
 10
361.86881988013101
 20
201.9702458696425
 30
0.0
  0
VERTEX
  5
141CA
  8
0
 10
362.59318033681262
 20
202.65069452990471
 30
0.0
  0
VERTEX
  5
141CB
  8
0
 10
363.31524108405392
 20
203.32898289249599
 30
0.0
  0
VERTEX
  5
141CC
  8
0
 10
363.67529839524741
 20
203.66721299983979
 30
0.0
  0
VERTEX
  5
141CD
  8
0
 10
364.03464812954371
 20
204.00477842463931
 30
0.0
  0
VERTEX
  5
141CE
  8
0
 10
364.75104878195452
 20
204.67774981567439
 30
0.0
  0
VERTEX
  5
141CF
  8
0
 10
365.46409182385219
 20
205.3475671394846
 30
0.0
  0
VERTEX
  5
141D0
  8
0
 10
366.17342768387988
 20
206.01390201624329
 30
0.0
  0
VERTEX
  5
141D1
  8
0
 10
366.87870860813791
 20
206.67642777340339
 30
0.0
  0
VERTEX
  5
141D2
  8
0
 10
367.57958883066931
 20
207.33481960584919
 30
0.0
  0
VERTEX
  5
141D3
  8
0
 10
367.92827121224218
 20
207.66236434853869
 30
0.0
  0
VERTEX
  5
141D4
  8
0
 10
368.275724742975
 20
207.9887547351336
 30
0.0
  0
VERTEX
  5
141D5
  8
0
 10
368.96677506246539
 20
208.63791256772041
 30
0.0
  0
VERTEX
  5
141D6
  8
0
 10
369.65240099977842
 20
209.28197485215679
 30
0.0
  0
VERTEX
  5
141D7
  8
0
 10
369.99307467608509
 20
209.60199638907409
 30
0.0
  0
VERTEX
  5
141D8
  8
0
 10
370.3322664248704
 20
209.92062583509659
 30
0.0
  0
VERTEX
  5
141D9
  8
0
 10
371.00603803180502
 20
210.55355241609959
 30
0.0
  0
VERTEX
  5
141DA
  8
0
 10
371.67338550215692
 20
211.18044430112951
 30
0.0
  0
VERTEX
  5
141DB
  8
0
 10
372.00454781838789
 20
211.49153107061031
 30
0.0
  0
VERTEX
  5
141DC
  8
0
 10
372.33398166695218
 20
211.800994154677
 30
0.0
  0
VERTEX
  5
141DD
  8
0
 10
372.98750266706338
 20
212.41489775043109
 30
0.0
  0
VERTEX
  5
141DE
  8
0
 10
373.63362811198289
 20
213.0218541204278
 30
0.0
  0
VERTEX
  5
141DF
  8
0
 10
374.27204123689347
 20
213.6215657025999
 30
0.0
  0
VERTEX
  5
141E0
  8
0
 10
374.9024290579664
 20
214.2137384866578
 30
0.0
  0
VERTEX
  5
141E1
  8
0
 10
375.5244825257991
 20
214.79808215822871
 30
0.0
  0
VERTEX
  5
141E2
  8
0
 10
375.83228841245932
 20
215.0872283992567
 30
0.0
  0
VERTEX
  5
141E3
  8
0
 10
376.13789667692981
 20
215.3743102411847
 30
0.0
  0
VERTEX
  5
141E4
  8
0
 10
376.7423707833459
 20
215.94214023808749
 30
0.0
  0
VERTEX
  5
141E5
  8
0
 10
377.337608499917
 20
216.50129376868441
 30
0.0
  0
VERTEX
  5
141E6
  8
0
 10
377.9233180096785
 20
217.05149670638471
 30
0.0
  0
VERTEX
  5
141E7
  8
0
 10
378.49921216689648
 20
217.59247931265091
 30
0.0
  0
VERTEX
  5
141E8
  8
0
 10
379.065008637841
 20
218.1239763692391
 30
0.0
  0
VERTEX
  5
141E9
  8
0
 10
379.34403336156493
 20
218.3860862037649
 30
0.0
  0
VERTEX
  5
141EA
  8
0
 10
379.62043003920053
 20
218.6457273082226
 30
0.0
  0
VERTEX
  5
141EB
  8
0
 10
380.16520407407188
 20
219.15747633973629
 30
0.0
  0
VERTEX
  5
141EC
  8
0
 10
380.69906366545177
 20
219.65897257737859
 30
0.0
  0
VERTEX
  5
141ED
  8
0
 10
381.22174708717489
 20
220.14997016120861
 30
0.0
  0
VERTEX
  5
141EE
  8
0
 10
381.73299809222362
 20
220.63022837828021
 30
0.0
  0
VERTEX
  5
141EF
  8
0
 10
382.23256603835489
 20
221.09951178065191
 30
0.0
  0
VERTEX
  5
141F0
  8
0
 10
382.47789210147812
 20
221.3299658169536
 30
0.0
  0
VERTEX
  5
141F1
  8
0
 10
382.72020601097893
 20
221.557590300816
 30
0.0
  0
VERTEX
  5
141F2
  8
0
 10
383.19567894322699
 20
222.00423936448999
 30
0.0
  0
VERTEX
  5
141F3
  8
0
 10
383.65875173315771
 20
222.43924000071431
 30
0.0
  0
VERTEX
  5
141F4
  8
0
 10
384.10919735803333
 20
222.8623789492037
 30
0.0
  0
VERTEX
  5
141F5
  8
0
 10
384.5467949856195
 20
223.2734487648988
 30
0.0
  0
VERTEX
  5
141F6
  8
0
 10
384.97133008244901
 20
223.6722479196666
 30
0.0
  0
VERTEX
  5
141F7
  8
0
 10
385.17863388838759
 20
223.86698466394489
 30
0.0
  0
VERTEX
  5
141F8
  8
0
 10
385.38259451899648
 20
224.0585809010999
 30
0.0
  0
VERTEX
  5
141F9
  8
0
 10
385.78038667171541
 20
224.43225830836829
 30
0.0
  0
VERTEX
  5
141FA
  8
0
 10
386.16451152188478
 20
224.79309694507199
 30
0.0
  0
VERTEX
  5
141FB
  8
0
 10
386.53478075121598
 20
225.14091990905459
 30
0.0
  0
VERTEX
  5
141FC
  8
0
 10
386.89101283417858
 20
225.47555667912991
 30
0.0
  0
VERTEX
  5
141FD
  8
0
 10
387.23303312699181
 20
225.79684319868039
 30
0.0
  0
VERTEX
  5
141FE
  8
0
 10
387.39866117878
 20
225.9524306343302
 30
0.0
  0
VERTEX
  5
141FF
  8
0
 10
387.5606739532455
 20
226.1046219560865
 30
0.0
  0
VERTEX
  5
14200
  8
0
 10
387.87377468610339
 20
226.39874206194671
 30
0.0
  0
VERTEX
  5
14201
  8
0
 10
388.17218182705028
 20
226.6790593230522
 30
0.0
  0
VERTEX
  5
14202
  8
0
 10
388.31582930001332
 20
226.8139986748987
 30
0.0
  0
VERTEX
  5
14203
  8
0
 10
388.45574908114668
 20
226.94543631307729
 30
0.0
  0
VERTEX
  5
14204
  8
0
 10
388.7243374287487
 20
227.1977424399536
 30
0.0
  0
VERTEX
  5
14205
  8
0
 10
388.97781519366322
 20
227.43585400989301
 30
0.0
  0
VERTEX
  5
14206
  8
0
 10
389.0988484827385
 20
227.54955008294431
 30
0.0
  0
VERTEX
  5
14207
  8
0
 10
389.2160581077037
 20
227.65965428802869
 30
0.0
  0
VERTEX
  5
14208
  8
0
 10
389.4389493716115
 20
227.8690335556449
 30
0.0
  0
VERTEX
  5
14209
  8
0
 10
389.64637971231741
 20
228.06388916396699
 30
0.0
  0
VERTEX
  5
1420A
  8
0
 10
389.83824743651388
 20
228.244125584485
 30
0.0
  0
VERTEX
  5
1420B
  8
0
 10
390.01445848050957
 20
228.40965445578689
 30
0.0
  0
VERTEX
  5
1420C
  8
0
 10
390.17492645634462
 20
228.56039462687809
 30
0.0
  0
VERTEX
  5
1420D
  8
0
 10
390.24923190679738
 20
228.63019557162079
 30
0.0
  0
VERTEX
  5
1420E
  8
0
 10
390.31957269414238
 20
228.69627219696579
 30
0.0
  0
VERTEX
  5
1420F
  8
0
 10
390.44832628067837
 20
228.8172205516891
 30
0.0
  0
VERTEX
  5
14210
  8
0
 10
390.56112409414442
 20
228.92318039577711
 30
0.0
  0
VERTEX
  5
14211
  8
0
 10
390.65791083509538
 20
229.01409978211831
 30
0.0
  0
VERTEX
  5
14212
  8
0
 10
390.73863905355961
 20
229.0899341372278
 30
0.0
  0
VERTEX
  5
14213
  8
0
 10
390.80326917230059
 20
229.15064628309969
 30
0.0
  0
VERTEX
  5
14214
  8
0
 10
390.829537233944
 20
229.17532193620599
 30
0.0
  0
VERTEX
  5
14215
  8
0
 10
390.85176950622099
 20
229.19620645543381
 30
0.0
  0
VERTEX
  5
14216
  8
0
 10
390.88411627789583
 20
229.22659231822749
 30
0.0
  0
VERTEX
  5
14217
  8
0
 10
390.900293629229
 20
229.24178897472621
 30
0.0
  0
VERTEX
  5
14218
  8
0
 10
390.90231598404762
 20
229.24368873142049
 30
0.0
  0
SEQEND
  5
14219
  8
0
  0
ARC
  5
CC5E
  8
0
 10
318.9023159840475
 20
179.74368873142041
 30
0.0
 40
40.000000000000043
 50
101.3016934934744
 51
23.913610422490152
  0
ARC
  5
CC60
  8
0
 10
318.9023159840475
 20
179.74368873142049
 30
0.0
 40
30.832662348034841
 50
108.17253341309601
 51
17.824565553055962
  0
ARC
  5
CC69
  8
0
 10
318.9023159840475
 20
179.74368873142049
 30
0.0
 40
17.143250174624502
 50
138.4139642828122
 51
352.7632192332054
  0
ARC
  5
CC6F
  8
0
 10
318.90231598404682
 20
179.7436887314206
 30
0.0
 40
14.659727048147939
 50
165.99453765118099
 51
173.80835380091071
  0
ARC
  5
CC72
  8
0
 10
318.9023159840475
 20
179.74368873142049
 30
0.0
 40
35.707142142714247
 50
104.03454507518531
 51
21.48311446655217
  0
LINE
  5
104B8
  8
0
 10
87.539106623667294
 20
243.44368873142051
 30
0.0
 11
87.539106623667294
 21
244.24368873142049
 31
0.0
  0
LINE
  5
104B9
  8
0
 10
157.1391066236672
 20
244.24368873142049
 30
0.0
 11
157.1391066236672
 21
243.44368873142051
 31
0.0
  0
LINE
  5
104BA
  8
0
 10
87.837885959688947
 20
234.94368873142051
 30
0.0
 11
86.339106623667021
 21
243.44368873142051
 31
0.0
  0
LINE
  5
104BB
  8
0
 10
158.33910662366699
 20
243.44368873142051
 30
0.0
 11
156.8403272876451
 21
234.94368873142051
 31
0.0
  0
LINE
  5
104BC
  8
0
 10
89.339106623667021
 20
198.24419727447321
 30
0.0
 11
89.339106623667021
 21
234.94368873142051
 31
0.0
  0
LINE
  5
104BD
  8
0
 10
155.33910662366699
 20
234.94368873142051
 30
0.0
 11
155.33910662366699
 21
198.24419727447321
 31
0.0
  0
LINE
  5
104C4
  8
0
 10
79.839106623667021
 20
246.74368873142049
 30
0.0
 11
79.839106623667021
 21
244.24368873142049
 31
0.0
  0
LINE
  5
104C6
  8
0
 10
164.83910662366699
 20
246.74368873142049
 30
0.0
 11
79.839106623667021
 21
246.74368873142049
 31
0.0
  0
LINE
  5
104C8
  8
0
 10
164.83910662366699
 20
244.24368873142049
 30
0.0
 11
79.839106623667021
 21
244.24368873142049
 31
0.0
  0
LINE
  5
104C9
  8
0
 10
164.83910662366699
 20
246.74368873142049
 30
0.0
 11
164.83910662366699
 21
244.24368873142049
 31
0.0
  0
LINE
  5
104DD
  8
0
 10
158.33910662366699
 20
243.44368873142051
 30
0.0
 11
86.339106623667021
 21
243.44368873142051
 31
0.0
  0
LINE
  5
104DE
  8
0
 10
156.8403272876451
 20
234.94368873142051
 30
0.0
 11
87.837885959688947
 21
234.94368873142051
 31
0.0
  0
LINE
  5
104DF
  8
0
 10
99.839106623667035
 20
232.94368873142051
 30
0.0
 11
144.83910662366699
 21
232.94368873142051
 31
0.0
  0
LINE
  5
104E0
  8
0
 10
99.839106623667035
 20
175.56739723372459
 30
0.0
 11
99.839106623667035
 21
232.94368873142051
 31
0.0
  0
LINE
  5
104E1
  8
0
 10
144.83910662366699
 20
232.94368873142051
 30
0.0
 11
144.83910662366699
 21
175.56739723372459
 31
0.0
  0
LINE
  5
104E3
  8
0
 10
141.83910662366699
 20
229.24368873142041
 30
0.0
 11
102.83910662366701
 21
229.2436887314206
 31
0.0
  0
POLYLINE
  5
104EB
  8
0
 66
     1
 10
0.0
 20
0.0
 30
0.0
  0
VERTEX
  5
1421A
  8
0
 10
141.83910662366699
 20
220.27099712257089
 30
0.0
  0
VERTEX
  5
1421B
  8
0
 10
141.60224633839309
 20
220.4576980209288
 30
0.0
  0
VERTEX
  5
1421C
  8
0
 10
140.90633020843299
 20
220.97459963472511
 30
0.0
  0
VERTEX
  5
1421D
  8
0
 10
140.19470435365039
 20
221.4722690588213
 30
0.0
  0
VERTEX
  5
1421E
  8
0
 10
139.8331879323739
 20
221.71375946737521
 30
0.0
  0
VERTEX
  5
1421F
  8
0
 10
139.4679708805636
 20
221.9502852151995
 30
0.0
  0
VERTEX
  5
14220
  8
0
 10
138.72674467824501
 20
222.40824365446829
 30
0.0
  0
VERTEX
  5
14221
  8
0
 10
137.97165289806321
 20
222.84575689806769
 30
0.0
  0
VERTEX
  5
14222
  8
0
 10
137.20333442304781
 20
223.26245476611399
 30
0.0
  0
VERTEX
  5
14223
  8
0
 10
136.4224393273355
 20
223.65798469060971
 30
0.0
  0
VERTEX
  5
14224
  8
0
 10
135.62962832613789
 20
224.0320120137506
 30
0.0
  0
VERTEX
  5
14225
  8
0
 10
135.22896360675821
 20
224.2108625865649
 30
0.0
  0
VERTEX
  5
14226
  8
0
 10
134.825572216713
 20
224.38422027108021
 30
0.0
  0
VERTEX
  5
14227
  8
0
 10
134.01095131080251
 20
224.71431145924981
 30
0.0
  0
VERTEX
  5
14228
  8
0
 10
133.18645485902081
 20
225.0220062881595
 30
0.0
  0
VERTEX
  5
14229
  8
0
 10
132.3527804676807
 20
225.3070444172649
 30
0.0
  0
VERTEX
  5
1422A
  8
0
 10
131.51063350854719
 20
225.56918467585189
 30
0.0
  0
VERTEX
  5
1422B
  8
0
 10
130.66072652202479
 20
225.80820526709101
 30
0.0
  0
VERTEX
  5
1422C
  8
0
 10
130.23308749929379
 20
225.91898172001339
 30
0.0
  0
VERTEX
  5
1422D
  8
0
 10
129.8037786142738
 20
226.0239039556989
 30
0.0
  0
VERTEX
  5
1422E
  8
0
 10
128.9405148487792
 20
226.21609823905101
 30
0.0
  0
VERTEX
  5
1422F
  8
0
 10
128.07166563287069
 20
226.38462550159551
 30
0.0
  0
VERTEX
  5
14230
  8
0
 10
127.1979660997265
 20
226.5293431524434
 30
0.0
  0
VERTEX
  5
14231
  8
0
 10
126.32015548637879
 20
226.65012874601399
 30
0.0
  0
VERTEX
  5
14232
  8
0
 10
125.4389765082426
 20
226.7468800856366
 30
0.0
  0
VERTEX
  5
14233
  8
0
 10
124.9973567774707
 20
226.78621653220091
 30
0.0
  0
VERTEX
  5
14234
  8
0
 10
124.5551747307065
 20
226.8195153100184
 30
0.0
  0
VERTEX
  5
14235
  8
0
 10
123.6694979383098
 20
226.8679729625083
 30
0.0
  0
VERTEX
  5
14236
  8
0
 10
122.7826955020402
 20
226.8922120430943
 30
0.0
  0
VERTEX
  5
14237
  8
0
 10
122.33910662366701
 20
226.8952424089245
 30
0.0
  0
VERTEX
  5
14238
  8
0
 10
121.8955177452937
 20
226.8922120430943
 30
0.0
  0
VERTEX
  5
14239
  8
0
 10
121.0087153090242
 20
226.8679729625083
 30
0.0
  0
VERTEX
  5
1423A
  8
0
 10
120.1230385166275
 20
226.8195153100184
 30
0.0
  0
VERTEX
  5
1423B
  8
0
 10
119.6808564698633
 20
226.78621653220091
 30
0.0
  0
VERTEX
  5
1423C
  8
0
 10
119.2392367390914
 20
226.7468800856366
 30
0.0
  0
VERTEX
  5
1423D
  8
0
 10
118.3580577609557
 20
226.65012874601399
 30
0.0
  0
VERTEX
  5
1423E
  8
0
 10
117.4802471476075
 20
226.5293431524434
 30
0.0
  0
VERTEX
  5
1423F
  8
0
 10
116.60654761446381
 20
226.38462550159551
 30
0.0
  0
VERTEX
  5
14240
  8
0
 10
115.7376983985548
 20
226.21609823905101
 30
0.0
  0
VERTEX
  5
14241
  8
0
 10
114.8744346330602
 20
226.0239039556989
 30
0.0
  0
VERTEX
  5
14242
  8
0
 10
114.4451257480402
 20
225.91898172001339
 30
0.0
  0
VERTEX
  5
14243
  8
0
 10
114.01748672530969
 20
225.80820526709101
 30
0.0
  0
VERTEX
  5
14244
  8
0
 10
113.1675797387868
 20
225.56918467585189
 30
0.0
  0
VERTEX
  5
14245
  8
0
 10
112.3254327796533
 20
225.3070444172649
 30
0.0
  0
VERTEX
  5
14246
  8
0
 10
111.4917583883132
 20
225.0220062881595
 30
0.0
  0
VERTEX
  5
14247
  8
0
 10
110.667261936532
 20
224.71431145924981
 30
0.0
  0
VERTEX
  5
14248
  8
0
 10
109.8526410306215
 20
224.38422027108021
 30
0.0
  0
VERTEX
  5
14249
  8
0
 10
109.4492496405758
 20
224.2108625865649
 30
0.0
  0
VERTEX
  5
1424A
  8
0
 10
109.0485849211961
 20
224.0320120137506
 30
0.0
  0
VERTEX
  5
1424B
  8
0
 10
108.2557739199985
 20
223.65798469060971
 30
0.0
  0
VERTEX
  5
1424C
  8
0
 10
107.47487882428619
 20
223.26245476611399
 30
0.0
  0
VERTEX
  5
1424D
  8
0
 10
106.7065603492713
 20
222.84575689806769
 30
0.0
  0
VERTEX
  5
1424E
  8
0
 10
105.951468569089
 20
222.40824365446829
 30
0.0
  0
VERTEX
  5
1424F
  8
0
 10
105.2102423667704
 20
221.9502852151995
 30
0.0
  0
VERTEX
  5
14250
  8
0
 10
104.8450253149601
 20
221.71375946737521
 30
0.0
  0
VERTEX
  5
14251
  8
0
 10
104.483508893684
 20
221.4722690588213
 30
0.0
  0
VERTEX
  5
14252
  8
0
 10
103.771883038901
 20
220.97459963472511
 30
0.0
  0
VERTEX
  5
14253
  8
0
 10
103.0759669089409
 20
220.4576980209288
 30
0.0
  0
VERTEX
  5
14254
  8
0
 10
102.83910662366701
 20
220.27099712257069
 30
0.0
  0
SEQEND
  5
14255
  8
0
  0
POLYLINE
  5
104EE
  8
0
 66
     1
 10
0.0
 20
0.0
 30
0.0
  0
VERTEX
  5
14256
  8
0
 10
150.1391066236672
 20
180.72529649387749
 30
0.0
  0
VERTEX
  5
14257
  8
0
 10
152.60046812641511
 20
185.8796775671106
 30
0.0
  0
VERTEX
  5
14258
  8
0
 10
152.89259449895661
 20
186.53076931976591
 30
0.0
  0
VERTEX
  5
14259
  8
0
 10
153.42908591149239
 20
187.8508668771054
 30
0.0
  0
VERTEX
  5
1425A
  8
0
 10
153.9009804565442
 20
189.19255906402589
 30
0.0
  0
VERTEX
  5
1425B
  8
0
 10
154.30729766033591
 20
190.55305819412831
 30
0.0
  0
VERTEX
  5
1425C
  8
0
 10
154.64719330170081
 20
191.9295375050913
 30
0.0
  0
VERTEX
  5
1425D
  8
0
 10
154.91996116615491
 20
193.3191370319463
 30
0.0
  0
VERTEX
  5
1425E
  8
0
 10
155.03098959324751
 20
194.0179555195686
 30
0.0
  0
VERTEX
  5
1425F
  8
0
 10
155.12503451322391
 20
194.71896954933791
 30
0.0
  0
VERTEX
  5
14260
  8
0
 10
155.2619872539837
 20
196.12612657042581
 30
0.0
  0
VERTEX
  5
14261
  8
0
 10
155.33053483636169
 20
197.5376843899615
 30
0.0
  0
VERTEX
  5
14262
  8
0
 10
155.33910662366699
 20
198.24419727447321
 30
0.0
  0
SEQEND
  5
14263
  8
0
  0
POLYLINE
  5
104F0
  8
0
 66
     1
 10
0.0
 20
0.0
 30
0.0
  0
VERTEX
  5
14264
  8
0
 10
89.339106623667021
 20
198.24419727447321
 30
0.0
  0
VERTEX
  5
14265
  8
0
 10
89.347678410972307
 20
197.53768438996141
 30
0.0
  0
VERTEX
  5
14266
  8
0
 10
89.416225993350281
 20
196.12612657042581
 30
0.0
  0
VERTEX
  5
14267
  8
0
 10
89.553178734110361
 20
194.71896954933791
 30
0.0
  0
VERTEX
  5
14268
  8
0
 10
89.647223654086474
 20
194.0179555195686
 30
0.0
  0
VERTEX
  5
14269
  8
0
 10
89.758252081179535
 20
193.31913703194621
 30
0.0
  0
VERTEX
  5
1426A
  8
0
 10
90.031019945633261
 20
191.9295375050913
 30
0.0
  0
VERTEX
  5
1426B
  8
0
 10
90.370915586998535
 20
190.5530581941282
 30
0.0
  0
VERTEX
  5
1426C
  8
0
 10
90.777232790789867
 20
189.19255906402589
 30
0.0
  0
VERTEX
  5
1426D
  8
0
 10
91.249127335841649
 20
187.8508668771054
 30
0.0
  0
VERTEX
  5
1426E
  8
0
 10
91.785618748377374
 20
186.53076931976591
 30
0.0
  0
VERTEX
  5
1426F
  8
0
 10
92.077745120918962
 20
185.8796775671106
 30
0.0
  0
VERTEX
  5
14270
  8
0
 10
92.231026291200109
 20
185.55868873142049
 30
0.0
  0
SEQEND
  5
14271
  8
0
  0
LINE
  5
104F2
  8
0
 10
141.83910662366699
 20
169.74368873142049
 30
0.0
 11
141.83910662366699
 21
229.24368873142041
 31
0.0
  0
LINE
  5
104F5
  8
0
 10
102.83910662366701
 20
229.24368873142041
 30
0.0
 11
102.83910662366701
 21
169.74368873142049
 31
0.0
  0
ARC
  5
10588
  8
0
 10
109.33910662366701
 20
215.45083087413471
 30
0.0
 40
1.9999999999999889
 50
110.005190088161
 51
180.0
  0
ARC
  5
10589
  8
0
 10
109.33910662366701
 20
144.03654658870619
 30
0.0
 40
1.9999999999999849
 50
180.0
 51
249.99480991183901
  0
ARC
  5
1058A
  8
0
 10
122.33910662366701
 20
179.74368873142029
 30
0.0
 40
39.999999999999922
 50
249.99480991183901
 51
290.00519008816099
  0
ARC
  5
1058B
  8
0
 10
122.33910662366701
 20
179.74368873142049
 30
0.0
 40
39.999999999999929
 50
69.994809911838999
 51
110.005190088161
  0
ARC
  5
1058C
  8
0
 10
135.33910662366699
 20
215.45083087413471
 30
0.0
 40
1.999999999999958
 50
0.0
 51
69.994809911838999
  0
ARC
  5
1058D
  8
0
 10
135.33910662366699
 20
144.03654658870619
 30
0.0
 40
1.999999999999966
 50
290.00519008816099
 51
0.0
  0
LINE
  5
10598
  8
0
 10
107.33910662366701
 20
215.45083087413471
 30
0.0
 11
107.33910662366701
 21
144.03654658870619
 31
0.0
  0
LINE
  5
1059A
  8
0
 10
137.33910662366699
 20
215.45083087413471
 30
0.0
 11
137.33910662366699
 21
144.03654658870619
 31
0.0
  0
LINE
  5
105A2
  8
0
 10
318.90231598404807
 20
186.97018960077719
 30
0.0
 11
325.16064931738129
 21
183.35693916609881
 31
0.0
  0
LINE
  5
105A3
  8
0
 10
325.16064931738129
 20
183.35693916609881
 30
0.0
 11
325.16064931738129
 21
176.130438296742
 31
0.0
  0
LINE
  5
105A4
  8
0
 10
325.16064931738129
 20
176.130438296742
 30
0.0
 11
318.90231598404807
 21
172.51718786206359
 31
0.0
  0
LINE
  5
105A5
  8
0
 10
318.90231598404807
 20
186.97018960077719
 30
0.0
 11
312.6439826507148
 21
183.35693916609881
 31
0.0
  0
LINE
  5
105A6
  8
0
 10
312.6439826507148
 20
183.35693916609881
 30
0.0
 11
312.6439826507148
 21
176.130438296742
 31
0.0
  0
LINE
  5
105A7
  8
0
 10
312.6439826507148
 20
176.130438296742
 30
0.0
 11
318.90231598404807
 21
172.51718786206359
 31
0.0
  0
CIRCLE
  5
105A8
  8
0
 10
318.90231598404762
 20
179.74368873142041
 30
0.0
 40
6.2583333333330611
  0
LINE
  5
105A9
  8
1
 10
357.90231598404807
 20
254.73710445286059
 30
0.0
 11
357.90231598404807
 21
211.36077252471171
 31
0.0
  0
LINE
  5
105AA
  8
1
 10
270.9089002626074
 20
179.74368873142049
 30
0.0
 11
366.89573170548789
 21
179.74368873142049
 31
0.0
  0
LINE
  5
105AB
  8
1
 10
318.90231598404762
 20
131.7502730099803
 30
0.0
 11
318.90231598404762
 21
221.50293686627811
 31
0.0
  0
LINE
  5
105AC
  8
1
 10
555.8013369318378
 20
179.74368873142049
 30
0.0
 11
475.12971375701818
 21
179.74368873142049
 31
0.0
  0
LINE
  5
105AD
  8
1
 10
515.46552534442787
 20
131.7502730099803
 30
0.0
 11
515.46552534442787
 21
254.73710445286059
 31
0.0
  0
LINE
  5
105AE
  8
3
 10
550.96552534442799
 20
182.9766887314205
 30
0.0
 11
547.96552534442787
 21
182.9766887314205
 31
0.0
  0
LINE
  5
105AF
  8
3
 10
550.96552534442799
 20
176.51068873142049
 30
0.0
 11
547.96552534442787
 21
176.51068873142049
 31
0.0
  0
LINE
  5
10632
  8
1
 10
82.003295036257214
 20
179.74368873142049
 30
0.0
 11
162.6749182110768
 21
179.74368873142049
 31
0.0
  0
LINE
  5
10633
  8
1
 10
122.33910662366701
 20
131.7502730099803
 30
0.0
 11
122.33910662366701
 21
254.73710445286059
 31
0.0
  0
LINE
  5
10674
  8
0
 10
144.83910662366699
 20
175.864164944864
 30
0.0
 11
144.83910662366699
 21
169.74368873142049
 31
0.0
  0
LINE
  5
10675
  8
0
 10
141.83910662366699
 20
169.74368873142049
 30
0.0
 11
144.83910662366699
 21
169.74368873142049
 31
0.0
  0
LINE
  5
10676
  8
0
 10
99.839106623667035
 20
169.74368873142049
 30
0.0
 11
102.83910662366701
 21
169.74368873142049
 31
0.0
  0
LINE
  5
10677
  8
0
 10
99.839106623667035
 20
169.74368873142049
 30
0.0
 11
99.839106623667035
 21
175.864164944864
 31
0.0
  0
LINE
  5
10678
  8
0
 10
144.83910662366699
 20
173.92868873142049
 30
0.0
 11
145.4391066236669
 21
173.92868873142049
 31
0.0
  0
LINE
  5
10679
  8
0
 10
145.4391066236669
 20
185.55868873142049
 30
0.0
 11
144.83910662366699
 21
185.55868873142049
 31
0.0
  0
LINE
  5
1067A
  8
0
 10
89.606106623666847
 20
175.74368873142049
 30
0.0
 11
91.839106623667021
 21
175.74368873142049
 31
0.0
  0
LINE
  5
1067B
  8
0
 10
91.839106623667021
 20
183.74368873142049
 30
0.0
 11
89.606106623666847
 21
183.74368873142049
 31
0.0
  0
LINE
  5
1067C
  8
0
 10
88.839106623667021
 20
176.51068873142049
 30
0.0
 11
89.606106623666847
 21
175.74368873142049
 31
0.0
  0
LINE
  5
1067D
  8
0
 10
89.606106623666847
 20
183.74368873142049
 30
0.0
 11
88.839106623667021
 21
182.9766887314205
 31
0.0
  0
LINE
  5
1067E
  8
0
 10
150.1391066236672
 20
186.00202206475379
 30
0.0
 11
149.87968691425129
 21
186.9701896007773
 31
0.0
  0
LINE
  5
1067F
  8
0
 10
149.87968691425129
 20
172.51718786206371
 30
0.0
 11
150.1391066236672
 21
173.48535539808719
 31
0.0
  0
LINE
  5
10680
  8
0
 10
145.6985263330823
 20
186.9701896007773
 30
0.0
 11
145.4391066236669
 21
186.00202206475379
 31
0.0
  0
LINE
  5
10681
  8
0
 10
145.4391066236669
 20
173.48535539808719
 30
0.0
 11
145.6985263330823
 21
172.51718786206371
 31
0.0
  0
LINE
  5
10682
  8
0
 10
91.839106623667021
 20
173.92868873142049
 30
0.0
 11
94.339106623667021
 21
173.92868873142049
 31
0.0
  0
LINE
  5
10683
  8
0
 10
94.339106623667021
 20
185.55868873142049
 30
0.0
 11
91.839106623667021
 21
185.55868873142049
 31
0.0
  0
LINE
  5
10684
  8
0
 10
99.839106623667035
 20
186.00202206475379
 30
0.0
 11
99.579686914251624
 21
186.9701896007773
 31
0.0
  0
LINE
  5
10685
  8
0
 10
99.579686914251624
 20
172.51718786206371
 30
0.0
 11
99.839106623667035
 21
173.48535539808719
 31
0.0
  0
LINE
  5
10686
  8
0
 10
94.598526333082418
 20
186.9701896007773
 30
0.0
 11
94.339106623667021
 21
186.00202206475379
 31
0.0
  0
LINE
  5
10687
  8
0
 10
94.339106623667021
 20
173.48535539808719
 30
0.0
 11
94.598526333082418
 21
172.51718786206371
 31
0.0
  0
LINE
  5
10688
  8
0
 10
102.83910662366701
 20
173.74368873142049
 30
0.0
 11
107.33910662366701
 21
173.74368873142049
 31
0.0
  0
LINE
  5
10689
  8
0
 10
137.33910662366699
 20
173.74368873142049
 30
0.0
 11
141.83910662366699
 21
173.74368873142049
 31
0.0
  0
LINE
  5
1068A
  8
0
 10
141.83910662366699
 20
185.74368873142049
 30
0.0
 11
137.33910662366699
 21
185.74368873142049
 31
0.0
  0
LINE
  5
1068B
  8
0
 10
107.33910662366701
 20
185.74368873142049
 30
0.0
 11
102.83910662366701
 21
185.74368873142049
 31
0.0
  0
LINE
  5
1068C
  8
0
 10
89.606106623666847
 20
183.74368873142049
 30
0.0
 11
89.606106623666847
 21
175.74368873142049
 31
0.0
  0
LINE
  5
1068D
  8
0
 10
88.839106623667021
 20
182.9766887314205
 30
0.0
 11
88.839106623667021
 21
176.51068873142049
 31
0.0
  0
LINE
  5
1068E
  8
0
 10
150.1391066236672
 20
186.00202206475379
 30
0.0
 11
150.1391066236672
 21
173.48535539808719
 31
0.0
  0
LINE
  5
1068F
  8
0
 10
145.4391066236669
 20
186.00202206475379
 30
0.0
 11
145.4391066236669
 21
176.45496968678151
 31
0.0
  0
LINE
  5
10690
  8
0
 10
145.4391066236669
 20
176.45496968678151
 30
0.0
 11
145.4391066236669
 21
173.48535539808719
 31
0.0
  0
POLYLINE
  5
10691
  8
0
 66
     1
 10
0.0
 20
0.0
 30
0.0
  0
VERTEX
  5
14272
  8
0
 10
149.87968691425129
 20
176.13043829674211
 30
0.0
  0
VERTEX
  5
14273
  8
0
 10
149.96053156750961
 20
175.8058644010699
 30
0.0
  0
VERTEX
  5
14274
  8
0
 10
150.07514190626279
 20
175.19630382229809
 30
0.0
  0
VERTEX
  5
14275
  8
0
 10
150.1319164900471
 20
174.61389565072241
 30
0.0
  0
VERTEX
  5
14276
  8
0
 10
150.1391066236672
 20
174.3238130794029
 30
0.0
  0
SEQEND
  5
14277
  8
0
  0
POLYLINE
  5
10692
  8
0
 66
     1
 10
0.0
 20
0.0
 30
0.0
  0
VERTEX
  5
14278
  8
0
 10
150.1391066236672
 20
174.3238130794029
 30
0.0
  0
VERTEX
  5
14279
  8
0
 10
150.1319164900471
 20
174.03373050808341
 30
0.0
  0
VERTEX
  5
1427A
  8
0
 10
150.07514190626279
 20
173.45132233650779
 30
0.0
  0
VERTEX
  5
1427B
  8
0
 10
149.96053156750961
 20
172.8417617577359
 30
0.0
  0
VERTEX
  5
1427C
  8
0
 10
149.87968691425129
 20
172.51718786206371
 30
0.0
  0
SEQEND
  5
1427D
  8
0
  0
POLYLINE
  5
10693
  8
0
 66
     1
 10
0.0
 20
0.0
 30
0.0
  0
VERTEX
  5
1427E
  8
0
 10
145.6985263330823
 20
172.51718786206371
 30
0.0
  0
VERTEX
  5
1427F
  8
0
 10
145.6176816798245
 20
172.8417617577359
 30
0.0
  0
VERTEX
  5
14280
  8
0
 10
145.50307134107129
 20
173.45132233650779
 30
0.0
  0
VERTEX
  5
14281
  8
0
 10
145.446296757287
 20
174.03373050808341
 30
0.0
  0
VERTEX
  5
14282
  8
0
 10
145.4391066236669
 20
174.3238130794029
 30
0.0
  0
SEQEND
  5
14283
  8
0
  0
POLYLINE
  5
10694
  8
0
 66
     1
 10
0.0
 20
0.0
 30
0.0
  0
VERTEX
  5
14284
  8
0
 10
145.4391066236669
 20
174.3238130794029
 30
0.0
  0
VERTEX
  5
14285
  8
0
 10
145.446296757287
 20
174.61389565072241
 30
0.0
  0
VERTEX
  5
14286
  8
0
 10
145.50307134107129
 20
175.19630382229809
 30
0.0
  0
VERTEX
  5
14287
  8
0
 10
145.6176816798245
 20
175.8058644010699
 30
0.0
  0
VERTEX
  5
14288
  8
0
 10
145.6985263330823
 20
176.13043829674211
 30
0.0
  0
SEQEND
  5
14289
  8
0
  0
LINE
  5
10695
  8
0
 10
149.87968691425129
 20
172.51718786206371
 30
0.0
 11
145.6985263330823
 21
172.51718786206371
 31
0.0
  0
POLYLINE
  5
10696
  8
0
 66
     1
 10
0.0
 20
0.0
 30
0.0
  0
VERTEX
  5
1428A
  8
0
 10
149.87968691425129
 20
176.13043829674211
 30
0.0
  0
VERTEX
  5
1428B
  8
0
 10
149.96053156750961
 20
176.77958608808649
 30
0.0
  0
VERTEX
  5
1428C
  8
0
 10
150.07514190626279
 20
177.99870724563019
 30
0.0
  0
VERTEX
  5
1428D
  8
0
 10
150.1319164900471
 20
179.1635235887816
 30
0.0
  0
VERTEX
  5
1428E
  8
0
 10
150.1391066236672
 20
179.74368873142049
 30
0.0
  0
SEQEND
  5
1428F
  8
0
  0
POLYLINE
  5
10697
  8
0
 66
     1
 10
0.0
 20
0.0
 30
0.0
  0
VERTEX
  5
14290
  8
0
 10
150.1391066236672
 20
179.74368873142049
 30
0.0
  0
VERTEX
  5
14291
  8
0
 10
150.1319164900471
 20
180.32385387405941
 30
0.0
  0
VERTEX
  5
14292
  8
0
 10
150.07514190626279
 20
181.4886702172108
 30
0.0
  0
VERTEX
  5
14293
  8
0
 10
149.96053156750961
 20
182.70779137475449
 30
0.0
  0
VERTEX
  5
14294
  8
0
 10
149.87968691425129
 20
183.35693916609901
 30
0.0
  0
SEQEND
  5
14295
  8
0
  0
POLYLINE
  5
10698
  8
0
 66
     1
 10
0.0
 20
0.0
 30
0.0
  0
VERTEX
  5
14296
  8
0
 10
145.6985263330823
 20
183.35693916609901
 30
0.0
  0
VERTEX
  5
14297
  8
0
 10
145.6176816798245
 20
182.70779137475449
 30
0.0
  0
VERTEX
  5
14298
  8
0
 10
145.50307134107129
 20
181.4886702172108
 30
0.0
  0
VERTEX
  5
14299
  8
0
 10
145.446296757287
 20
180.32385387405949
 30
0.0
  0
VERTEX
  5
1429A
  8
0
 10
145.4391066236669
 20
179.74368873142049
 30
0.0
  0
SEQEND
  5
1429B
  8
0
  0
POLYLINE
  5
10699
  8
0
 66
     1
 10
0.0
 20
0.0
 30
0.0
  0
VERTEX
  5
1429C
  8
0
 10
145.4391066236669
 20
179.74368873142049
 30
0.0
  0
VERTEX
  5
1429D
  8
0
 10
145.446296757287
 20
179.1635235887816
 30
0.0
  0
VERTEX
  5
1429E
  8
0
 10
145.50307134107129
 20
177.99870724563019
 30
0.0
  0
VERTEX
  5
1429F
  8
0
 10
145.6176816798245
 20
176.77958608808649
 30
0.0
  0
VERTEX
  5
142A0
  8
0
 10
145.6985263330823
 20
176.13043829674211
 30
0.0
  0
SEQEND
  5
142A1
  8
0
  0
POLYLINE
  5
1069A
  8
0
 66
     1
 10
0.0
 20
0.0
 30
0.0
  0
VERTEX
  5
142A2
  8
0
 10
145.4391066236669
 20
185.16356438343811
 30
0.0
  0
VERTEX
  5
142A3
  8
0
 10
145.446296757287
 20
185.4536469547576
 30
0.0
  0
VERTEX
  5
142A4
  8
0
 10
145.50307134107129
 20
186.0360551263332
 30
0.0
  0
VERTEX
  5
142A5
  8
0
 10
145.6176816798245
 20
186.6456157051052
 30
0.0
  0
VERTEX
  5
142A6
  8
0
 10
145.6985263330823
 20
186.9701896007773
 30
0.0
  0
SEQEND
  5
142A7
  8
0
  0
POLYLINE
  5
1069B
  8
0
 66
     1
 10
0.0
 20
0.0
 30
0.0
  0
VERTEX
  5
142A8
  8
0
 10
149.87968691425129
 20
186.9701896007773
 30
0.0
  0
VERTEX
  5
142A9
  8
0
 10
149.96053156750961
 20
186.6456157051052
 30
0.0
  0
VERTEX
  5
142AA
  8
0
 10
150.07514190626279
 20
186.0360551263332
 30
0.0
  0
VERTEX
  5
142AB
  8
0
 10
150.1319164900471
 20
185.4536469547576
 30
0.0
  0
VERTEX
  5
142AC
  8
0
 10
150.1391066236672
 20
185.16356438343811
 30
0.0
  0
SEQEND
  5
142AD
  8
0
  0
POLYLINE
  5
1069C
  8
0
 66
     1
 10
0.0
 20
0.0
 30
0.0
  0
VERTEX
  5
142AE
  8
0
 10
150.1391066236672
 20
185.16356438343811
 30
0.0
  0
VERTEX
  5
142AF
  8
0
 10
150.1319164900471
 20
184.87348181211871
 30
0.0
  0
VERTEX
  5
142B0
  8
0
 10
150.07514190626279
 20
184.291073640543
 30
0.0
  0
VERTEX
  5
142B1
  8
0
 10
149.96053156750961
 20
183.6815130617712
 30
0.0
  0
VERTEX
  5
142B2
  8
0
 10
149.87968691425129
 20
183.35693916609901
 30
0.0
  0
SEQEND
  5
142B3
  8
0
  0
POLYLINE
  5
1069D
  8
0
 66
     1
 10
0.0
 20
0.0
 30
0.0
  0
VERTEX
  5
142B4
  8
0
 10
145.6985263330823
 20
183.35693916609901
 30
0.0
  0
VERTEX
  5
142B5
  8
0
 10
145.6176816798245
 20
183.6815130617712
 30
0.0
  0
VERTEX
  5
142B6
  8
0
 10
145.50307134107129
 20
184.291073640543
 30
0.0
  0
VERTEX
  5
142B7
  8
0
 10
145.446296757287
 20
184.87348181211871
 30
0.0
  0
VERTEX
  5
142B8
  8
0
 10
145.4391066236669
 20
185.16356438343811
 30
0.0
  0
SEQEND
  5
142B9
  8
0
  0
LINE
  5
1069E
  8
0
 10
149.87968691425129
 20
186.9701896007773
 30
0.0
 11
145.6985263330823
 21
186.9701896007773
 31
0.0
  0
LINE
  5
1069F
  8
0
 10
149.87968691425129
 20
183.35693916609901
 30
0.0
 11
145.6985263330823
 21
183.35693916609901
 31
0.0
  0
LINE
  5
106A0
  8
0
 10
149.87968691425129
 20
176.13043829674211
 30
0.0
 11
145.6985263330823
 21
176.13043829674211
 31
0.0
  0
LINE
  5
106A1
  8
0
 10
91.839106623667021
 20
185.55868873142049
 30
0.0
 11
91.839106623667021
 21
173.92868873142049
 31
0.0
  0
LINE
  5
106A2
  8
0
 10
94.339106623667021
 20
186.00202206475379
 30
0.0
 11
94.339106623667021
 21
173.48535539808719
 31
0.0
  0
POLYLINE
  5
106A3
  8
0
 66
     1
 10
0.0
 20
0.0
 30
0.0
  0
VERTEX
  5
142BA
  8
0
 10
99.579686914251624
 20
176.13043829674211
 30
0.0
  0
VERTEX
  5
142BB
  8
0
 10
99.580544127882376
 20
176.12723700374761
 30
0.0
  0
VERTEX
  5
142BC
  8
0
 10
99.582253728406855
 20
176.12083966635879
 30
0.0
  0
VERTEX
  5
142BD
  8
0
 10
99.583956903243021
 20
176.11444929870811
 30
0.0
  0
VERTEX
  5
142BE
  8
0
 10
99.584806084747242
 20
176.11125671790791
 30
0.0
  0
SEQEND
  5
142BF
  8
0
  0
POLYLINE
  5
106A4
  8
0
 66
     1
 10
0.0
 20
0.0
 30
0.0
  0
VERTEX
  5
142C0
  8
0
 10
99.584806084747242
 20
176.11125671790791
 30
0.0
  0
VERTEX
  5
142C1
  8
0
 10
99.664001660719137
 20
175.79067303053381
 30
0.0
  0
VERTEX
  5
142C2
  8
0
 10
99.776362002284486
 20
175.1877883357343
 30
0.0
  0
VERTEX
  5
142C3
  8
0
 10
99.832053301542373
 20
174.6111167507776
 30
0.0
  0
VERTEX
  5
142C4
  8
0
 10
99.839106623667035
 20
174.3238130794029
 30
0.0
  0
SEQEND
  5
142C5
  8
0
  0
POLYLINE
  5
106A5
  8
0
 66
     1
 10
0.0
 20
0.0
 30
0.0
  0
VERTEX
  5
142C6
  8
0
 10
99.839106623667035
 20
174.3238130794029
 30
0.0
  0
VERTEX
  5
142C7
  8
0
 10
99.831916490046979
 20
174.03373050808341
 30
0.0
  0
VERTEX
  5
142C8
  8
0
 10
99.775141906262661
 20
173.45132233650779
 30
0.0
  0
VERTEX
  5
142C9
  8
0
 10
99.660531567509452
 20
172.8417617577359
 30
0.0
  0
VERTEX
  5
142CA
  8
0
 10
99.579686914251624
 20
172.51718786206371
 30
0.0
  0
SEQEND
  5
142CB
  8
0
  0
POLYLINE
  5
106A6
  8
0
 66
     1
 10
0.0
 20
0.0
 30
0.0
  0
VERTEX
  5
142CC
  8
0
 10
94.598526333082418
 20
172.51718786206371
 30
0.0
  0
VERTEX
  5
142CD
  8
0
 10
94.517681679824591
 20
172.8417617577359
 30
0.0
  0
VERTEX
  5
142CE
  8
0
 10
94.403071341071382
 20
173.45132233650779
 30
0.0
  0
VERTEX
  5
142CF
  8
0
 10
94.346296757287064
 20
174.03373050808341
 30
0.0
  0
VERTEX
  5
142D0
  8
0
 10
94.339106623667021
 20
174.3238130794029
 30
0.0
  0
SEQEND
  5
142D1
  8
0
  0
POLYLINE
  5
106A7
  8
0
 66
     1
 10
0.0
 20
0.0
 30
0.0
  0
VERTEX
  5
142D2
  8
0
 10
94.339106623667021
 20
174.3238130794029
 30
0.0
  0
VERTEX
  5
142D3
  8
0
 10
94.346296757287064
 20
174.61389565072241
 30
0.0
  0
VERTEX
  5
142D4
  8
0
 10
94.403071341071382
 20
175.19630382229809
 30
0.0
  0
VERTEX
  5
142D5
  8
0
 10
94.517681679824591
 20
175.8058644010699
 30
0.0
  0
VERTEX
  5
142D6
  8
0
 10
94.598526333082418
 20
176.13043829674211
 30
0.0
  0
SEQEND
  5
142D7
  8
0
  0
LINE
  5
106A8
  8
0
 10
99.579686914251624
 20
172.51718786206371
 30
0.0
 11
94.598526333082418
 21
172.51718786206371
 31
0.0
  0
POLYLINE
  5
106A9
  8
0
 66
     1
 10
0.0
 20
0.0
 30
0.0
  0
VERTEX
  5
142D8
  8
0
 10
99.579686914251624
 20
176.13043829674211
 30
0.0
  0
VERTEX
  5
142D9
  8
0
 10
99.660531567509452
 20
176.77958608808649
 30
0.0
  0
VERTEX
  5
142DA
  8
0
 10
99.775141906262661
 20
177.99870724563019
 30
0.0
  0
VERTEX
  5
142DB
  8
0
 10
99.831916490046979
 20
179.1635235887816
 30
0.0
  0
VERTEX
  5
142DC
  8
0
 10
99.839106623667035
 20
179.74368873142049
 30
0.0
  0
SEQEND
  5
142DD
  8
0
  0
POLYLINE
  5
106AA
  8
0
 66
     1
 10
0.0
 20
0.0
 30
0.0
  0
VERTEX
  5
142DE
  8
0
 10
99.839106623667035
 20
179.74368873142049
 30
0.0
  0
VERTEX
  5
142DF
  8
0
 10
99.831916490046979
 20
180.32385387405949
 30
0.0
  0
VERTEX
  5
142E0
  8
0
 10
99.775141906262661
 20
181.4886702172108
 30
0.0
  0
VERTEX
  5
142E1
  8
0
 10
99.660531567509452
 20
182.70779137475449
 30
0.0
  0
VERTEX
  5
142E2
  8
0
 10
99.579686914251624
 20
183.35693916609901
 30
0.0
  0
SEQEND
  5
142E3
  8
0
  0
POLYLINE
  5
106AB
  8
0
 66
     1
 10
0.0
 20
0.0
 30
0.0
  0
VERTEX
  5
142E4
  8
0
 10
94.598526333082418
 20
183.35693916609901
 30
0.0
  0
VERTEX
  5
142E5
  8
0
 10
94.517681679824591
 20
182.70779137475449
 30
0.0
  0
VERTEX
  5
142E6
  8
0
 10
94.403071341071382
 20
181.4886702172108
 30
0.0
  0
VERTEX
  5
142E7
  8
0
 10
94.346296757287064
 20
180.32385387405949
 30
0.0
  0
VERTEX
  5
142E8
  8
0
 10
94.339106623667021
 20
179.74368873142049
 30
0.0
  0
SEQEND
  5
142E9
  8
0
  0
POLYLINE
  5
106AC
  8
0
 66
     1
 10
0.0
 20
0.0
 30
0.0
  0
VERTEX
  5
142EA
  8
0
 10
94.339106623667021
 20
179.74368873142049
 30
0.0
  0
VERTEX
  5
142EB
  8
0
 10
94.346296757287064
 20
179.1635235887816
 30
0.0
  0
VERTEX
  5
142EC
  8
0
 10
94.403071341071382
 20
177.99870724563019
 30
0.0
  0
VERTEX
  5
142ED
  8
0
 10
94.517681679824591
 20
176.77958608808649
 30
0.0
  0
VERTEX
  5
142EE
  8
0
 10
94.598526333082418
 20
176.13043829674211
 30
0.0
  0
SEQEND
  5
142EF
  8
0
  0
POLYLINE
  5
106AD
  8
0
 66
     1
 10
0.0
 20
0.0
 30
0.0
  0
VERTEX
  5
142F0
  8
0
 10
94.339106623667021
 20
185.16356438343811
 30
0.0
  0
VERTEX
  5
142F1
  8
0
 10
94.346296757287064
 20
185.4536469547576
 30
0.0
  0
VERTEX
  5
142F2
  8
0
 10
94.403071341071382
 20
186.0360551263332
 30
0.0
  0
VERTEX
  5
142F3
  8
0
 10
94.517681679824591
 20
186.6456157051052
 30
0.0
  0
VERTEX
  5
142F4
  8
0
 10
94.598526333082418
 20
186.9701896007773
 30
0.0
  0
SEQEND
  5
142F5
  8
0
  0
POLYLINE
  5
106AE
  8
0
 66
     1
 10
0.0
 20
0.0
 30
0.0
  0
VERTEX
  5
142F6
  8
0
 10
99.579686914251624
 20
186.9701896007773
 30
0.0
  0
VERTEX
  5
142F7
  8
0
 10
99.660531567509452
 20
186.6456157051052
 30
0.0
  0
VERTEX
  5
142F8
  8
0
 10
99.775141906262661
 20
186.0360551263332
 30
0.0
  0
VERTEX
  5
142F9
  8
0
 10
99.831916490046979
 20
185.4536469547576
 30
0.0
  0
VERTEX
  5
142FA
  8
0
 10
99.839106623667035
 20
185.16356438343811
 30
0.0
  0
SEQEND
  5
142FB
  8
0
  0
POLYLINE
  5
106AF
  8
0
 66
     1
 10
0.0
 20
0.0
 30
0.0
  0
VERTEX
  5
142FC
  8
0
 10
99.839106623667035
 20
185.16356438343811
 30
0.0
  0
VERTEX
  5
142FD
  8
0
 10
99.831916490046979
 20
184.87348181211871
 30
0.0
  0
VERTEX
  5
142FE
  8
0
 10
99.775141906262661
 20
184.291073640543
 30
0.0
  0
VERTEX
  5
142FF
  8
0
 10
99.660531567509452
 20
183.6815130617712
 30
0.0
  0
VERTEX
  5
14300
  8
0
 10
99.579686914251624
 20
183.35693916609901
 30
0.0
  0
SEQEND
  5
14301
  8
0
  0
POLYLINE
  5
106B0
  8
0
 66
     1
 10
0.0
 20
0.0
 30
0.0
  0
VERTEX
  5
14302
  8
0
 10
94.598526333082418
 20
183.35693916609901
 30
0.0
  0
VERTEX
  5
14303
  8
0
 10
94.517681679824591
 20
183.6815130617712
 30
0.0
  0
VERTEX
  5
14304
  8
0
 10
94.403071341071382
 20
184.291073640543
 30
0.0
  0
VERTEX
  5
14305
  8
0
 10
94.346296757287064
 20
184.87348181211871
 30
0.0
  0
VERTEX
  5
14306
  8
0
 10
94.339106623667021
 20
185.16356438343811
 30
0.0
  0
SEQEND
  5
14307
  8
0
  0
LINE
  5
106B1
  8
0
 10
99.579686914251624
 20
186.9701896007773
 30
0.0
 11
94.598526333082418
 21
186.9701896007773
 31
0.0
  0
LINE
  5
106B2
  8
0
 10
99.579686914251624
 20
183.35693916609901
 30
0.0
 11
94.598526333082418
 21
183.35693916609901
 31
0.0
  0
LINE
  5
106B3
  8
0
 10
99.579686914251624
 20
176.13043829674211
 30
0.0
 11
99.565965147145334
 21
176.13043829674211
 31
0.0
  0
LINE
  5
106B4
  8
0
 10
99.565965147145334
 20
176.13043829674211
 30
0.0
 11
94.598526333082418
 21
176.13043829674211
 31
0.0
  0
LINE
  5
106B5
  8
3
 10
88.839106623667021
 20
182.9766887314205
 30
0.0
 11
91.839106623667021
 21
182.9766887314205
 31
0.0
  0
LINE
  5
106B6
  8
3
 10
88.839106623667021
 20
176.51068873142049
 30
0.0
 11
91.839106623667021
 21
176.51068873142049
 31
0.0
  0
LINE
  5
10745
  8
1
 10
318.90231598404762
 20
336.07221254493118
 30
0.0
 11
318.90231598404762
 21
432.07913342892527
 31
0.0
  0
LINE
  5
10747
  8
1
 10
311.16624800654739
 20
414.07567298692851
 30
0.0
 11
324.63838396154711
 21
414.07567298692851
 31
0.0
  0
LINE
  5
10748
  8
1
 10
317.90231598404728
 20
407.33960500942868
 30
0.0
 11
317.90231598404728
 21
420.81174096442822
 31
0.0
  0
LINE
  5
10749
  8
1
 10
313.66624800654751
 20
406.57567298692851
 30
0.0
 11
327.13838396154711
 21
406.57567298692851
 31
0.0
  0
LINE
  5
1074A
  8
1
 10
320.40231598404728
 20
399.83960500942868
 30
0.0
 11
320.40231598404728
 21
413.31174096442828
 31
0.0
  0
LINE
  5
1074B
  8
1
 10
311.16624800654739
 20
354.07567298692851
 30
0.0
 11
324.63838396154711
 21
354.07567298692851
 31
0.0
  0
LINE
  5
1074C
  8
1
 10
317.90231598404728
 20
347.33960500942868
 30
0.0
 11
317.90231598404728
 21
360.81174096442828
 31
0.0
  0
LINE
  5
1074D
  8
1
 10
313.66624800654751
 20
361.57567298692851
 30
0.0
 11
327.13838396154711
 21
361.57567298692851
 31
0.0
  0
LINE
  5
1074E
  8
1
 10
320.40231598404728
 20
354.83960500942868
 30
0.0
 11
320.40231598404728
 21
368.31174096442828
 31
0.0
  0
LINE
  5
1074F
  8
1
 10
388.66624800654751
 20
406.57567298692851
 30
0.0
 11
402.13838396154711
 21
406.57567298692851
 31
0.0
  0
LINE
  5
10750
  8
1
 10
395.40231598404722
 20
399.83960500942868
 30
0.0
 11
395.40231598404722
 21
413.31174096442828
 31
0.0
  0
LINE
  5
10751
  8
1
 10
391.16624800654751
 20
414.07567298692851
 30
0.0
 11
404.63838396154699
 21
414.07567298692851
 31
0.0
  0
LINE
  5
10752
  8
1
 10
397.90231598404722
 20
407.33960500942862
 30
0.0
 11
397.90231598404722
 21
420.81174096442822
 31
0.0
  0
LINE
  5
10753
  8
1
 10
388.66624800654751
 20
361.57567298692851
 30
0.0
 11
402.13838396154711
 21
361.57567298692851
 31
0.0
  0
LINE
  5
10754
  8
1
 10
395.40231598404722
 20
354.83960500942868
 30
0.0
 11
395.40231598404722
 21
368.31174096442828
 31
0.0
  0
LINE
  5
10755
  8
1
 10
391.16624800654751
 20
354.07567298692851
 30
0.0
 11
404.63838396154699
 21
354.07567298692851
 31
0.0
  0
LINE
  5
10756
  8
1
 10
397.90231598404739
 20
347.33960500942868
 30
0.0
 11
397.90231598404739
 21
360.81174096442828
 31
0.0
  0
TEXT
  5
13F07
  8
0
 62
     3
 10
0.0
 20
0.0
 30
0.0
 40
10.0
  1
CAG1-080SBL
  7
STANDARD1
  0
ENDSEC
  0
EOF
