  0
SECTION
  2
HEADER
  9
$ACADVER
  1
AC1009
  9
$INSBASE
 10
0.0
 20
0.0
 30
0.0
  9
$EXTMIN
 10
0.0
 20
-2.960436562073669
 30
0.0
  9
$EXTMAX
 10
753.02220987385579
 20
529.65381758627666
 30
0.0
  9
$LIMMIN
 10
0.0
 20
0.0
  9
$LIMMAX
 10
375.0
 20
270.0
  9
$ORTHOMODE
 70
     1
  9
$REGENMODE
 70
     1
  9
$FILLMODE
 70
     1
  9
$QTEXTMODE
 70
     0
  9
$MIRRTEXT
 70
     1
  9
$DRAGMODE
 70
     2
  9
$LTSCALE
 40
10.0
  9
$OSMODE
 70
  3071
  9
$ATTMODE
 70
     1
  9
$TEXTSIZE
 40
5.0
  9
$TRACEWID
 40
0.05
  9
$TEXTSTYLE
  7
STANDARD
  9
$CLAYER
  8
0
  9
$CELTYPE
  6
BYLAYER
  9
$CECOLOR
 62
   256
  9
$DIMSCALE
 40
1.0
  9
$DIMASZ
 40
3.0
  9
$DIMEXO
 40
2.0
  9
$DIMDLI
 40
0.38
  9
$DIMRND
 40
0.0
  9
$DIMDLE
 40
0.0
  9
$DIMEXE
 40
2.0
  9
$DIMTP
 40
0.0
  9
$DIMTM
 40
0.0
  9
$DIMTXT
 40
3.2000000000000002
  9
$DIMCEN
 40
0.0
  9
$DIMTSZ
 40
0.0
  9
$DIMTOL
 70
     0
  9
$DIMLIM
 70
     0
  9
$DIMTIH
 70
     0
  9
$DIMTOH
 70
     0
  9
$DIMSE1
 70
     0
  9
$DIMSE2
 70
     0
  9
$DIMTAD
 70
     1
  9
$DIMZIN
 70
     8
  9
$DIMBLK
  1

  9
$DIMASO
 70
     0
  9
$DIMSHO
 70
     0
  9
$DIMPOST
  1

  9
$DIMAPOST
  1

  9
$DIMALT
 70
     0
  9
$DIMALTD
 70
     2
  9
$DIMALTF
 40
25.399999999999999
  9
$DIMLFAC
 40
1.0
  9
$DIMTOFL
 70
     0
  9
$DIMTVP
 40
1.6000000000000001
  9
$DIMTIX
 70
     1
  9
$DIMSOXD
 70
     0
  9
$DIMSAH
 70
     0
  9
$DIMBLK1
  1

  9
$DIMBLK2
  1

  9
$DIMSTYLE
  2
STANDARD
  9
$DIMCLRD
 70
     0
  9
$DIMCLRE
 70
     0
  9
$DIMCLRT
 70
     0
  9
$DIMTFAC
 40
1.0
  9
$DIMGAP
 40
1.1999999999999991
  9
$LUNITS
 70
     2
  9
$LUPREC
 70
     4
  9
$SKETCHINC
 40
0.1
  9
$FILLETRAD
 40
0.0
  9
$AUNITS
 70
     0
  9
$AUPREC
 70
     4
  9
$MENU
  1
ACAD
  9
$ELEVATION
 40
0.0
  9
$PELEVATION
 40
0.0
  9
$THICKNESS
 40
0.0
  9
$LIMCHECK
 70
     0
  9
$BLIPMODE
 70
     0
  9
$CHAMFERA
 40
0.0
  9
$CHAMFERB
 40
0.0
  9
$SKPOLY
 70
     0
  9
$TDCREATE
 40
2448055.7149187499
  9
$TDUPDATE
 40
2456598.577873507
  9
$TDINDWG
 40
2.0681895369999999
  9
$TDUSRTIMER
 40
2.0681895369999999
  9
$USRTIMER
 70
     1
  9
$ANGBASE
 50
0.0
  9
$ANGDIR
 70
     0
  9
$PDMODE
 70
     0
  9
$PDSIZE
 40
0.0
  9
$PLINEWID
 40
0.0
  9
$COORDS
 70
     1
  9
$SPLFRAME
 70
     0
  9
$SPLINETYPE
 70
     6
  9
$SPLINESEGS
 70
     8
  9
$ATTDIA
 70
     0
  9
$ATTREQ
 70
     1
  9
$HANDLING
 70
     1
  9
$HANDSEED
  5
146D4
  9
$SURFTAB1
 70
     6
  9
$SURFTAB2
 70
     6
  9
$SURFTYPE
 70
     6
  9
$SURFU
 70
     6
  9
$SURFV
 70
     6
  9
$UCSNAME
  2

  9
$UCSORG
 10
0.0
 20
0.0
 30
0.0
  9
$UCSXDIR
 10
1.0
 20
0.0
 30
0.0
  9
$UCSYDIR
 10
0.0
 20
1.0
 30
0.0
  9
$PUCSNAME
  2

  9
$PUCSORG
 10
0.0
 20
0.0
 30
0.0
  9
$PUCSXDIR
 10
1.0
 20
0.0
 30
0.0
  9
$PUCSYDIR
 10
0.0
 20
1.0
 30
0.0
  9
$USERI1
 70
     0
  9
$USERI2
 70
     0
  9
$USERI3
 70
     0
  9
$USERI4
 70
     0
  9
$USERI5
 70
     0
  9
$USERR1
 40
0.0
  9
$USERR2
 40
0.0
  9
$USERR3
 40
0.0
  9
$USERR4
 40
0.0
  9
$USERR5
 40
0.0
  9
$WORLDVIEW
 70
     1
  9
$SHADEDGE
 70
     3
  9
$SHADEDIF
 70
    70
  9
$TILEMODE
 70
     1
  9
$MAXACTVP
 70
    16
  9
$PLIMCHECK
 70
     0
  9
$PEXTMIN
 10
1.0000000000000000E+020
 20
1.0000000000000000E+020
 30
1.0000000000000000E+020
  9
$PEXTMAX
 10
-1.0000000000000000E+020
 20
-1.0000000000000000E+020
 30
-1.0000000000000000E+020
  9
$PLIMMIN
 10
0.0
 20
0.0
  9
$PLIMMAX
 10
12.0
 20
9.0
  9
$UNITMODE
 70
     0
  9
$VISRETAIN
 70
     0
  9
$PLINEGEN
 70
     1
  9
$PSLTSCALE
 70
     0
  0
ENDSEC
  0
SECTION
  2
TABLES
  0
TABLE
  2
VPORT
 70
     1
  0
VPORT
  2
*ACTIVE
 70
     0
 10
0.0
 20
0.0
 11
1.0
 21
1.0
 12
391.26987590048799
 22
263.35196767675581
 13
0.0
 23
0.0
 14
5.0
 24
5.0
 15
10.0
 25
10.0
 16
0.0
 26
0.0
 36
1.0
 17
0.0
 27
0.0
 37
0.0
 40
537.41303454045851
 41
1.831871345029239
 42
50.0
 43
0.0
 44
0.0
 50
0.0
 51
0.0
 71
     0
 72
   500
 73
     1
 74
     1
 75
     0
 76
     0
 77
     0
 78
     2
  0
ENDTAB
  0
TABLE
  2
LTYPE
 70
     4
  0
LTYPE
  2
CONTINUOUS
 70
     0
  3
実線
 72
    65
 73
     0
 40
0.0
  0
LTYPE
  2
CENTER
 70
     0
  3
____ _ ____ _ ____ _ ____ _ ____ _ ____ _ ____
 72
    65
 73
     4
 40
2.0
 49
1.25
 49
-0.25
 49
0.25
 49
-0.25
  0
LTYPE
  2
HIDDEN
 70
     0
  3
_ _ _ _ _ _ _ _ _ _ _ _ _ _ _ _ _ _ _ _ _ _ _
 72
    65
 73
     2
 40
0.375
 49
0.25
 49
-0.125
  0
LTYPE
  2
PHANTOM2
 70
     0
  3
___ _ _ ___ _ _ ___ _ _ ___ _ _
 72
    65
 73
     6
 40
1.25
 49
0.625
 49
-0.125
 49
0.125
 49
-0.125
 49
0.125
 49
-0.125
  0
ENDTAB
  0
TABLE
  2
LAYER
 70
     5
  0
LAYER
  2
0
 70
     0
 62
     7
  6
CONTINUOUS
  0
LAYER
  2
1
 70
     0
 62
     1
  6
CENTER
  0
LAYER
  2
2
 70
     0
 62
     2
  6
HIDDEN
  0
LAYER
  2
DEFPOINTS
 70
     0
 62
     7
  6
CONTINUOUS
  0
LAYER
  2
3
 70
     0
 62
     3
  6
CONTINUOUS
  0
ENDTAB
  0
TABLE
  2
STYLE
 70
     3
  0
STYLE
  2
STANDARD
 70
     0
 40
0.0
 41
1.0
 50
0.0
 71
     0
 42
5.0
  3
simplex.shx
  4
bigfont.shx
  0
STYLE
  2
07500
 70
     0
 40
0.0
 41
0.75
 50
0.0
 71
     0
 42
0.2
  3
simplex.shx
  4
bigfont.shx
  0
STYLE
  2
STANDARD1
 70
     0
 40
0.0
 41
1.0
 50
0.0
 71
     0
 42
3.0
  3
txt
  4

  0
ENDTAB
  0
TABLE
  2
VIEW
 70
     2
  0
VIEW
  2
ALL
 70
     0
 40
270.0
 10
220.99159663865549
 20
135.0
 41
0.0
 11
0.0
 21
0.0
 31
1.0
 12
0.0
 22
0.0
 32
0.0
 42
0.0
 43
0.0
 44
0.0
 50
0.0
 71
     0
  0
VIEW
  2
OLE1
 70
     0
 40
168.2487151179721
 10
2892.3009567448912
 20
702.51600084347126
 41
162.5749581879237
 11
0.0
 21
0.0
 31
1.0
 12
0.0
 22
0.0
 32
0.0
 42
50.0
 43
0.0
 44
0.0
 50
0.0
 71
     0
  0
ENDTAB
  0
TABLE
  2
UCS
 70
     0
  0
ENDTAB
  0
TABLE
  2
APPID
 70
    48
  0
APPID
  2
ACAD
 70
     0
  0
APPID
  2
DCO15
 70
     0
  0
APPID
  2
GENIUS_GENOREF_13
 70
     0
  0
APPID
  2
GENIUS_GENOENT_13
 70
     0
  0
APPID
  2
GENIUS_GENBH_13
 70
     0
  0
APPID
  2
GENIUS_GENOBJ_13
 70
     0
  0
APPID
  2
GENIUS_GENODEF_13
 70
     0
  0
APPID
  2
GENIUS_GENOLIS_13
 70
     0
  0
APPID
  2
GENIUS_GENOBJ-NBEHI-BHF_13
 70
     0
  0
APPID
  2
GENIUS_GENOBJ-NBEHI-BHB_13
 70
     0
  0
APPID
  2
GENIUS_GENOBJ-F-PART_13
 70
     0
  0
APPID
  2
GENIUS_GEFSTDP_13
 70
     0
  0
APPID
  2
GENIUS_GENOBJ-N-RSSYM_13
 70
     0
  0
APPID
  2
GENIUS_GENSYMENT_13
 70
     0
  0
APPID
  2
GENIUS_GENOBJ-N-TIT_13
 70
     0
  0
APPID
  2
GENIUS_GENTITLE_13
 70
     0
  0
APPID
  2
GENIUS_GENZVEED_13
 70
     0
  0
APPID
  2
GENIUS_GENOBJ-N-LEADER_13
 70
     0
  0
APPID
  2
GENIUS_GENOBJ-N-FIL_13
 70
     0
  0
APPID
  2
GENIUS_GENOBJ-N-SEC_13
 70
     0
  0
APPID
  2
GENIUS_GENOBJ-N-CRS_13
 70
     0
  0
APPID
  2
GENIUS_GENOBJ-N-ZOO_13
 70
     0
  0
APPID
  2
GENIUS_GENZOO_13
 70
     0
  0
APPID
  2
GENIUS_GENOBJ-F-TOL_13
 70
     0
  0
APPID
  2
GENIUS_GENFIL_13
 70
     0
  0
APPID
  2
GENIUS_GENOBJ-N-CHA_13
 70
     0
  0
APPID
  2
_CALL_MAC$
 70
     0
  0
APPID
  2
ASM_BASE
 70
     0
  0
APPID
  2
ASM_EXPLO_VER_2_00
 70
     0
  0
APPID
  2
ASM_CADM_VER_12_00
 70
     0
  0
APPID
  2
ASM_BASEFORO
 70
     0
  0
APPID
  2
ASM_BASETRAVI
 70
     0
  0
APPID
  2
ASM_BASETRAVI1
 70
     0
  0
APPID
  2
ASM_GRUPPI
 70
     0
  0
APPID
  2
ASM_CADM_ALBERO
 70
     0
  0
APPID
  2
ASM_GOLE
 70
     0
  0
APPID
  2
ACAD_MLEADERVER
 70
     0
  0
APPID
  2
ACAD_DSTYLE_DIMJAG
 70
     0
  0
APPID
  2
ACAD_DSTYLE_DIMTALN
 70
     0
  0
APPID
  2
ACAD_EXEMPT_FROM_CAD_STANDARDS
 70
     0
  0
APPID
  2
ACAD_DSTYLE_DIMRADIAL_EXTENSION
 70
     0
  0
APPID
  2
ACAD_PSEXT
 70
     0
  0
APPID
  2
ACAD_DSTYLE_DIMBREAK
 70
     0
  0
APPID
  2
ACAECLAYERSTANDARD
 70
     0
  0
APPID
  2
ACCMTRANSPARENCY
 70
     0
  0
APPID
  2
GRADIENTCOLOR1ACI
 70
     0
  0
APPID
  2
GRADIENTCOLOR2ACI
 70
     0
  0
APPID
  2
ACAD_NAV_VCDISPLAY
 70
     0
  0
ENDTAB
  0
TABLE
  2
DIMSTYLE
 70
     1
  0
DIMSTYLE
  2
STANDARD
 70
     0
  3

  4

  5

  6

  7

 40
1.0
 41
0.18
 42
0.0625
 43
0.38
 44
0.18
 45
0.0
 46
0.0
 47
0.0
 48
0.0
140
0.18
141
0.09
142
0.0
143
25.399999999999999
144
1.0
145
0.0
146
1.0
147
0.09
 71
     0
 72
     0
 73
     1
 74
     1
 75
     0
 76
     0
 77
     0
 78
     0
170
     0
171
     2
172
     0
173
     0
174
     0
175
     0
176
     0
177
     0
178
     0
  0
ENDTAB
  0
ENDSEC
  0
SECTION
  2
BLOCKS
  0
BLOCK
  8
0
  2
$MODEL_SPACE
 70
     0
 10
0.0
 20
0.0
 30
0.0
  3
$MODEL_SPACE
  1

  0
ENDBLK
  5
36
  8
0
  0
BLOCK
 67
     1
  8
0
  2
$PAPER_SPACE
 70
     0
 10
0.0
 20
0.0
 30
0.0
  3
$PAPER_SPACE
  1

  0
ENDBLK
  5
34
 67
     1
  8
0
  0
ENDSEC
  0
SECTION
  2
ENTITIES
  0
LINE
  5
DACB
  8
0
 10
475.98428809197088
 20
264.22272068512922
 30
0.0
 11
475.98428809197088
 21
267.52272068512889
 31
0.0
  0
LINE
  5
DACC
  8
0
 10
450.48428809197088
 20
267.52272068512889
 30
0.0
 11
450.48428809197088
 21
264.22272068512922
 31
0.0
  0
ARC
  5
DACD
  8
0
 10
422.88428809197097
 20
261.2227206851291
 30
0.0
 40
2.9999999999999849
 50
90.0
 51
180.0
  0
ARC
  5
DACE
  8
0
 10
503.58428809197079
 20
261.2227206851291
 30
0.0
 40
3.0
 50
0.0
 51
90.0
  0
LINE
  5
DACF
  8
0
 10
506.58428809197079
 20
260.72272068512922
 30
0.0
 11
506.58428809197079
 21
261.2227206851291
 31
0.0
  0
LINE
  5
DAD0
  8
0
 10
419.88428809197097
 20
261.2227206851291
 30
0.0
 11
419.88428809197097
 21
260.72272068512922
 31
0.0
  0
ARC
  5
DAD1
  8
0
 10
416.23428809197088
 20
256.72272068512922
 30
0.0
 40
4.0000000000000142
 50
90.0
 51
180.0
  0
ARC
  5
DAD2
  8
0
 10
510.23428809197088
 20
256.72272068512922
 30
0.0
 40
4.0000000000000284
 50
0.0
 51
90.0
  0
LINE
  5
DAD3
  8
0
 10
514.23428809197094
 20
255.72272068512919
 30
0.0
 11
514.23428809197094
 21
256.72272068512922
 31
0.0
  0
LINE
  5
DAD4
  8
0
 10
412.23428809197088
 20
256.72272068512922
 30
0.0
 11
412.23428809197088
 21
255.72272068512919
 31
0.0
  0
LINE
  5
DAD5
  8
0
 10
415.73428809197088
 20
255.72272068512919
 30
0.0
 11
415.73428809197088
 21
253.72272068512919
 31
0.0
  0
LINE
  5
DAD6
  8
2
 10
508.23428809197088
 20
252.743007995017
 30
0.0
 11
508.23428809197088
 21
253.52272068512889
 31
0.0
  0
LINE
  5
DAD8
  8
2
 10
473.23428809197088
 20
253.52272068512889
 30
0.0
 11
473.23428809197088
 21
267.52272068512889
 31
0.0
  0
LINE
  5
DAD9
  8
2
 10
453.23428809197088
 20
267.52272068512889
 30
0.0
 11
453.23428809197088
 21
253.52272068512889
 31
0.0
  0
LINE
  5
DADA
  8
0
 10
450.48428809197088
 20
267.52272068512889
 30
0.0
 11
475.98428809197088
 21
267.52272068512889
 31
0.0
  0
LINE
  5
DADB
  8
0
 10
422.88428809197097
 20
264.22272068512922
 30
0.0
 11
503.58428809197079
 21
264.22272068512922
 31
0.0
  0
LINE
  5
DADD
  8
0
 10
416.23428809197088
 20
260.72272068512922
 30
0.0
 11
510.23428809197088
 21
260.72272068512922
 31
0.0
  0
LINE
  5
DADF
  8
0
 10
412.23428809197088
 20
255.72272068512919
 30
0.0
 11
514.23428809197094
 21
255.72272068512919
 31
0.0
  0
LINE
  5
DAE0
  8
0
 10
427.24470626611492
 20
253.72272068512919
 30
0.0
 11
409.23428809197088
 21
253.72272068512919
 31
0.0
  0
LINE
  5
DAE1
  8
0
 10
427.24470626611492
 20
253.72272068512919
 30
0.0
 11
427.24470626611492
 21
156.21273410166961
 31
0.0
  0
LINE
  5
DAE2
  8
0
 10
409.23428809197088
 20
253.72272068512919
 30
0.0
 11
409.23428809197088
 21
250.02272068512889
 31
0.0
  0
LINE
  5
DAE3
  8
2
 10
418.23428809197088
 20
253.52272068512889
 30
0.0
 11
508.23428809197088
 21
253.52272068512889
 31
0.0
  0
LINE
  5
DAE4
  8
0
 10
409.23428809197088
 20
250.02272068512889
 30
0.0
 11
392.68335702626018
 21
155.24294076948399
 31
0.0
  0
ARC
  5
DAE5
  8
0
 10
402.53428809197112
 20
153.52272068512909
 30
0.0
 40
10.000000000000011
 50
170.09459624540651
 51
270.0
  0
ARC
  5
DAE7
  8
0
 10
411.9342880919707
 20
153.52272068512889
 30
0.0
 40
9.9999999999998934
 50
270.0
 51
320.00311243723382
  0
LINE
  5
DAE8
  8
0
 10
419.59508168872662
 20
147.0952607305353
 30
0.0
 11
427.24470626611492
 21
156.21273410166961
 31
0.0
  0
POLYLINE
  5
DAE9
  8
0
 66
     1
 10
0.0
 20
0.0
 30
0.0
  0
VERTEX
  5
142FE
  8
0
 10
427.24470626611492
 20
156.21273410166961
 30
0.0
  0
VERTEX
  5
142FF
  8
0
 10
427.59580488244131
 20
156.63120330268899
 30
0.0
  0
VERTEX
  5
14300
  8
0
 10
428.311494448757
 20
157.48422301586169
 30
0.0
  0
VERTEX
  5
14301
  8
0
 10
429.04487079370978
 20
158.35832333653551
 30
0.0
  0
VERTEX
  5
14302
  8
0
 10
429.41807578384851
 20
158.80314079458731
 30
0.0
  0
VERTEX
  5
14303
  8
0
 10
429.79556249612409
 20
159.25306157335399
 30
0.0
  0
VERTEX
  5
14304
  8
0
 10
430.56318936539759
 20
160.16798458281181
 30
0.0
  0
VERTEX
  5
14305
  8
0
 10
431.34736263404881
 20
161.1026289987505
 30
0.0
  0
VERTEX
  5
14306
  8
0
 10
432.14768515461168
 20
162.05652146703181
 30
0.0
  0
VERTEX
  5
14307
  8
0
 10
432.96375160077048
 20
163.0291788852698
 30
0.0
  0
VERTEX
  5
14308
  8
0
 10
433.79514867264152
 20
164.02010864749991
 30
0.0
  0
VERTEX
  5
14309
  8
0
 10
434.21646490816232
 20
164.52226918091259
 30
0.0
  0
VERTEX
  5
1430A
  8
0
 10
434.6414553060867
 20
165.02880889366111
 30
0.0
  0
VERTEX
  5
1430B
  8
0
 10
435.5022428859665
 20
166.05476876376471
 30
0.0
  0
VERTEX
  5
1430C
  8
0
 10
436.37707546321229
 20
167.0974686566214
 30
0.0
  0
VERTEX
  5
1430D
  8
0
 10
437.26550997561287
 20
168.15638049299511
 30
0.0
  0
VERTEX
  5
1430E
  8
0
 10
438.16709647220841
 20
169.2309679830507
 30
0.0
  0
VERTEX
  5
1430F
  8
0
 10
439.08137834116633
 20
170.3206868979598
 30
0.0
  0
VERTEX
  5
14310
  8
0
 10
439.54313558459393
 20
170.87104846515689
 30
0.0
  0
VERTEX
  5
14311
  8
0
 10
440.00789254103569
 20
171.4249853455278
 30
0.0
  0
VERTEX
  5
14312
  8
0
 10
440.94616983525702
 20
172.5433040497019
 30
0.0
  0
VERTEX
  5
14313
  8
0
 10
441.89573502980687
 20
173.6750766338175
 30
0.0
  0
VERTEX
  5
14314
  8
0
 10
442.37460052174532
 20
174.24582926709169
 30
0.0
  0
VERTEX
  5
14315
  8
0
 10
442.8561072138636
 20
174.81972990744339
 30
0.0
  0
VERTEX
  5
14316
  8
0
 10
443.82680000336529
 20
175.97668415667451
 30
0.0
  0
VERTEX
  5
14317
  8
0
 10
444.8073217873407
 20
177.1453534377315
 30
0.0
  0
VERTEX
  5
14318
  8
0
 10
445.30111355581403
 20
177.73389647724909
 30
0.0
  0
VERTEX
  5
14319
  8
0
 10
445.7971759768879
 20
178.3251458737133
 30
0.0
  0
VERTEX
  5
1431A
  8
0
 10
446.7958612566739
 20
179.51546395435591
 30
0.0
  0
VERTEX
  5
1431B
  8
0
 10
447.80287183882677
 20
180.7157048386434
 30
0.0
  0
VERTEX
  5
1431C
  8
0
 10
448.81769771909461
 20
181.92526066011871
 30
0.0
  0
VERTEX
  5
1431D
  8
0
 10
449.83982493513889
 20
183.14351883474089
 30
0.0
  0
VERTEX
  5
1431E
  8
0
 10
450.8687358268316
 20
184.3698623711295
 30
0.0
  0
VERTEX
  5
1431F
  8
0
 10
451.38557243562491
 20
184.9858722119036
 30
0.0
  0
VERTEX
  5
14320
  8
0
 10
451.90390929842761
 20
185.6036701830424
 30
0.0
  0
VERTEX
  5
14321
  8
0
 10
452.94482108247519
 20
186.84431740392779
 30
0.0
  0
VERTEX
  5
14322
  8
0
 10
453.99094400533198
 20
188.0911757033893
 30
0.0
  0
VERTEX
  5
14323
  8
0
 10
455.041748254156
 20
189.3436136054072
 30
0.0
  0
VERTEX
  5
14324
  8
0
 10
456.0967016452305
 20
190.60099680815119
 30
0.0
  0
VERTEX
  5
14325
  8
0
 10
457.15526989348831
 20
191.8626885052249
 30
0.0
  0
VERTEX
  5
14326
  8
0
 10
457.68574211696199
 20
192.4949504316391
 30
0.0
  0
VERTEX
  5
14327
  8
0
 10
458.21691688310688
 20
193.12804970817879
 30
0.0
  0
VERTEX
  5
14328
  8
0
 10
459.28110493902147
 20
194.3964395701291
 30
0.0
  0
VERTEX
  5
14329
  8
0
 10
460.34729509923721
 20
195.6672157103157
 30
0.0
  0
VERTEX
  5
1432A
  8
0
 10
461.4149473877842
 20
196.9397345394398
 30
0.0
  0
VERTEX
  5
1432B
  8
0
 10
462.48352108819239
 20
198.2133515856103
 30
0.0
  0
VERTEX
  5
1432C
  8
0
 10
463.55247501733987
 20
199.48742182074079
 30
0.0
  0
VERTEX
  5
1432D
  8
0
 10
464.08692538781258
 20
200.1244252411943
 30
0.0
  0
VERTEX
  5
1432E
  8
0
 10
464.62126779953672
 20
200.76129998722561
 30
0.0
  0
VERTEX
  5
1432F
  8
0
 10
465.68935814070568
 20
202.03434092473231
 30
0.0
  0
VERTEX
  5
14330
  8
0
 10
466.75620510252338
 20
203.30589989694701
 30
0.0
  0
VERTEX
  5
14331
  8
0
 10
467.82126837638179
 20
204.57533291810179
 30
0.0
  0
VERTEX
  5
14332
  8
0
 10
468.88400855702628
 20
205.84199707912529
 30
0.0
  0
VERTEX
  5
14333
  8
0
 10
469.94388741574352
 20
207.10525087324569
 30
0.0
  0
VERTEX
  5
14334
  8
0
 10
470.47258604171287
 20
207.7353988752636
 30
0.0
  0
VERTEX
  5
14335
  8
0
 10
471.00036817294591
 20
208.36445452088381
 30
0.0
  0
VERTEX
  5
14336
  8
0
 10
472.05291577002703
 20
209.61897029367151
 30
0.0
  0
VERTEX
  5
14337
  8
0
 10
473.10099714034499
 20
210.86816283743411
 30
0.0
  0
VERTEX
  5
14338
  8
0
 10
474.14408147919357
 20
212.111399493964
 30
0.0
  0
VERTEX
  5
14339
  8
0
 10
475.18164051263329
 20
213.34805062143619
 30
0.0
  0
VERTEX
  5
1433A
  8
0
 10
476.21314876503533
 20
214.57748991329089
 30
0.0
  0
VERTEX
  5
1433B
  8
0
 10
476.72647046790053
 20
215.18931039014589
 30
0.0
  0
VERTEX
  5
1433C
  8
0
 10
477.23808382521111
 20
215.7990947154297
 30
0.0
  0
VERTEX
  5
1433D
  8
0
 10
478.25592661099017
 20
217.0122463415598
 30
0.0
  0
VERTEX
  5
1433E
  8
0
 10
479.26616163211111
 20
218.21633038653161
 30
0.0
  0
VERTEX
  5
1433F
  8
0
 10
479.76826618666792
 20
218.81478131172179
 30
0.0
  0
VERTEX
  5
14340
  8
0
 10
480.26827725129209
 20
219.41073703750479
 30
0.0
  0
VERTEX
  5
14341
  8
0
 10
481.26176594335351
 20
220.594861382792
 30
0.0
  0
VERTEX
  5
14342
  8
0
 10
482.24612455225491
 20
221.7681037182181
 30
0.0
  0
VERTEX
  5
14343
  8
0
 10
482.73472409670279
 20
222.35045822340791
 30
0.0
  0
VERTEX
  5
14344
  8
0
 10
483.22085454592019
 20
222.92986985084079
 30
0.0
  0
VERTEX
  5
14345
  8
0
 10
484.18546226872149
 20
224.07957139988531
 30
0.0
  0
VERTEX
  5
14346
  8
0
 10
485.13945919149228
 20
225.2166260947285
 30
0.0
  0
VERTEX
  5
14347
  8
0
 10
486.08236215894522
 20
226.3404580697941
 30
0.0
  0
VERTEX
  5
14348
  8
0
 10
487.01369363436828
 20
227.45049815620149
 30
0.0
  0
VERTEX
  5
14349
  8
0
 10
487.93298194147383
 20
228.5461841700232
 30
0.0
  0
VERTEX
  5
1434A
  8
0
 10
488.38796416937828
 20
229.08847069732809
 30
0.0
  0
VERTEX
  5
1434B
  8
0
 10
488.83976150328272
 20
229.6269611970053
 30
0.0
  0
VERTEX
  5
1434C
  8
0
 10
489.73357307791503
 20
230.69228187360551
 30
0.0
  0
VERTEX
  5
1434D
  8
0
 10
490.61396399117712
 20
231.74160666420789
 30
0.0
  0
VERTEX
  5
1434E
  8
0
 10
491.48048836581847
 20
232.77440413437239
 30
0.0
  0
VERTEX
  5
1434F
  8
0
 10
492.33270734734919
 20
233.7901512199812
 30
0.0
  0
VERTEX
  5
14350
  8
0
 10
493.1701893262989
 20
234.78833349214781
 30
0.0
  0
VERTEX
  5
14351
  8
0
 10
493.58327109677703
 20
235.28067948956661
 30
0.0
  0
VERTEX
  5
14352
  8
0
 10
493.99251015680642
 20
235.7684454177504
 30
0.0
  0
VERTEX
  5
14353
  8
0
 10
494.79925337143129
 20
236.7299906154619
 30
0.0
  0
VERTEX
  5
14354
  8
0
 10
495.5900103920734
 20
237.6724821071432
 30
0.0
  0
VERTEX
  5
14355
  8
0
 10
496.36438073690078
 20
238.59544256447469
 30
0.0
  0
VERTEX
  5
14356
  8
0
 10
497.12197222317491
 20
239.49840455070279
 30
0.0
  0
VERTEX
  5
14357
  8
0
 10
497.86240116587072
 20
240.3809107573741
 30
0.0
  0
VERTEX
  5
14358
  8
0
 10
498.22606215331189
 20
240.8143528610446
 30
0.0
  0
VERTEX
  5
14359
  8
0
 10
498.5852925719991
 20
241.24251423593961
 30
0.0
  0
VERTEX
  5
1435A
  8
0
 10
499.29028033052089
 20
242.08277862411541
 30
0.0
  0
VERTEX
  5
1435B
  8
0
 10
499.97700739776468
 20
242.90127836687981
 30
0.0
  0
VERTEX
  5
1435C
  8
0
 10
500.64512597825518
 20
243.69759893199469
 30
0.0
  0
VERTEX
  5
1435D
  8
0
 10
501.29429770085471
 20
244.47133701995131
 30
0.0
  0
VERTEX
  5
1435E
  8
0
 10
501.92419379013108
 20
245.2221007682185
 30
0.0
  0
VERTEX
  5
1435F
  8
0
 10
502.23181339485473
 20
245.58874798418739
 30
0.0
  0
VERTEX
  5
14360
  8
0
 10
502.53449523286872
 20
245.94950994970651
 30
0.0
  0
VERTEX
  5
14361
  8
0
 10
503.12489293963381
 20
246.65319616533071
 30
0.0
  0
VERTEX
  5
14362
  8
0
 10
503.6950879013134
 20
247.33280303059269
 30
0.0
  0
VERTEX
  5
14363
  8
0
 10
504.24479134055031
 20
247.98798635606931
 30
0.0
  0
VERTEX
  5
14364
  8
0
 10
504.77372485799373
 20
248.6184143217304
 30
0.0
  0
VERTEX
  5
14365
  8
0
 10
505.28162057329928
 20
249.22376764498969
 30
0.0
  0
VERTEX
  5
14366
  8
0
 10
505.52759845232953
 20
249.51694500804319
 30
0.0
  0
VERTEX
  5
14367
  8
0
 10
505.76822126079281
 20
249.80373974240661
 30
0.0
  0
VERTEX
  5
14368
  8
0
 10
506.23328047974837
 20
250.3580368849569
 30
0.0
  0
VERTEX
  5
14369
  8
0
 10
506.67656269919593
 20
250.8863783467925
 30
0.0
  0
VERTEX
  5
1436A
  8
0
 10
506.88996684328271
 20
251.1407315612953
 30
0.0
  0
VERTEX
  5
1436B
  8
0
 10
507.09784341720791
 20
251.38849654741651
 30
0.0
  0
VERTEX
  5
1436C
  8
0
 10
507.49690927459909
 20
251.86413718720021
 30
0.0
  0
VERTEX
  5
1436D
  8
0
 10
507.87355816298259
 20
252.31305937617319
 30
0.0
  0
VERTEX
  5
1436E
  8
0
 10
508.05341618662351
 20
252.52742947035739
 30
0.0
  0
VERTEX
  5
1436F
  8
0
 10
508.2275993271287
 20
252.7350357560247
 30
0.0
  0
VERTEX
  5
14370
  8
0
 10
508.55885346157493
 20
253.12985261524889
 30
0.0
  0
VERTEX
  5
14371
  8
0
 10
508.86715280143238
 20
253.49730999737969
 30
0.0
  0
VERTEX
  5
14372
  8
0
 10
509.15234120735568
 20
253.8372218022607
 30
0.0
  0
VERTEX
  5
14373
  8
0
 10
509.41427424461608
 20
254.14941588029461
 30
0.0
  0
VERTEX
  5
14374
  8
0
 10
509.65281925625362
 20
254.43373411963029
 30
0.0
  0
VERTEX
  5
14375
  8
0
 10
509.7632830343041
 20
254.5653942481315
 30
0.0
  0
VERTEX
  5
14376
  8
0
 10
509.86785543026048
 20
254.69003252623881
 30
0.0
  0
VERTEX
  5
14377
  8
0
 10
510.05927386076741
 20
254.91818129683969
 30
0.0
  0
VERTEX
  5
14378
  8
0
 10
510.22697760319852
 20
255.11806488464009
 30
0.0
  0
VERTEX
  5
14379
  8
0
 10
510.37088172336951
 20
255.28958205785349
 30
0.0
  0
VERTEX
  5
1437A
  8
0
 10
510.4909133405053
 20
255.43264595097091
 30
0.0
  0
VERTEX
  5
1437B
  8
0
 10
510.5870116641463
 20
255.54718410875131
 30
0.0
  0
VERTEX
  5
1437C
  8
0
 10
510.6260701575365
 20
255.59373734411631
 30
0.0
  0
VERTEX
  5
1437D
  8
0
 10
510.65912802493949
 20
255.63313852291941
 30
0.0
  0
VERTEX
  5
1437E
  8
0
 10
510.70722589928562
 20
255.6904656615427
 30
0.0
  0
VERTEX
  5
1437F
  8
0
 10
510.73128092783821
 20
255.71913649107799
 30
0.0
  0
VERTEX
  5
14380
  8
0
 10
510.73428809197088
 20
255.72272068512919
 30
0.0
  0
SEQEND
  5
14381
  8
0
  0
ARC
  5
DB17
  8
0
 10
407.23428809197088
 20
154.52272068512909
 30
0.0
 40
75.000000000000171
 50
91.209207720592985
 51
39.055526809030461
  0
ARC
  5
DB19
  8
0
 10
407.23428809197088
 20
154.52272068512909
 30
0.0
 40
61.832662348034837
 50
93.616865245776495
 51
36.68527653573144
  0
ARC
  5
DB21
  8
0
 10
407.23428809197088
 20
154.52272068512909
 30
0.0
 40
24.358818170688291
 50
116.5031674006987
 51
14.21923140350259
  0
ARC
  5
DB29
  8
0
 10
407.23428809197088
 20
154.52272068512909
 30
0.0
 40
70.062472123098814
 50
92.003572768020916
 51
38.27343041832394
  0
LINE
  5
DB32
  8
0
 10
687.79384161631015
 20
264.22272068512922
 30
0.0
 11
687.79384161631015
 21
267.52272068512929
 31
0.0
  0
LINE
  5
DB33
  8
0
 10
713.29384161631015
 20
267.52272068512929
 30
0.0
 11
713.29384161631015
 21
264.22272068512922
 31
0.0
  0
ARC
  5
DB35
  8
0
 10
740.89384161631006
 20
261.2227206851291
 30
0.0
 40
2.9999999999999849
 50
0.0
 51
90.0
  0
ARC
  5
DB36
  8
0
 10
660.19384161631024
 20
261.2227206851291
 30
0.0
 40
2.9999999999999849
 50
90.0
 51
180.0
  0
LINE
  5
DB37
  8
0
 10
657.19384161631024
 20
260.72272068512922
 30
0.0
 11
657.19384161631024
 21
261.2227206851291
 31
0.0
  0
LINE
  5
DB38
  8
0
 10
743.89384161631006
 20
261.2227206851291
 30
0.0
 11
743.89384161631006
 21
260.72272068512922
 31
0.0
  0
ARC
  5
DB39
  8
0
 10
747.54384161631015
 20
256.72272068512922
 30
0.0
 40
4.0000000000000142
 50
0.0
 51
90.0
  0
ARC
  5
DB3A
  8
0
 10
653.54384161631015
 20
256.72272068512922
 30
0.0
 40
4.0000000000000142
 50
90.0
 51
180.0
  0
LINE
  5
DB3B
  8
0
 10
649.54384161631015
 20
255.72272068512919
 30
0.0
 11
649.54384161631015
 21
256.72272068512922
 31
0.0
  0
LINE
  5
DB3C
  8
0
 10
751.54384161631015
 20
256.72272068512922
 30
0.0
 11
751.54384161631015
 21
255.72272068512919
 31
0.0
  0
LINE
  5
DB3D
  8
0
 10
653.04384161631015
 20
199.10817957300131
 30
0.0
 11
653.04384161631015
 21
255.72272068512919
 31
0.0
  0
LINE
  5
DB3E
  8
0
 10
748.04384161631015
 20
255.72272068512919
 30
0.0
 11
748.04384161631015
 21
199.10817957300131
 31
0.0
  0
LINE
  5
DB47
  8
0
 10
713.29384161631015
 20
267.52272068512929
 30
0.0
 11
687.79384161631015
 21
267.52272068512929
 31
0.0
  0
LINE
  5
DB48
  8
0
 10
740.89384161631006
 20
264.22272068512922
 30
0.0
 11
660.19384161631024
 21
264.22272068512922
 31
0.0
  0
LINE
  5
DB4A
  8
0
 10
747.54384161631015
 20
260.72272068512922
 30
0.0
 11
653.54384161631015
 21
260.72272068512922
 31
0.0
  0
LINE
  5
DB4C
  8
0
 10
751.54384161631015
 20
255.72272068512919
 30
0.0
 11
649.54384161631015
 21
255.72272068512919
 31
0.0
  0
LINE
  5
DB55
  8
0
 10
669.54384161631015
 20
156.21273410166981
 30
0.0
 11
669.54384161631015
 21
143.52272068512929
 31
0.0
  0
LINE
  5
DB56
  8
0
 10
672.54384161631015
 20
143.52272068512929
 30
0.0
 11
669.54384161631015
 21
143.52272068512929
 31
0.0
  0
LINE
  5
DB57
  8
0
 10
731.54384161631015
 20
143.52272068512929
 30
0.0
 11
728.54384161631015
 21
143.52272068512929
 31
0.0
  0
LINE
  5
DB58
  8
0
 10
731.54384161631015
 20
143.52272068512929
 30
0.0
 11
731.54384161631015
 21
156.21273410166981
 31
0.0
  0
POLYLINE
  5
DB59
  8
0
 66
     1
 10
0.0
 20
0.0
 30
0.0
  0
VERTEX
  5
14382
  8
0
 10
728.54384161631015
 20
157.1206548446678
 30
0.0
  0
VERTEX
  5
14383
  8
0
 10
729.41494643697069
 20
157.9672605600399
 30
0.0
  0
VERTEX
  5
14384
  8
0
 10
731.10258734985507
 20
159.7369290480101
 30
0.0
  0
VERTEX
  5
14385
  8
0
 10
732.71397993548806
 20
161.60483429021471
 30
0.0
  0
VERTEX
  5
14386
  8
0
 10
733.48981894346605
 20
162.57417849133179
 30
0.0
  0
VERTEX
  5
14387
  8
0
 10
734.24510354491122
 20
163.56631560288679
 30
0.0
  0
VERTEX
  5
14388
  8
0
 10
735.69213781144254
 20
165.61647881692869
 30
0.0
  0
VERTEX
  5
14389
  8
0
 10
737.05147218302398
 20
167.75020848954611
 30
0.0
  0
VERTEX
  5
1438A
  8
0
 10
738.31971493105175
 20
169.96218066799059
 30
0.0
  0
VERTEX
  5
1438B
  8
0
 10
739.49370161321065
 20
172.2468761735629
 30
0.0
  0
VERTEX
  5
1438C
  8
0
 10
740.57050296919988
 20
174.5985943727319
 30
0.0
  0
VERTEX
  5
1438D
  8
0
 10
741.07160987462885
 20
175.7977594095718
 30
0.0
  0
VERTEX
  5
1438E
  8
0
 10
741.54743222964453
 20
177.0114674010112
 30
0.0
  0
VERTEX
  5
1438F
  8
0
 10
742.42205181995905
 20
179.4794748040965
 30
0.0
  0
VERTEX
  5
14390
  8
0
 10
743.1921794424369
 20
181.99645855973881
 30
0.0
  0
VERTEX
  5
14391
  8
0
 10
743.8558935213855
 20
184.55613844286739
 30
0.0
  0
VERTEX
  5
14392
  8
0
 10
744.41153799772701
 20
187.15212769562621
 30
0.0
  0
VERTEX
  5
14393
  8
0
 10
744.8577264610949
 20
189.77794896322391
 30
0.0
  0
VERTEX
  5
14394
  8
0
 10
745.03941603199473
 20
191.1000016299715
 30
0.0
  0
VERTEX
  5
14395
  8
0
 10
745.19334560912137
 20
192.4270504558371
 30
0.0
  0
VERTEX
  5
14396
  8
0
 10
745.41755802528269
 20
195.09282229623821
 30
0.0
  0
VERTEX
  5
14397
  8
0
 10
745.52980426836928
 20
197.76861301235951
 30
0.0
  0
VERTEX
  5
14398
  8
0
 10
745.54384161631015
 20
199.10817957300131
 30
0.0
  0
SEQEND
  5
14399
  8
0
  0
POLYLINE
  5
DB5A
  8
0
 66
     1
 10
0.0
 20
0.0
 30
0.0
  0
VERTEX
  5
1439A
  8
0
 10
745.54384161631015
 20
199.10817957300131
 30
0.0
  0
VERTEX
  5
1439B
  8
0
 10
745.53908205303014
 20
199.88823902813121
 30
0.0
  0
VERTEX
  5
1439C
  8
0
 10
745.50101158749385
 20
201.44769793021419
 30
0.0
  0
VERTEX
  5
1439D
  8
0
 10
745.42490286783595
 20
203.00517736620009
 30
0.0
  0
VERTEX
  5
1439E
  8
0
 10
745.37260303043865
 20
203.782762881265
 30
0.0
  0
VERTEX
  5
1439F
  8
0
 10
745.31082028963147
 20
204.55935955299381
 30
0.0
  0
VERTEX
  5
143A0
  8
0
 10
745.15886037813152
 20
206.1089294973028
 30
0.0
  0
VERTEX
  5
143A1
  8
0
 10
744.96915170659213
 20
207.6525761082514
 30
0.0
  0
VERTEX
  5
143A2
  8
0
 10
744.74185478748848
 20
209.1889933066966
 30
0.0
  0
VERTEX
  5
143A3
  8
0
 10
744.47716193670703
 20
210.71688113029879
 30
0.0
  0
VERTEX
  5
143A4
  8
0
 10
744.17529711082534
 20
212.2349468334217
 30
0.0
  0
VERTEX
  5
143A5
  8
0
 10
744.01050379931803
 20
212.98989464942471
 30
0.0
  0
VERTEX
  5
143A6
  8
0
 10
743.83651571762255
 20
213.7419059809238
 30
0.0
  0
VERTEX
  5
143A7
  8
0
 10
743.46110439998029
 20
215.23648353491791
 30
0.0
  0
VERTEX
  5
143A8
  8
0
 10
743.04938079335216
 20
216.7174149335813
 30
0.0
  0
VERTEX
  5
143A9
  8
0
 10
742.60169325701463
 20
218.18344716110121
 30
0.0
  0
VERTEX
  5
143AA
  8
0
 10
742.1184205793179
 20
219.63333980785069
 30
0.0
  0
VERTEX
  5
143AB
  8
0
 10
741.59997165719597
 20
221.06586611990019
 30
0.0
  0
VERTEX
  5
143AC
  8
0
 10
741.32769203295936
 20
221.7752375294742
 30
0.0
  0
VERTEX
  5
143AD
  8
0
 10
741.04678515019566
 20
222.4798140369719
 30
0.0
  0
VERTEX
  5
143AE
  8
0
 10
740.45932910933016
 20
223.873987217966
 30
0.0
  0
VERTEX
  5
143AF
  8
0
 10
739.83810058105882
 20
225.24720605318339
 30
0.0
  0
VERTEX
  5
143B0
  8
0
 10
739.51498478660994
 20
225.9255937840091
 30
0.0
  0
VERTEX
  5
143B1
  8
0
 10
739.18362518673746
 20
226.59830866239301
 30
0.0
  0
VERTEX
  5
143B2
  8
0
 10
738.49645667788991
 20
227.92615187789971
 30
0.0
  0
VERTEX
  5
143B3
  8
0
 10
737.77717646767815
 20
229.22961221177661
 30
0.0
  0
VERTEX
  5
143B4
  8
0
 10
737.40568360931456
 20
229.87185332360079
 30
0.0
  0
VERTEX
  5
143B5
  8
0
 10
737.02639313896952
 20
230.50758680644981
 30
0.0
  0
VERTEX
  5
143B6
  8
0
 10
736.2447419294158
 20
231.7589943678251
 30
0.0
  0
VERTEX
  5
143B7
  8
0
 10
735.43288419397595
 20
232.9827760801702
 30
0.0
  0
VERTEX
  5
143B8
  8
0
 10
734.59150684534734
 20
234.17789650198009
 30
0.0
  0
VERTEX
  5
143B9
  8
0
 10
733.7213217727658
 20
235.34334444206141
 30
0.0
  0
VERTEX
  5
143BA
  8
0
 10
732.82306523967827
 20
236.478133815104
 30
0.0
  0
VERTEX
  5
143BB
  8
0
 10
732.36364676970459
 20
237.03373045798551
 30
0.0
  0
VERTEX
  5
143BC
  8
0
 10
731.89749726078981
 20
237.58130447600641
 30
0.0
  0
VERTEX
  5
143BD
  8
0
 10
730.94540095901493
 20
238.65192303225311
 30
0.0
  0
VERTEX
  5
143BE
  8
0
 10
729.96758190287835
 20
239.68908363365989
 30
0.0
  0
VERTEX
  5
143BF
  8
0
 10
728.96486742492243
 20
240.691908738813
 30
0.0
  0
VERTEX
  5
143C0
  8
0
 10
727.93810592170246
 20
241.65954985755499
 30
0.0
  0
VERTEX
  5
143C1
  8
0
 10
726.88816613595725
 20
242.59118826889451
 30
0.0
  0
VERTEX
  5
143C2
  8
0
 10
726.35478125210739
 20
243.04325891998471
 30
0.0
  0
VERTEX
  5
143C3
  8
0
 10
725.81593642156713
 20
243.4860357137257
 30
0.0
  0
VERTEX
  5
143C4
  8
0
 10
724.72232399191705
 20
244.34333506177131
 30
0.0
  0
VERTEX
  5
143C5
  8
0
 10
723.6082541523042
 20
245.16236095219509
 30
0.0
  0
VERTEX
  5
143C6
  8
0
 10
722.47466951703598
 20
245.94242040732499
 30
0.0
  0
VERTEX
  5
143C7
  8
0
 10
721.32252921188683
 20
246.68285341898471
 30
0.0
  0
VERTEX
  5
143C8
  8
0
 10
720.1528080625784
 20
247.38303350692439
 30
0.0
  0
VERTEX
  5
143C9
  8
0
 10
719.56166339464153
 20
247.7178422282488
 30
0.0
  0
VERTEX
  5
143CA
  8
0
 10
718.96649576998425
 20
248.04236824888741
 30
0.0
  0
VERTEX
  5
143CB
  8
0
 10
717.7645960727391
 20
248.66029978185651
 30
0.0
  0
VERTEX
  5
143CC
  8
0
 10
716.54812589797928
 20
249.2363052740632
 30
0.0
  0
VERTEX
  5
143CD
  8
0
 10
715.31811450092016
 20
249.7698973673553
 30
0.0
  0
VERTEX
  5
143CE
  8
0
 10
714.07560259400225
 20
250.26062458955059
 30
0.0
  0
VERTEX
  5
143CF
  8
0
 10
712.82164146634557
 20
250.70807173642669
 30
0.0
  0
VERTEX
  5
143D0
  8
0
 10
712.19069864592348
 20
250.9154455344094
 30
0.0
  0
VERTEX
  5
143D1
  8
0
 10
711.55729209425454
 20
251.11186022302689
 30
0.0
  0
VERTEX
  5
143D2
  8
0
 10
710.28362424352463
 20
251.47164840397801
 30
0.0
  0
VERTEX
  5
143D3
  8
0
 10
709.00171556431485
 20
251.78713186255999
 30
0.0
  0
VERTEX
  5
143D4
  8
0
 10
707.71265067934883
 20
252.05804366827061
 30
0.0
  0
VERTEX
  5
143D5
  8
0
 10
706.41752026621225
 20
252.28415460267499
 30
0.0
  0
VERTEX
  5
143D6
  8
0
 10
705.11742013453613
 20
252.4652733533492
 30
0.0
  0
VERTEX
  5
143D7
  8
0
 10
704.46585003995449
 20
252.53891128007419
 30
0.0
  0
VERTEX
  5
143D8
  8
0
 10
703.81345029882777
 20
252.60124667574721
 30
0.0
  0
VERTEX
  5
143D9
  8
0
 10
702.50671404775039
 20
252.69195952286441
 30
0.0
  0
VERTEX
  5
143DA
  8
0
 10
701.19831701063129
 20
252.73733514257509
 30
0.0
  0
VERTEX
  5
143DB
  8
0
 10
700.54384161631015
 20
252.743007995017
 30
0.0
  0
VERTEX
  5
143DC
  8
0
 10
699.88936622198889
 20
252.73733514257509
 30
0.0
  0
VERTEX
  5
143DD
  8
0
 10
698.58096918486979
 20
252.69195952286441
 30
0.0
  0
VERTEX
  5
143DE
  8
0
 10
697.27423293379252
 20
252.60124667574721
 30
0.0
  0
VERTEX
  5
143DF
  8
0
 10
696.62183319266569
 20
252.53891128007419
 30
0.0
  0
VERTEX
  5
143E0
  8
0
 10
695.97026309808405
 20
252.4652733533492
 30
0.0
  0
VERTEX
  5
143E1
  8
0
 10
694.67016296640804
 20
252.28415460267499
 30
0.0
  0
VERTEX
  5
143E2
  8
0
 10
693.37503255327135
 20
252.05804366827061
 30
0.0
  0
VERTEX
  5
143E3
  8
0
 10
692.08596766830533
 20
251.78713186255999
 30
0.0
  0
VERTEX
  5
143E4
  8
0
 10
690.80405898909567
 20
251.47164840397801
 30
0.0
  0
VERTEX
  5
143E5
  8
0
 10
689.53039113836564
 20
251.11186022302689
 30
0.0
  0
VERTEX
  5
143E6
  8
0
 10
688.8969845866967
 20
250.9154455344094
 30
0.0
  0
VERTEX
  5
143E7
  8
0
 10
688.26604176627416
 20
250.70807173642669
 30
0.0
  0
VERTEX
  5
143E8
  8
0
 10
687.01208063861804
 20
250.26062458955059
 30
0.0
  0
VERTEX
  5
143E9
  8
0
 10
685.76956873170002
 20
249.7698973673553
 30
0.0
  0
VERTEX
  5
143EA
  8
0
 10
684.5395573346409
 20
249.2363052740632
 30
0.0
  0
VERTEX
  5
143EB
  8
0
 10
683.3230871598812
 20
248.66029978185651
 30
0.0
  0
VERTEX
  5
143EC
  8
0
 10
682.12118746263604
 20
248.04236824888741
 30
0.0
  0
VERTEX
  5
143ED
  8
0
 10
681.52601983797865
 20
247.7178422282488
 30
0.0
  0
VERTEX
  5
143EE
  8
0
 10
680.93487517004121
 20
247.38303350692439
 30
0.0
  0
VERTEX
  5
143EF
  8
0
 10
679.76515402073335
 20
246.68285341898471
 30
0.0
  0
VERTEX
  5
143F0
  8
0
 10
678.6130137155842
 20
245.94242040732499
 30
0.0
  0
VERTEX
  5
143F1
  8
0
 10
677.47942908031609
 20
245.16236095219509
 30
0.0
  0
VERTEX
  5
143F2
  8
0
 10
676.36535924070313
 20
244.34333506177131
 30
0.0
  0
VERTEX
  5
143F3
  8
0
 10
675.27174681105259
 20
243.4860357137257
 30
0.0
  0
VERTEX
  5
143F4
  8
0
 10
674.73290198051279
 20
243.04325891998471
 30
0.0
  0
VERTEX
  5
143F5
  8
0
 10
674.19951709666293
 20
242.59118826889451
 30
0.0
  0
VERTEX
  5
143F6
  8
0
 10
673.14957731091772
 20
241.65954985755499
 30
0.0
  0
VERTEX
  5
143F7
  8
0
 10
672.12281580769786
 20
240.691908738813
 30
0.0
  0
VERTEX
  5
143F8
  8
0
 10
671.12010132974183
 20
239.68908363365989
 30
0.0
  0
VERTEX
  5
143F9
  8
0
 10
670.14228227360525
 20
238.65192303225311
 30
0.0
  0
VERTEX
  5
143FA
  8
0
 10
669.19018597183049
 20
237.58130447600641
 30
0.0
  0
VERTEX
  5
143FB
  8
0
 10
668.72403646291559
 20
237.03373045798551
 30
0.0
  0
VERTEX
  5
143FC
  8
0
 10
668.26461799294202
 20
236.478133815104
 30
0.0
  0
VERTEX
  5
143FD
  8
0
 10
667.36636145985437
 20
235.34334444206141
 30
0.0
  0
VERTEX
  5
143FE
  8
0
 10
666.49617638727295
 20
234.17789650198009
 30
0.0
  0
VERTEX
  5
143FF
  8
0
 10
665.65479903864434
 20
232.9827760801702
 30
0.0
  0
VERTEX
  5
14400
  8
0
 10
664.8429413032045
 20
231.7589943678251
 30
0.0
  0
VERTEX
  5
14401
  8
0
 10
664.06129009365065
 20
230.50758680644981
 30
0.0
  0
VERTEX
  5
14402
  8
0
 10
663.68199962330573
 20
229.87185332360079
 30
0.0
  0
VERTEX
  5
14403
  8
0
 10
663.31050676494215
 20
229.22961221177661
 30
0.0
  0
VERTEX
  5
14404
  8
0
 10
662.59122655473027
 20
227.92615187789971
 30
0.0
  0
VERTEX
  5
14405
  8
0
 10
661.90405804588272
 20
226.59830866239301
 30
0.0
  0
VERTEX
  5
14406
  8
0
 10
661.57269844601024
 20
225.9255937840091
 30
0.0
  0
VERTEX
  5
14407
  8
0
 10
661.24958265156147
 20
225.24720605318339
 30
0.0
  0
VERTEX
  5
14408
  8
0
 10
660.62835412329014
 20
223.873987217966
 30
0.0
  0
VERTEX
  5
14409
  8
0
 10
660.04089808242452
 20
222.4798140369719
 30
0.0
  0
VERTEX
  5
1440A
  8
0
 10
659.75999119966082
 20
221.7752375294742
 30
0.0
  0
VERTEX
  5
1440B
  8
0
 10
659.48771157542433
 20
221.06586611990019
 30
0.0
  0
VERTEX
  5
1440C
  8
0
 10
658.96926265330239
 20
219.63333980785069
 30
0.0
  0
VERTEX
  5
1440D
  8
0
 10
658.48598997560566
 20
218.18344716110121
 30
0.0
  0
VERTEX
  5
1440E
  8
0
 10
658.03830243926814
 20
216.7174149335813
 30
0.0
  0
VERTEX
  5
1440F
  8
0
 10
657.62657883263989
 20
215.23648353491791
 30
0.0
  0
VERTEX
  5
14410
  8
0
 10
657.25116751499763
 20
213.7419059809238
 30
0.0
  0
VERTEX
  5
14411
  8
0
 10
657.07717943330226
 20
212.98989464942471
 30
0.0
  0
VERTEX
  5
14412
  8
0
 10
656.91238612179495
 20
212.2349468334217
 30
0.0
  0
VERTEX
  5
14413
  8
0
 10
656.61052129591314
 20
210.71688113029879
 30
0.0
  0
VERTEX
  5
14414
  8
0
 10
656.3458284451317
 20
209.1889933066966
 30
0.0
  0
VERTEX
  5
14415
  8
0
 10
656.11853152602805
 20
207.6525761082514
 30
0.0
  0
VERTEX
  5
14416
  8
0
 10
655.92882285448866
 20
206.1089294973028
 30
0.0
  0
VERTEX
  5
14417
  8
0
 10
655.77686294298883
 20
204.55935955299381
 30
0.0
  0
VERTEX
  5
14418
  8
0
 10
655.71508020218153
 20
203.782762881265
 30
0.0
  0
VERTEX
  5
14419
  8
0
 10
655.66278036478434
 20
203.00517736620009
 30
0.0
  0
VERTEX
  5
1441A
  8
0
 10
655.58667164512644
 20
201.44769793021419
 30
0.0
  0
VERTEX
  5
1441B
  8
0
 10
655.54860117959015
 20
199.88823902813121
 30
0.0
  0
VERTEX
  5
1441C
  8
0
 10
655.54384161631015
 20
199.10817957300131
 30
0.0
  0
SEQEND
  5
1441D
  8
0
  0
POLYLINE
  5
DB5B
  8
0
 66
     1
 10
0.0
 20
0.0
 30
0.0
  0
VERTEX
  5
1441E
  8
0
 10
655.54384161631015
 20
199.10817957300131
 30
0.0
  0
VERTEX
  5
1441F
  8
0
 10
655.5578789642509
 20
197.76861301235951
 30
0.0
  0
VERTEX
  5
14420
  8
0
 10
655.67012520733749
 20
195.09282229623821
 30
0.0
  0
VERTEX
  5
14421
  8
0
 10
655.89433762349881
 20
192.4270504558371
 30
0.0
  0
VERTEX
  5
14422
  8
0
 10
656.04826720062545
 20
191.1000016299715
 30
0.0
  0
VERTEX
  5
14423
  8
0
 10
656.22995677152528
 20
189.77794896322391
 30
0.0
  0
VERTEX
  5
14424
  8
0
 10
656.67614523489328
 20
187.15212769562621
 30
0.0
  0
VERTEX
  5
14425
  8
0
 10
657.23178971123468
 20
184.55613844286739
 30
0.0
  0
VERTEX
  5
14426
  8
0
 10
657.89550379018328
 20
181.99645855973881
 30
0.0
  0
VERTEX
  5
14427
  8
0
 10
658.66563141266124
 20
179.4794748040965
 30
0.0
  0
VERTEX
  5
14428
  8
0
 10
659.54025100297565
 20
177.0114674010112
 30
0.0
  0
VERTEX
  5
14429
  8
0
 10
660.01607335799144
 20
175.79775940957211
 30
0.0
  0
VERTEX
  5
1442A
  8
0
 10
660.5171802634203
 20
174.5985943727319
 30
0.0
  0
VERTEX
  5
1442B
  8
0
 10
661.59398161940953
 20
172.2468761735629
 30
0.0
  0
VERTEX
  5
1442C
  8
0
 10
662.76796830156854
 20
169.96218066799059
 30
0.0
  0
VERTEX
  5
1442D
  8
0
 10
664.0362110495962
 20
167.75020848954611
 30
0.0
  0
VERTEX
  5
1442E
  8
0
 10
665.39554542117764
 20
165.61647881692849
 30
0.0
  0
VERTEX
  5
1442F
  8
0
 10
666.84257968770896
 20
163.56631560288679
 30
0.0
  0
VERTEX
  5
14430
  8
0
 10
667.59786428915413
 20
162.57417849133179
 30
0.0
  0
VERTEX
  5
14431
  8
0
 10
668.37370329713212
 20
161.60483429021471
 30
0.0
  0
VERTEX
  5
14432
  8
0
 10
669.98509588276511
 20
159.7369290480101
 30
0.0
  0
VERTEX
  5
14433
  8
0
 10
671.6727367956496
 20
157.9672605600399
 30
0.0
  0
VERTEX
  5
14434
  8
0
 10
672.54384161631015
 20
157.1206548446678
 30
0.0
  0
SEQEND
  5
14435
  8
0
  0
POLYLINE
  5
DB5D
  8
0
 66
     1
 10
0.0
 20
0.0
 30
0.0
  0
VERTEX
  5
14436
  8
0
 10
731.54384161631015
 20
156.21273410166981
 30
0.0
  0
VERTEX
  5
14437
  8
0
 10
732.39441511351833
 20
157.10727632167519
 30
0.0
  0
VERTEX
  5
14438
  8
0
 10
734.04059308385877
 20
158.9676977880363
 30
0.0
  0
VERTEX
  5
14439
  8
0
 10
735.61036755390614
 20
160.91967658988301
 30
0.0
  0
VERTEX
  5
1443A
  8
0
 10
736.36547752582817
 20
161.92861652698039
 30
0.0
  0
VERTEX
  5
1443B
  8
0
 10
737.10015798946279
 20
162.95876041448599
 30
0.0
  0
VERTEX
  5
1443C
  8
0
 10
738.50656629372725
 20
165.08029826929351
 30
0.0
  0
VERTEX
  5
1443D
  8
0
 10
739.82638455809536
 20
167.279451090485
 30
0.0
  0
VERTEX
  5
1443E
  8
0
 10
741.05660237914708
 20
169.5512027805037
 30
0.0
  0
VERTEX
  5
1443F
  8
0
 10
742.19441372514711
 20
171.89037164938509
 30
0.0
  0
VERTEX
  5
14440
  8
0
 10
743.23722333638568
 20
174.2916222337924
 30
0.0
  0
VERTEX
  5
14441
  8
0
 10
743.72225057263904
 20
175.51382177777759
 30
0.0
  0
VERTEX
  5
14442
  8
0
 10
744.1826526447644
 20
176.7494774667955
 30
0.0
  0
VERTEX
  5
14443
  8
0
 10
745.02854519912671
 20
179.2583311706376
 30
0.0
  0
VERTEX
  5
14444
  8
0
 10
745.77297158395641
 20
181.81246084399211
 30
0.0
  0
VERTEX
  5
14445
  8
0
 10
746.41423382022447
 20
184.40604071454709
 30
0.0
  0
VERTEX
  5
14446
  8
0
 10
746.95086923835061
 20
187.03315502714079
 30
0.0
  0
VERTEX
  5
14447
  8
0
 10
747.38165381443469
 20
189.68781153714161
 30
0.0
  0
VERTEX
  5
14448
  8
0
 10
747.55703548226165
 20
191.02357798512821
 30
0.0
  0
VERTEX
  5
14449
  8
0
 10
747.70560496216603
 20
192.3639551782955
 30
0.0
  0
VERTEX
  5
1444A
  8
0
 10
747.9219837740219
 20
195.0554818738633
 30
0.0
  0
VERTEX
  5
1444B
  8
0
 10
748.03029670666274
 20
197.75625245954819
 30
0.0
  0
VERTEX
  5
1444C
  8
0
 10
748.04384161631015
 20
199.10817957300131
 30
0.0
  0
SEQEND
  5
1444D
  8
0
  0
POLYLINE
  5
DB5E
  8
0
 66
     1
 10
0.0
 20
0.0
 30
0.0
  0
VERTEX
  5
1444E
  8
0
 10
748.04384161631015
 20
199.10817957300131
 30
0.0
  0
VERTEX
  5
1444F
  8
0
 10
747.99863214144852
 20
201.5776711722817
 30
0.0
  0
VERTEX
  5
14450
  8
0
 10
747.63747253156578
 20
206.49786004865271
 30
0.0
  0
VERTEX
  5
14451
  8
0
 10
746.91790195450665
 20
211.36180899459279
 30
0.0
  0
VERTEX
  5
14452
  8
0
 10
746.42531836504077
 20
213.7611010425596
 30
0.0
  0
VERTEX
  5
14453
  8
0
 10
745.84539677685098
 20
216.13250042169119
 30
0.0
  0
VERTEX
  5
14454
  8
0
 10
744.42811941059597
 20
220.7736264875646
 30
0.0
  0
VERTEX
  5
14455
  8
0
 10
742.67685619227586
 20
225.24986542046389
 30
0.0
  0
VERTEX
  5
14456
  8
0
 10
740.6049352924224
 20
229.5271503392826
 30
0.0
  0
VERTEX
  5
14457
  8
0
 10
739.25440623745453
 20
231.91733986646679
 30
0.0
  0
VERTEX
  5
14458
  8
0
 10
738.84996031901574
 20
232.5849039702791
 30
0.0
  0
VERTEX
  5
14459
  8
0
 10
738.43741127186604
 20
233.24538653683911
 30
0.0
  0
VERTEX
  5
1445A
  8
0
 10
738.22812528014401
 20
233.5729285230934
 30
0.0
  0
VERTEX
  5
1445B
  8
0
 10
738.01684636504206
 20
233.8986478502099
 30
0.0
  0
VERTEX
  5
1445C
  8
0
 10
737.58835456322186
 20
234.5445497220114
 30
0.0
  0
VERTEX
  5
1445D
  8
0
 10
737.1520265079107
 20
235.18295552065109
 30
0.0
  0
VERTEX
  5
1445E
  8
0
 10
736.70795449826335
 20
235.8137302002267
 30
0.0
  0
VERTEX
  5
1445F
  8
0
 10
736.25623247156136
 20
236.43674032909371
 30
0.0
  0
VERTEX
  5
14460
  8
0
 10
735.79695598334138
 20
237.0518541180906
 30
0.0
  0
VERTEX
  5
14461
  8
0
 10
735.56451511479099
 20
237.35640915700901
 30
0.0
  0
VERTEX
  5
14462
  8
0
 10
735.33022218718088
 20
237.65894144841721
 30
0.0
  0
VERTEX
  5
14463
  8
0
 10
734.8561298141484
 20
238.2578738991599
 30
0.0
  0
VERTEX
  5
14464
  8
0
 10
734.37477915191755
 20
238.84852477445591
 30
0.0
  0
VERTEX
  5
14465
  8
0
 10
734.13141372267137
 20
239.14070550715149
 30
0.0
  0
VERTEX
  5
14466
  8
0
 10
733.88627202355246
 20
239.43076913029589
 30
0.0
  0
VERTEX
  5
14467
  8
0
 10
733.39071176596781
 20
240.00448380095281
 30
0.0
  0
VERTEX
  5
14468
  8
0
 10
732.88820320807054
 20
240.56954742503669
 30
0.0
  0
VERTEX
  5
14469
  8
0
 10
732.63437647805404
 20
240.84879766887821
 30
0.0
  0
VERTEX
  5
1446A
  8
0
 10
732.3788526485846
 20
241.1258404711659
 30
0.0
  0
VERTEX
  5
1446B
  8
0
 10
731.86276783356334
 20
241.6732452632543
 30
0.0
  0
VERTEX
  5
1446C
  8
0
 10
731.34005793360018
 20
242.21164600540101
 30
0.0
  0
VERTEX
  5
1446D
  8
0
 10
730.81083352073244
 20
242.74092880638889
 30
0.0
  0
VERTEX
  5
1446E
  8
0
 10
730.27520654505315
 20
243.26098170377389
 30
0.0
  0
VERTEX
  5
1446F
  8
0
 10
729.7332903110273
 20
243.77169468757049
 30
0.0
  0
VERTEX
  5
14470
  8
0
 10
729.46000949422432
 20
244.02351487336341
 30
0.0
  0
VERTEX
  5
14471
  8
0
 10
729.18519945352728
 20
244.27295972352269
 30
0.0
  0
VERTEX
  5
14472
  8
0
 10
728.63104991358023
 20
244.7646707759566
 30
0.0
  0
VERTEX
  5
14473
  8
0
 10
728.07095891384415
 20
245.24672383021129
 30
0.0
  0
VERTEX
  5
14474
  8
0
 10
727.50504493381038
 20
245.71901691464129
 30
0.0
  0
VERTEX
  5
14475
  8
0
 10
726.93342768474122
 20
246.18145012218861
 30
0.0
  0
VERTEX
  5
14476
  8
0
 10
726.35622808434607
 20
246.63392563151481
 30
0.0
  0
VERTEX
  5
14477
  8
0
 10
726.06557301278406
 20
246.85639925559209
 30
0.0
  0
VERTEX
  5
14478
  8
0
 10
725.77356823120397
 20
247.0763477276939
 30
0.0
  0
VERTEX
  5
14479
  8
0
 10
725.18557137893504
 20
247.50862282246109
 30
0.0
  0
VERTEX
  5
1447A
  8
0
 10
724.59236191012633
 20
247.93065947400899
 30
0.0
  0
VERTEX
  5
1447B
  8
0
 10
723.99406531002251
 20
248.3423684063311
 30
0.0
  0
VERTEX
  5
1447C
  8
0
 10
723.39080813998089
 20
248.7436625281064
 30
0.0
  0
VERTEX
  5
1447D
  8
0
 10
722.78271801069832
 20
249.1344569511237
 30
0.0
  0
VERTEX
  5
1447E
  8
0
 10
722.47690074497405
 20
249.3258908548726
 30
0.0
  0
VERTEX
  5
1447F
  8
0
 10
722.16992355521643
 20
249.51466900823581
 30
0.0
  0
VERTEX
  5
14480
  8
0
 10
721.55255440171265
 20
249.8842182708506
 30
0.0
  0
VERTEX
  5
14481
  8
0
 10
720.93074114607862
 20
250.24302656594071
 30
0.0
  0
VERTEX
  5
14482
  8
0
 10
720.30461532429297
 20
250.59101799258289
 30
0.0
  0
VERTEX
  5
14483
  8
0
 10
719.67430938460018
 20
250.92811893801201
 30
0.0
  0
VERTEX
  5
14484
  8
0
 10
719.03995665948833
 20
251.2542580931925
 30
0.0
  0
VERTEX
  5
14485
  8
0
 10
718.72130465365171
 20
251.4131953490153
 30
0.0
  0
VERTEX
  5
14486
  8
0
 10
718.40169133748805
 20
251.56936646790541
 30
0.0
  0
VERTEX
  5
14487
  8
0
 10
717.75964843478584
 20
251.8733774053392
 30
0.0
  0
VERTEX
  5
14488
  8
0
 10
717.11396376666278
 20
252.16622659619159
 30
0.0
  0
VERTEX
  5
14489
  8
0
 10
716.46477391876488
 20
252.44785209227419
 30
0.0
  0
VERTEX
  5
1448A
  8
0
 10
715.81221621821021
 20
252.71819431961441
 30
0.0
  0
VERTEX
  5
1448B
  8
0
 10
715.15642870453985
 20
252.97719609105999
 30
0.0
  0
VERTEX
  5
1448C
  8
0
 10
714.82736709276332
 20
253.1024270904702
 30
0.0
  0
VERTEX
  5
1448D
  8
0
 10
714.49755010051729
 20
253.2248026183741
 30
0.0
  0
VERTEX
  5
1448E
  8
0
 10
713.83571978278223
 20
253.46096152382569
 30
0.0
  0
VERTEX
  5
1448F
  8
0
 10
713.17107775236991
 20
253.68562285127129
 30
0.0
  0
VERTEX
  5
14490
  8
0
 10
712.83774625868
 20
253.7936269767099
 30
0.0
  0
VERTEX
  5
14491
  8
0
 10
712.50376460509278
 20
253.89873907671901
 30
0.0
  0
VERTEX
  5
14492
  8
0
 10
711.83392150180305
 20
254.1002651183837
 30
0.0
  0
VERTEX
  5
14493
  8
0
 10
711.16169013852914
 20
254.29015834622331
 30
0.0
  0
VERTEX
  5
14494
  8
0
 10
710.82472327837013
 20
254.38073000569901
 30
0.0
  0
VERTEX
  5
14495
  8
0
 10
710.48721271650209
 20
254.46837859095669
 30
0.0
  0
VERTEX
  5
14496
  8
0
 10
709.81063191207613
 20
254.6348881525598
 30
0.0
  0
VERTEX
  5
14497
  8
0
 10
709.13209084654727
 20
254.78965180824181
 30
0.0
  0
VERTEX
  5
14498
  8
0
 10
708.45173305587741
 20
254.93263681989609
 30
0.0
  0
VERTEX
  5
14499
  8
0
 10
707.76970246033125
 20
255.06381294102329
 30
0.0
  0
VERTEX
  5
1449A
  8
0
 10
707.08614333403193
 20
255.1831524231327
 30
0.0
  0
VERTEX
  5
1449B
  8
0
 10
706.74383574676267
 20
255.23837543765671
 30
0.0
  0
VERTEX
  5
1449C
  8
0
 10
706.40120027444254
 20
255.2906300216107
 30
0.0
  0
VERTEX
  5
1449D
  8
0
 10
705.7150181717783
 20
255.38622300106019
 30
0.0
  0
VERTEX
  5
1449E
  8
0
 10
705.02774217835656
 20
255.4699111401103
 30
0.0
  0
VERTEX
  5
1449F
  8
0
 10
704.33951767789176
 20
255.54167673569529
 30
0.0
  0
VERTEX
  5
144A0
  8
0
 10
703.65049025474173
 20
255.60150460679711
 30
0.0
  0
VERTEX
  5
144A1
  8
0
 10
702.96080566311321
 20
255.64938209765859
 30
0.0
  0
VERTEX
  5
144A2
  8
0
 10
702.61576251616361
 20
255.66883618674569
 30
0.0
  0
VERTEX
  5
144A3
  8
0
 10
702.27060979622502
 20
255.6852990804598
 30
0.0
  0
VERTEX
  5
144A4
  8
0
 10
701.58004865545172
 20
255.709247957461
 30
0.0
  0
VERTEX
  5
144A5
  8
0
 10
700.88926831943525
 20
255.72122366260899
 30
0.0
  0
VERTEX
  5
144A6
  8
0
 10
700.54384161631015
 20
255.72272068512919
 30
0.0
  0
SEQEND
  5
144A7
  8
0
  0
POLYLINE
  5
DB5F
  8
0
 66
     1
 10
0.0
 20
0.0
 30
0.0
  0
VERTEX
  5
144A8
  8
0
 10
700.54384161631015
 20
255.72272068512919
 30
0.0
  0
VERTEX
  5
144A9
  8
0
 10
700.19841491318493
 20
255.72122366260899
 30
0.0
  0
VERTEX
  5
144AA
  8
0
 10
699.50763457716857
 20
255.709247957461
 30
0.0
  0
VERTEX
  5
144AB
  8
0
 10
698.81707343639516
 20
255.6852990804598
 30
0.0
  0
VERTEX
  5
144AC
  8
0
 10
698.47192071645657
 20
255.66883618674569
 30
0.0
  0
VERTEX
  5
144AD
  8
0
 10
698.12687756950754
 20
255.64938209765859
 30
0.0
  0
VERTEX
  5
144AE
  8
0
 10
697.43719297787857
 20
255.60150460679711
 30
0.0
  0
VERTEX
  5
144AF
  8
0
 10
696.74816555472853
 20
255.54167673569529
 30
0.0
  0
VERTEX
  5
144B0
  8
0
 10
696.05994105426362
 20
255.4699111401103
 30
0.0
  0
VERTEX
  5
144B1
  8
0
 10
695.37266506084188
 20
255.38622300106019
 30
0.0
  0
VERTEX
  5
144B2
  8
0
 10
694.68648295817775
 20
255.2906300216107
 30
0.0
  0
VERTEX
  5
144B3
  8
0
 10
694.34384748585762
 20
255.23837543765671
 30
0.0
  0
VERTEX
  5
144B4
  8
0
 10
694.00153989858836
 20
255.1831524231327
 30
0.0
  0
VERTEX
  5
144B5
  8
0
 10
693.31798077228905
 20
255.06381294102329
 30
0.0
  0
VERTEX
  5
144B6
  8
0
 10
692.63595017674288
 20
254.93263681989609
 30
0.0
  0
VERTEX
  5
144B7
  8
0
 10
691.95559238607302
 20
254.78965180824181
 30
0.0
  0
VERTEX
  5
144B8
  8
0
 10
691.27705132054405
 20
254.6348881525598
 30
0.0
  0
VERTEX
  5
144B9
  8
0
 10
690.60047051611809
 20
254.46837859095669
 30
0.0
  0
VERTEX
  5
144BA
  8
0
 10
690.26295995425005
 20
254.38073000569901
 30
0.0
  0
VERTEX
  5
144BB
  8
0
 10
689.92599309409115
 20
254.29015834622331
 30
0.0
  0
VERTEX
  5
144BC
  8
0
 10
689.25376173081668
 20
254.1002651183837
 30
0.0
  0
VERTEX
  5
144BD
  8
0
 10
688.58391862752751
 20
253.89873907671901
 30
0.0
  0
VERTEX
  5
144BE
  8
0
 10
688.24993697394018
 20
253.7936269767099
 30
0.0
  0
VERTEX
  5
144BF
  8
0
 10
687.91660548025027
 20
253.68562285127129
 30
0.0
  0
VERTEX
  5
144C0
  8
0
 10
687.25196344983794
 20
253.46096152382569
 30
0.0
  0
VERTEX
  5
144C1
  8
0
 10
686.59013313210289
 20
253.2248026183741
 30
0.0
  0
VERTEX
  5
144C2
  8
0
 10
686.26031613985697
 20
253.1024270904702
 30
0.0
  0
VERTEX
  5
144C3
  8
0
 10
685.93125452808044
 20
252.97719609105999
 30
0.0
  0
VERTEX
  5
144C4
  8
0
 10
685.27546701440997
 20
252.71819431961441
 30
0.0
  0
VERTEX
  5
144C5
  8
0
 10
684.6229093138553
 20
252.44785209227419
 30
0.0
  0
VERTEX
  5
144C6
  8
0
 10
683.9737194659574
 20
252.16622659619159
 30
0.0
  0
VERTEX
  5
144C7
  8
0
 10
683.32803479783433
 20
251.8733774053392
 30
0.0
  0
VERTEX
  5
144C8
  8
0
 10
682.68599189513225
 20
251.56936646790541
 30
0.0
  0
VERTEX
  5
144C9
  8
0
 10
682.36637857896812
 20
251.4131953490153
 30
0.0
  0
VERTEX
  5
144CA
  8
0
 10
682.04772657313185
 20
251.2542580931925
 30
0.0
  0
VERTEX
  5
144CB
  8
0
 10
681.41337384802
 20
250.92811893801201
 30
0.0
  0
VERTEX
  5
144CC
  8
0
 10
680.78306790832664
 20
250.59101799258289
 30
0.0
  0
VERTEX
  5
144CD
  8
0
 10
680.15694208654156
 20
250.24302656594071
 30
0.0
  0
VERTEX
  5
144CE
  8
0
 10
679.53512883090752
 20
249.8842182708506
 30
0.0
  0
VERTEX
  5
144CF
  8
0
 10
678.91775967740375
 20
249.51466900823581
 30
0.0
  0
VERTEX
  5
144D0
  8
0
 10
678.61078248764579
 20
249.3258908548726
 30
0.0
  0
VERTEX
  5
144D1
  8
0
 10
678.30496522192198
 20
249.1344569511237
 30
0.0
  0
VERTEX
  5
144D2
  8
0
 10
677.6968750926394
 20
248.7436625281064
 30
0.0
  0
VERTEX
  5
144D3
  8
0
 10
677.09361792259767
 20
248.3423684063311
 30
0.0
  0
VERTEX
  5
144D4
  8
0
 10
676.49532132249396
 20
247.93065947400899
 30
0.0
  0
VERTEX
  5
144D5
  8
0
 10
675.90211185368526
 20
247.50862282246109
 30
0.0
  0
VERTEX
  5
144D6
  8
0
 10
675.31411500141621
 20
247.0763477276939
 30
0.0
  0
VERTEX
  5
144D7
  8
0
 10
675.02211021983612
 20
246.85639925559209
 30
0.0
  0
VERTEX
  5
144D8
  8
0
 10
674.73145514827411
 20
246.63392563151481
 30
0.0
  0
VERTEX
  5
144D9
  8
0
 10
674.15425554787896
 20
246.18145012218861
 30
0.0
  0
VERTEX
  5
144DA
  8
0
 10
673.5826382988098
 20
245.71901691464129
 30
0.0
  0
VERTEX
  5
144DB
  8
0
 10
673.01672431877614
 20
245.24672383021129
 30
0.0
  0
VERTEX
  5
144DC
  8
0
 10
672.45663331903995
 20
244.7646707759566
 30
0.0
  0
VERTEX
  5
144DD
  8
0
 10
671.90248377909302
 20
244.27295972352269
 30
0.0
  0
VERTEX
  5
144DE
  8
0
 10
671.62767373839586
 20
244.02351487336341
 30
0.0
  0
VERTEX
  5
144DF
  8
0
 10
671.35439292159299
 20
243.77169468757049
 30
0.0
  0
VERTEX
  5
144E0
  8
0
 10
670.8124766875676
 20
243.26098170377389
 30
0.0
  0
VERTEX
  5
144E1
  8
0
 10
670.27684971188773
 20
242.74092880638889
 30
0.0
  0
VERTEX
  5
144E2
  8
0
 10
669.74762529902
 20
242.21164600540101
 30
0.0
  0
VERTEX
  5
144E3
  8
0
 10
669.22491539905695
 20
241.6732452632543
 30
0.0
  0
VERTEX
  5
144E4
  8
0
 10
668.70883058403558
 20
241.1258404711659
 30
0.0
  0
VERTEX
  5
144E5
  8
0
 10
668.45330675456626
 20
240.84879766887821
 30
0.0
  0
VERTEX
  5
144E6
  8
0
 10
668.19948002454964
 20
240.56954742503669
 30
0.0
  0
VERTEX
  5
144E7
  8
0
 10
667.69697146665237
 20
240.00448380095281
 30
0.0
  0
VERTEX
  5
144E8
  8
0
 10
667.20141120906783
 20
239.43076913029589
 30
0.0
  0
VERTEX
  5
144E9
  8
0
 10
666.95626950994892
 20
239.14070550715149
 30
0.0
  0
VERTEX
  5
144EA
  8
0
 10
666.71290408070263
 20
238.84852477445591
 30
0.0
  0
VERTEX
  5
144EB
  8
0
 10
666.23155341847178
 20
238.2578738991599
 30
0.0
  0
VERTEX
  5
144EC
  8
0
 10
665.75746104543941
 20
237.65894144841721
 30
0.0
  0
VERTEX
  5
144ED
  8
0
 10
665.5231681178293
 20
237.35640915700901
 30
0.0
  0
VERTEX
  5
144EE
  8
0
 10
665.29072724927892
 20
237.0518541180906
 30
0.0
  0
VERTEX
  5
144EF
  8
0
 10
664.83145076105893
 20
236.43674032909371
 30
0.0
  0
VERTEX
  5
144F0
  8
0
 10
664.37972873435683
 20
235.8137302002267
 30
0.0
  0
VERTEX
  5
144F1
  8
0
 10
663.93565672470913
 20
235.18295552065109
 30
0.0
  0
VERTEX
  5
144F2
  8
0
 10
663.49932866939844
 20
234.5445497220114
 30
0.0
  0
VERTEX
  5
144F3
  8
0
 10
663.07083686757824
 20
233.8986478502099
 30
0.0
  0
VERTEX
  5
144F4
  8
0
 10
662.85955795247673
 20
233.5729285230934
 30
0.0
  0
VERTEX
  5
144F5
  8
0
 10
662.65027196075425
 20
233.24538653683911
 30
0.0
  0
VERTEX
  5
144F6
  8
0
 10
662.23772291360444
 20
232.5849039702791
 30
0.0
  0
VERTEX
  5
144F7
  8
0
 10
661.83327699516565
 20
231.91733986646679
 30
0.0
  0
VERTEX
  5
144F8
  8
0
 10
660.48274794019778
 20
229.5271503392826
 30
0.0
  0
VERTEX
  5
144F9
  8
0
 10
658.41082704034443
 20
225.24986542046389
 30
0.0
  0
VERTEX
  5
144FA
  8
0
 10
656.65956382202421
 20
220.773626487565
 30
0.0
  0
VERTEX
  5
144FB
  8
0
 10
655.2422864557692
 20
216.13250042169119
 30
0.0
  0
VERTEX
  5
144FC
  8
0
 10
654.66236486757953
 20
213.7611010425596
 30
0.0
  0
VERTEX
  5
144FD
  8
0
 10
654.16978127811353
 20
211.36180899459279
 30
0.0
  0
VERTEX
  5
144FE
  8
0
 10
653.4502107010544
 20
206.49786004865271
 30
0.0
  0
VERTEX
  5
144FF
  8
0
 10
653.08905109117165
 20
201.5776711722817
 30
0.0
  0
VERTEX
  5
14500
  8
0
 10
653.04384161631015
 20
199.10817957300131
 30
0.0
  0
SEQEND
  5
14501
  8
0
  0
POLYLINE
  5
DB60
  8
0
 66
     1
 10
0.0
 20
0.0
 30
0.0
  0
VERTEX
  5
14502
  8
0
 10
653.04384161631015
 20
199.10817957300131
 30
0.0
  0
VERTEX
  5
14503
  8
0
 10
653.0573865259579
 20
197.75625245954819
 30
0.0
  0
VERTEX
  5
14504
  8
0
 10
653.16569945859828
 20
195.0554818738633
 30
0.0
  0
VERTEX
  5
14505
  8
0
 10
653.38207827045414
 20
192.3639551782955
 30
0.0
  0
VERTEX
  5
14506
  8
0
 10
653.53064775035864
 20
191.02357798512821
 30
0.0
  0
VERTEX
  5
14507
  8
0
 10
653.70602941818561
 20
189.68781153714161
 30
0.0
  0
VERTEX
  5
14508
  8
0
 10
654.13681399426957
 20
187.03315502714079
 30
0.0
  0
VERTEX
  5
14509
  8
0
 10
654.67344941239571
 20
184.40604071454709
 30
0.0
  0
VERTEX
  5
1450A
  8
0
 10
655.31471164866389
 20
181.81246084399211
 30
0.0
  0
VERTEX
  5
1450B
  8
0
 10
656.05913803349347
 20
179.2583311706376
 30
0.0
  0
VERTEX
  5
1450C
  8
0
 10
656.90503058785578
 20
176.7494774667955
 30
0.0
  0
VERTEX
  5
1450D
  8
0
 10
657.36543265998125
 20
175.51382177777759
 30
0.0
  0
VERTEX
  5
1450E
  8
0
 10
657.8504598962345
 20
174.2916222337924
 30
0.0
  0
VERTEX
  5
1450F
  8
0
 10
658.89326950747306
 20
171.89037164938509
 30
0.0
  0
VERTEX
  5
14510
  8
0
 10
660.0310808534731
 20
169.5512027805037
 30
0.0
  0
VERTEX
  5
14511
  8
0
 10
661.26129867452482
 20
167.279451090485
 30
0.0
  0
VERTEX
  5
14512
  8
0
 10
662.58111693889305
 20
165.08029826929331
 30
0.0
  0
VERTEX
  5
14513
  8
0
 10
663.98752524315751
 20
162.95876041448599
 30
0.0
  0
VERTEX
  5
14514
  8
0
 10
664.72220570679201
 20
161.92861652698039
 30
0.0
  0
VERTEX
  5
14515
  8
0
 10
665.47731567871415
 20
160.91967658988301
 30
0.0
  0
VERTEX
  5
14516
  8
0
 10
667.04709014876153
 20
158.9676977880363
 30
0.0
  0
VERTEX
  5
14517
  8
0
 10
668.69326811910184
 20
157.10727632167519
 30
0.0
  0
VERTEX
  5
14518
  8
0
 10
669.54384161631015
 20
156.21273410166981
 30
0.0
  0
SEQEND
  5
14519
  8
0
  0
LINE
  5
DB62
  8
0
 10
714.70773649866169
 20
250.0227206851294
 30
0.0
 11
686.37994673395849
 21
250.0227206851294
 31
0.0
  0
LINE
  5
DB63
  8
0
 10
728.54384161631015
 20
143.52272068512929
 30
0.0
 11
728.54384161631015
 21
241.0959660550154
 31
0.0
  0
LINE
  5
DB66
  8
0
 10
672.54384161631015
 20
241.0959660550154
 30
0.0
 11
672.54384161631015
 21
143.52272068512929
 31
0.0
  0
LINE
  5
DB68
  8
0
 10
669.54384161631015
 20
146.20772068512929
 30
0.0
 11
668.94384161631024
 21
146.20772068512929
 31
0.0
  0
LINE
  5
DB6A
  8
0
 10
745.47034161631007
 20
148.52272068512929
 30
0.0
 11
743.54384161631015
 21
148.52272068512929
 31
0.0
  0
LINE
  5
DB6B
  8
0
 10
743.54384161631015
 20
160.52272068512929
 30
0.0
 11
745.47034161631007
 21
160.52272068512929
 31
0.0
  0
LINE
  5
DB6C
  8
0
 10
746.54384161631015
 20
149.59622068512931
 30
0.0
 11
745.47034161631007
 21
148.52272068512929
 31
0.0
  0
LINE
  5
DB6D
  8
0
 10
745.47034161631007
 20
160.52272068512929
 30
0.0
 11
746.54384161631015
 21
159.4492206851294
 31
0.0
  0
LINE
  5
DB6E
  8
0
 10
662.04384161631015
 20
163.1852206851292
 30
0.0
 11
662.40291856429621
 21
164.52531409883949
 31
0.0
  0
LINE
  5
DB6F
  8
0
 10
662.40291856429621
 20
144.52012727141911
 30
0.0
 11
662.04384161631015
 21
145.86022068512941
 31
0.0
  0
LINE
  5
DB71
  8
0
 10
668.94384161631024
 20
145.86022068512941
 30
0.0
 11
668.58476466832406
 21
144.52012727141911
 31
0.0
  0
LINE
  5
DB74
  8
0
 10
743.54384161631015
 20
146.20772068512929
 30
0.0
 11
739.79384161631015
 21
146.20772068512929
 31
0.0
  0
LINE
  5
DB75
  8
0
 10
739.79384161631015
 20
162.8377206851294
 30
0.0
 11
743.54384161631015
 21
162.8377206851294
 31
0.0
  0
LINE
  5
DB77
  8
0
 10
731.9029185642961
 20
144.52012727141911
 30
0.0
 11
731.54384161631015
 21
145.86022068512941
 31
0.0
  0
LINE
  5
DB78
  8
0
 10
739.43476466832396
 20
164.52531409883949
 30
0.0
 11
739.79384161631015
 21
163.1852206851292
 31
0.0
  0
LINE
  5
DB79
  8
0
 10
739.79384161631015
 20
145.86022068512941
 30
0.0
 11
739.43476466832396
 21
144.52012727141911
 31
0.0
  0
LINE
  5
DB7C
  8
0
 10
728.54384161631015
 20
144.52272068512929
 30
0.0
 11
723.04384161631015
 21
144.52272068512929
 31
0.0
  0
LINE
  5
DB7E
  8
0
 10
678.04384161631015
 20
144.52272068512929
 30
0.0
 11
672.54384161631015
 21
144.52272068512929
 31
0.0
  0
LINE
  5
DB7F
  8
0
 10
672.54384161631015
 20
164.52272068512929
 30
0.0
 11
678.04384161631015
 21
164.52272068512929
 31
0.0
  0
LINE
  5
DB81
  8
0
 10
723.04384161631015
 20
164.52272068512929
 30
0.0
 11
728.54384161631015
 21
164.52272068512929
 31
0.0
  0
LINE
  5
DB82
  8
0
 10
745.47034161631007
 20
160.52272068512929
 30
0.0
 11
745.47034161631007
 21
148.52272068512929
 31
0.0
  0
LINE
  5
DB83
  8
0
 10
746.54384161631015
 20
159.4492206851294
 30
0.0
 11
746.54384161631015
 21
149.59622068512931
 31
0.0
  0
LINE
  5
DB84
  8
0
 10
662.04384161631015
 20
163.1852206851292
 30
0.0
 11
662.04384161631015
 21
145.86022068512941
 31
0.0
  0
LINE
  5
DB86
  8
0
 10
668.94384161631024
 20
156.84078896362101
 30
0.0
 11
668.94384161631024
 21
145.86022068512941
 31
0.0
  0
POLYLINE
  5
DB87
  8
0
 66
     1
 10
0.0
 20
0.0
 30
0.0
  0
VERTEX
  5
1451A
  8
0
 10
662.40291856429621
 20
149.52142397827421
 30
0.0
  0
VERTEX
  5
1451B
  8
0
 10
662.29101707686357
 20
149.0721635727466
 30
0.0
  0
VERTEX
  5
1451C
  8
0
 10
662.13237866523377
 20
148.22843757856089
 30
0.0
  0
VERTEX
  5
1451D
  8
0
 10
662.05379387183336
 20
147.42229470991529
 30
0.0
  0
VERTEX
  5
1451E
  8
0
 10
662.04384161631015
 20
147.02077562484669
 30
0.0
  0
SEQEND
  5
1451F
  8
0
  0
POLYLINE
  5
DB88
  8
0
 66
     1
 10
0.0
 20
0.0
 30
0.0
  0
VERTEX
  5
14520
  8
0
 10
662.04384161631015
 20
147.02077562484669
 30
0.0
  0
VERTEX
  5
14521
  8
0
 10
662.05379387183336
 20
146.61925653977801
 30
0.0
  0
VERTEX
  5
14522
  8
0
 10
662.13237866523377
 20
145.81311367113219
 30
0.0
  0
VERTEX
  5
14523
  8
0
 10
662.29101707686357
 20
144.96938767694681
 30
0.0
  0
VERTEX
  5
14524
  8
0
 10
662.40291856429621
 20
144.52012727141911
 30
0.0
  0
SEQEND
  5
14525
  8
0
  0
POLYLINE
  5
DB89
  8
0
 66
     1
 10
0.0
 20
0.0
 30
0.0
  0
VERTEX
  5
14526
  8
0
 10
668.58476466832406
 20
144.52012727141911
 30
0.0
  0
VERTEX
  5
14527
  8
0
 10
668.69666615575659
 20
144.96938767694681
 30
0.0
  0
VERTEX
  5
14528
  8
0
 10
668.85530456738616
 20
145.81311367113219
 30
0.0
  0
VERTEX
  5
14529
  8
0
 10
668.93388936078679
 20
146.61925653977801
 30
0.0
  0
VERTEX
  5
1452A
  8
0
 10
668.94384161631024
 20
147.02077562484669
 30
0.0
  0
SEQEND
  5
1452B
  8
0
  0
POLYLINE
  5
DB8A
  8
0
 66
     1
 10
0.0
 20
0.0
 30
0.0
  0
VERTEX
  5
1452C
  8
0
 10
668.94384161631024
 20
147.02077562484669
 30
0.0
  0
VERTEX
  5
1452D
  8
0
 10
668.93388936078679
 20
147.42229470991529
 30
0.0
  0
VERTEX
  5
1452E
  8
0
 10
668.85530456738616
 20
148.22843757856089
 30
0.0
  0
VERTEX
  5
1452F
  8
0
 10
668.69666615575659
 20
149.0721635727466
 30
0.0
  0
VERTEX
  5
14530
  8
0
 10
668.58476466832406
 20
149.52142397827421
 30
0.0
  0
SEQEND
  5
14531
  8
0
  0
LINE
  5
DB8B
  8
0
 10
662.40291856429621
 20
144.52012727141911
 30
0.0
 11
668.58476466832406
 21
144.52012727141911
 31
0.0
  0
POLYLINE
  5
DB95
  8
0
 66
     1
 10
0.0
 20
0.0
 30
0.0
  0
VERTEX
  5
14532
  8
0
 10
662.40291856429621
 20
164.52531409883949
 30
0.0
  0
VERTEX
  5
14533
  8
0
 10
662.29101707686357
 20
164.07605369331191
 30
0.0
  0
VERTEX
  5
14534
  8
0
 10
662.13237866523377
 20
163.2323276991265
 30
0.0
  0
VERTEX
  5
14535
  8
0
 10
662.05379387183336
 20
162.42618483048071
 30
0.0
  0
VERTEX
  5
14536
  8
0
 10
662.04384161631015
 20
162.02466574541199
 30
0.0
  0
SEQEND
  5
14537
  8
0
  0
POLYLINE
  5
DB96
  8
0
 66
     1
 10
0.0
 20
0.0
 30
0.0
  0
VERTEX
  5
14538
  8
0
 10
662.04384161631015
 20
162.02466574541199
 30
0.0
  0
VERTEX
  5
14539
  8
0
 10
662.05379387183336
 20
161.62314666034331
 30
0.0
  0
VERTEX
  5
1453A
  8
0
 10
662.13237866523377
 20
160.81700379169769
 30
0.0
  0
VERTEX
  5
1453B
  8
0
 10
662.29101707686357
 20
159.97327779751211
 30
0.0
  0
VERTEX
  5
1453C
  8
0
 10
662.40291856429621
 20
159.52401739198439
 30
0.0
  0
SEQEND
  5
1453D
  8
0
  0
LINE
  5
DB9B
  8
0
 10
662.40291856429621
 20
164.52531409883949
 30
0.0
 11
662.93597206790901
 21
164.52531409883949
 31
0.0
  0
POLYLINE
  5
DB9E
  8
0
 66
     1
 10
0.0
 20
0.0
 30
0.0
  0
VERTEX
  5
1453E
  8
0
 10
668.94384161631024
 20
154.52272068512929
 30
0.0
  0
VERTEX
  5
1453F
  8
0
 10
668.94134917784265
 20
154.92427026385121
 30
0.0
  0
VERTEX
  5
14540
  8
0
 10
668.92163320686814
 20
155.7238934597062
 30
0.0
  0
VERTEX
  5
14541
  8
0
 10
668.88250818047106
 20
156.5272352888305
 30
0.0
  0
VERTEX
  5
14542
  8
0
 10
668.85563987933983
 20
156.93338109864399
 30
0.0
  0
SEQEND
  5
14543
  8
0
  0
LINE
  5
DBA0
  8
0
 10
662.40291856429621
 20
159.52401739198439
 30
0.0
 11
666.58406625232465
 21
159.52401739198439
 31
0.0
  0
POLYLINE
  5
DBA2
  8
0
 66
     1
 10
0.0
 20
0.0
 30
0.0
  0
VERTEX
  5
14544
  8
0
 10
662.40291856429621
 20
159.52401739198439
 30
0.0
  0
VERTEX
  5
14545
  8
0
 10
662.29101707686357
 20
158.62549658092911
 30
0.0
  0
VERTEX
  5
14546
  8
0
 10
662.13237866523377
 20
156.93804459255799
 30
0.0
  0
VERTEX
  5
14547
  8
0
 10
662.05379387183336
 20
155.32575885526671
 30
0.0
  0
VERTEX
  5
14548
  8
0
 10
662.04384161631015
 20
154.52272068512929
 30
0.0
  0
SEQEND
  5
14549
  8
0
  0
POLYLINE
  5
DBA3
  8
0
 66
     1
 10
0.0
 20
0.0
 30
0.0
  0
VERTEX
  5
1454A
  8
0
 10
662.04384161631015
 20
154.52272068512929
 30
0.0
  0
VERTEX
  5
1454B
  8
0
 10
662.05379387183336
 20
153.71968251499189
 30
0.0
  0
VERTEX
  5
1454C
  8
0
 10
662.13237866523377
 20
152.10739677770059
 30
0.0
  0
VERTEX
  5
1454D
  8
0
 10
662.29101707686357
 20
150.41994478932949
 30
0.0
  0
VERTEX
  5
1454E
  8
0
 10
662.40291856429621
 20
149.52142397827421
 30
0.0
  0
SEQEND
  5
1454F
  8
0
  0
LINE
  5
DBA4
  8
0
 10
662.40291856429621
 20
149.52142397827421
 30
0.0
 11
668.58476466832406
 21
149.52142397827421
 31
0.0
  0
POLYLINE
  5
DBA5
  8
0
 66
     1
 10
0.0
 20
0.0
 30
0.0
  0
VERTEX
  5
14550
  8
0
 10
668.58476466832406
 20
149.52142397827421
 30
0.0
  0
VERTEX
  5
14551
  8
0
 10
668.69666615575659
 20
150.41994478932949
 30
0.0
  0
VERTEX
  5
14552
  8
0
 10
668.85530456738616
 20
152.10739677770059
 30
0.0
  0
VERTEX
  5
14553
  8
0
 10
668.93388936078679
 20
153.71968251499189
 30
0.0
  0
VERTEX
  5
14554
  8
0
 10
668.94384161631024
 20
154.52272068512929
 30
0.0
  0
SEQEND
  5
14555
  8
0
  0
LINE
  5
DBA6
  8
0
 10
743.54384161631015
 20
162.8377206851294
 30
0.0
 11
743.54384161631015
 21
146.20772068512929
 31
0.0
  0
LINE
  5
DBA7
  8
0
 10
739.79384161631015
 20
163.1852206851292
 30
0.0
 11
739.79384161631015
 21
145.86022068512941
 31
0.0
  0
POLYLINE
  5
DBA8
  8
0
 66
     1
 10
0.0
 20
0.0
 30
0.0
  0
VERTEX
  5
14556
  8
0
 10
731.9029185642961
 20
149.52142397827421
 30
0.0
  0
VERTEX
  5
14557
  8
0
 10
731.79101707686357
 20
149.0721635727466
 30
0.0
  0
VERTEX
  5
14558
  8
0
 10
731.63237866523366
 20
148.22843757856089
 30
0.0
  0
VERTEX
  5
14559
  8
0
 10
731.55379387183348
 20
147.42229470991529
 30
0.0
  0
VERTEX
  5
1455A
  8
0
 10
731.54384161631015
 20
147.02077562484669
 30
0.0
  0
SEQEND
  5
1455B
  8
0
  0
POLYLINE
  5
DBA9
  8
0
 66
     1
 10
0.0
 20
0.0
 30
0.0
  0
VERTEX
  5
1455C
  8
0
 10
731.54384161631015
 20
147.02077562484669
 30
0.0
  0
VERTEX
  5
1455D
  8
0
 10
731.55379387183348
 20
146.61925653977801
 30
0.0
  0
VERTEX
  5
1455E
  8
0
 10
731.63237866523366
 20
145.81311367113219
 30
0.0
  0
VERTEX
  5
1455F
  8
0
 10
731.79101707686357
 20
144.96938767694681
 30
0.0
  0
VERTEX
  5
14560
  8
0
 10
731.9029185642961
 20
144.52012727141911
 30
0.0
  0
SEQEND
  5
14561
  8
0
  0
POLYLINE
  5
DBAA
  8
0
 66
     1
 10
0.0
 20
0.0
 30
0.0
  0
VERTEX
  5
14562
  8
0
 10
739.43476466832396
 20
144.52012727141911
 30
0.0
  0
VERTEX
  5
14563
  8
0
 10
739.5466661557565
 20
144.96938767694681
 30
0.0
  0
VERTEX
  5
14564
  8
0
 10
739.70530456738652
 20
145.81311367113219
 30
0.0
  0
VERTEX
  5
14565
  8
0
 10
739.78388936078682
 20
146.61925653977801
 30
0.0
  0
VERTEX
  5
14566
  8
0
 10
739.79384161631015
 20
147.02077562484669
 30
0.0
  0
SEQEND
  5
14567
  8
0
  0
POLYLINE
  5
DBAB
  8
0
 66
     1
 10
0.0
 20
0.0
 30
0.0
  0
VERTEX
  5
14568
  8
0
 10
739.79384161631015
 20
147.02077562484669
 30
0.0
  0
VERTEX
  5
14569
  8
0
 10
739.78388936078682
 20
147.42229470991529
 30
0.0
  0
VERTEX
  5
1456A
  8
0
 10
739.70530456738652
 20
148.22843757856089
 30
0.0
  0
VERTEX
  5
1456B
  8
0
 10
739.5466661557565
 20
149.0721635727466
 30
0.0
  0
VERTEX
  5
1456C
  8
0
 10
739.43476466832396
 20
149.52142397827421
 30
0.0
  0
SEQEND
  5
1456D
  8
0
  0
LINE
  5
DBAC
  8
0
 10
731.9029185642961
 20
144.52012727141911
 30
0.0
 11
739.43476466832396
 21
144.52012727141911
 31
0.0
  0
POLYLINE
  5
DBB5
  8
0
 66
     1
 10
0.0
 20
0.0
 30
0.0
  0
VERTEX
  5
1456E
  8
0
 10
739.79384161631015
 20
162.02466574541199
 30
0.0
  0
VERTEX
  5
1456F
  8
0
 10
739.78388936078682
 20
162.42618483048071
 30
0.0
  0
VERTEX
  5
14570
  8
0
 10
739.70530456738652
 20
163.2323276991265
 30
0.0
  0
VERTEX
  5
14571
  8
0
 10
739.5466661557565
 20
164.07605369331191
 30
0.0
  0
VERTEX
  5
14572
  8
0
 10
739.43476466832396
 20
164.52531409883949
 30
0.0
  0
SEQEND
  5
14573
  8
0
  0
POLYLINE
  5
DBB8
  8
0
 66
     1
 10
0.0
 20
0.0
 30
0.0
  0
VERTEX
  5
14574
  8
0
 10
739.43476466832396
 20
159.52401739198439
 30
0.0
  0
VERTEX
  5
14575
  8
0
 10
739.5466661557565
 20
159.97327779751211
 30
0.0
  0
VERTEX
  5
14576
  8
0
 10
739.70530456738652
 20
160.81700379169769
 30
0.0
  0
VERTEX
  5
14577
  8
0
 10
739.78388936078682
 20
161.62314666034331
 30
0.0
  0
VERTEX
  5
14578
  8
0
 10
739.79384161631015
 20
162.02466574541199
 30
0.0
  0
SEQEND
  5
14579
  8
0
  0
LINE
  5
DBBD
  8
0
 10
738.15171116471129
 20
164.52531409883949
 30
0.0
 11
739.43476466832396
 21
164.52531409883949
 31
0.0
  0
POLYLINE
  5
DBBF
  8
0
 66
     1
 10
0.0
 20
0.0
 30
0.0
  0
VERTEX
  5
1457A
  8
0
 10
739.79384161631015
 20
154.52272068512929
 30
0.0
  0
VERTEX
  5
1457B
  8
0
 10
739.78388936078682
 20
155.32575885526671
 30
0.0
  0
VERTEX
  5
1457C
  8
0
 10
739.70530456738652
 20
156.93804459255799
 30
0.0
  0
VERTEX
  5
1457D
  8
0
 10
739.5466661557565
 20
158.62549658092911
 30
0.0
  0
VERTEX
  5
1457E
  8
0
 10
739.43476466832396
 20
159.52401739198439
 30
0.0
  0
SEQEND
  5
1457F
  8
0
  0
LINE
  5
DBC1
  8
0
 10
734.50361698029565
 20
159.52401739198439
 30
0.0
 11
739.43476466832396
 21
159.52401739198439
 31
0.0
  0
POLYLINE
  5
DBC3
  8
0
 66
     1
 10
0.0
 20
0.0
 30
0.0
  0
VERTEX
  5
14580
  8
0
 10
731.58990232977703
 20
156.2570025008647
 30
0.0
  0
VERTEX
  5
14581
  8
0
 10
731.57589591731812
 20
155.9673212789655
 30
0.0
  0
VERTEX
  5
14582
  8
0
 10
731.55544907273486
 20
155.39012425666459
 30
0.0
  0
VERTEX
  5
14583
  8
0
 10
731.54514180600336
 20
154.8127050381147
 30
0.0
  0
VERTEX
  5
14584
  8
0
 10
731.54384161631015
 20
154.52272068512929
 30
0.0
  0
SEQEND
  5
14585
  8
0
  0
POLYLINE
  5
DBC4
  8
0
 66
     1
 10
0.0
 20
0.0
 30
0.0
  0
VERTEX
  5
14586
  8
0
 10
731.54384161631015
 20
154.52272068512929
 30
0.0
  0
VERTEX
  5
14587
  8
0
 10
731.55379387183348
 20
153.71968251499189
 30
0.0
  0
VERTEX
  5
14588
  8
0
 10
731.63237866523366
 20
152.10739677770059
 30
0.0
  0
VERTEX
  5
14589
  8
0
 10
731.79101707686357
 20
150.41994478932949
 30
0.0
  0
VERTEX
  5
1458A
  8
0
 10
731.9029185642961
 20
149.52142397827421
 30
0.0
  0
SEQEND
  5
1458B
  8
0
  0
LINE
  5
DBC5
  8
0
 10
731.9029185642961
 20
149.52142397827421
 30
0.0
 11
739.43476466832396
 21
149.52142397827421
 31
0.0
  0
POLYLINE
  5
DBC6
  8
0
 66
     1
 10
0.0
 20
0.0
 30
0.0
  0
VERTEX
  5
1458C
  8
0
 10
739.43476466832396
 20
149.52142397827421
 30
0.0
  0
VERTEX
  5
1458D
  8
0
 10
739.5466661557565
 20
150.41994478932949
 30
0.0
  0
VERTEX
  5
1458E
  8
0
 10
739.70530456738652
 20
152.10739677770059
 30
0.0
  0
VERTEX
  5
1458F
  8
0
 10
739.78388936078682
 20
153.71968251499189
 30
0.0
  0
VERTEX
  5
14590
  8
0
 10
739.79384161631015
 20
154.52272068512929
 30
0.0
  0
SEQEND
  5
14591
  8
0
  0
ARC
  5
DBEC
  8
0
 10
680.04384161631015
 20
224.58519280822819
 30
0.0
 40
1.999999999999996
 50
106.30926544638631
 51
180.0
  0
ARC
  5
DBED
  8
0
 10
680.04384161631015
 20
84.460248562030515
 30
0.0
 40
2.0000000000000009
 50
180.0
 51
253.69073455361359
  0
ARC
  5
DBEE
  8
0
 10
700.54384161631015
 20
154.52272068512909
 30
0.0
 40
75.000000000000043
 50
253.69073455361359
 51
286.30926544644012
  0
ARC
  5
DBEF
  8
0
 10
700.54384161631015
 20
154.52272068512929
 30
0.0
 40
75.000000000000199
 50
73.690734553613609
 51
106.30926544638631
  0
ARC
  5
DBF0
  8
0
 10
721.04384161631015
 20
224.58519280822819
 30
0.0
 40
1.9999999999999989
 50
0.0
 51
73.690734553613609
  0
ARC
  5
DBF1
  8
0
 10
721.04384161631015
 20
84.460248562030515
 30
0.0
 40
1.9999999999999889
 50
286.30926544644012
 51
0.0
  0
LINE
  5
DBFC
  8
0
 10
678.04384161631015
 20
224.58519280822819
 30
0.0
 11
678.04384161631015
 21
84.460248562030515
 31
0.0
  0
LINE
  5
DBFE
  8
0
 10
723.04384161631015
 20
224.58519280822819
 30
0.0
 11
723.04384161631015
 21
84.460248562030515
 31
0.0
  0
LINE
  5
DC04
  8
0
 10
392.53428809197112
 20
436.30690611222337
 30
0.0
 11
392.53428809197112
 21
439.30690611222337
 31
0.0
  0
LINE
  5
DC05
  8
0
 10
392.53428809197112
 20
495.30690611222337
 30
0.0
 11
392.53428809197112
 21
498.30690611222337
 31
0.0
  0
CIRCLE
  5
DC0A
  8
0
 10
463.23428809197088
 20
467.30690611222349
 30
0.0
 40
12.75
  0
CIRCLE
  5
DC0B
  8
0
 10
463.23428809197088
 20
467.30690611222349
 30
0.0
 40
40.349999999999987
  0
CIRCLE
  5
DC0C
  8
0
 10
463.23428809197088
 20
467.30690611222349
 30
0.0
 40
43.349999999999987
  0
CIRCLE
  5
DC0D
  8
0
 10
463.23428809197088
 20
467.30690611222349
 30
0.0
 40
47.0
  0
CIRCLE
  5
DC0E
  8
0
 10
463.23428809197088
 20
467.30690611222349
 30
0.0
 40
51.0
  0
LINE
  5
DC12
  8
0
 10
409.23428809197088
 20
436.30690611222337
 30
0.0
 11
409.23428809197088
 21
498.30690611222337
 31
0.0
  0
LINE
  5
DC14
  8
0
 10
392.53428809197112
 20
436.30690611222337
 30
0.0
 11
422.73737462933792
 21
436.30690611222337
 31
0.0
  0
LINE
  5
DC17
  8
0
 10
422.73737462933792
 20
498.30690611222337
 30
0.0
 11
392.53428809197112
 21
498.30690611222337
 31
0.0
  0
LINE
  5
DC1F
  8
0
 10
409.23428809197088
 20
495.30690611222337
 30
0.0
 11
392.53428809197112
 21
495.30690611222337
 31
0.0
  0
LINE
  5
DC20
  8
0
 10
392.53428809197112
 20
439.30690611222337
 30
0.0
 11
409.23428809197088
 21
439.30690611222337
 31
0.0
  0
CIRCLE
  5
DC22
  8
0
 10
463.23428809197088
 20
467.30690611222349
 30
0.0
 40
10.0
  0
LINE
  5
DC23
  8
1
 10
319.47802054068188
 20
467.30690611222349
 30
0.0
 11
525.58119956602422
 21
467.30690611222349
 31
0.0
  0
LINE
  5
DC24
  8
1
 10
463.23428809197088
 20
529.65381758627666
 30
0.0
 11
463.23428809197088
 21
404.9599946381702
 31
0.0
  0
LINE
  5
DC25
  8
0
 10
415.54928809197099
 20
436.30690611222337
 30
0.0
 11
415.54928809197099
 21
435.70690611222358
 31
0.0
  0
LINE
  5
DC26
  8
0
 10
398.91928809197088
 20
435.70690611222358
 30
0.0
 11
398.91928809197088
 21
436.30690611222337
 31
0.0
  0
LINE
  5
DC27
  8
0
 10
413.23428809197088
 20
512.23340611222352
 30
0.0
 11
413.23428809197088
 21
510.30690611222337
 31
0.0
  0
LINE
  5
DC28
  8
0
 10
401.23428809197088
 20
510.30690611222337
 30
0.0
 11
401.23428809197088
 21
512.23340611222352
 31
0.0
  0
LINE
  5
DC29
  8
0
 10
412.16078809197091
 20
513.30690611222349
 30
0.0
 11
413.23428809197088
 21
512.23340611222352
 31
0.0
  0
LINE
  5
DC2A
  8
0
 10
401.23428809197088
 20
512.23340611222352
 30
0.0
 11
402.30778809197091
 21
513.30690611222349
 31
0.0
  0
LINE
  5
DC2D
  8
0
 10
415.54928809197099
 20
510.30690611222337
 30
0.0
 11
415.54928809197099
 21
506.55690611222349
 31
0.0
  0
LINE
  5
DC2E
  8
0
 10
398.91928809197088
 20
506.55690611222349
 30
0.0
 11
398.91928809197088
 21
510.30690611222337
 31
0.0
  0
LINE
  5
DC32
  8
0
 10
397.23428809197088
 20
439.30690611222337
 30
0.0
 11
397.23428809197088
 21
444.80690611222337
 31
0.0
  0
LINE
  5
DC34
  8
0
 10
397.23428809197088
 20
489.80690611222337
 30
0.0
 11
397.23428809197088
 21
495.30690611222337
 31
0.0
  0
LINE
  5
DC35
  8
0
 10
401.23428809197088
 20
512.23340611222352
 30
0.0
 11
413.23428809197088
 21
512.23340611222352
 31
0.0
  0
LINE
  5
DC36
  8
0
 10
402.30778809197091
 20
513.30690611222349
 30
0.0
 11
412.16078809197091
 21
513.30690611222349
 31
0.0
  0
LINE
  5
DC37
  8
0
 10
398.57178809197097
 20
428.80690611222349
 30
0.0
 11
415.89678809197079
 21
428.80690611222349
 31
0.0
  0
LINE
  5
DC38
  8
0
 10
398.57178809197097
 20
435.70690611222358
 30
0.0
 11
415.89678809197079
 21
435.70690611222358
 31
0.0
  0
POLYLINE
  5
DC43
  8
0
 66
     1
 10
0.0
 20
0.0
 30
0.0
  0
VERTEX
  5
14592
  8
0
 10
411.56553809197112
 20
435.70690611222358
 30
0.0
  0
VERTEX
  5
14593
  8
0
 10
410.87008663642331
 20
435.69695385670019
 30
0.0
  0
VERTEX
  5
14594
  8
0
 10
409.47380622976971
 20
435.61836906329989
 30
0.0
  0
VERTEX
  5
14595
  8
0
 10
408.0124299401736
 20
435.45973065166999
 30
0.0
  0
VERTEX
  5
14596
  8
0
 10
407.23428809197088
 20
435.34782916423751
 30
0.0
  0
SEQEND
  5
14597
  8
0
  0
POLYLINE
  5
DC44
  8
0
 66
     1
 10
0.0
 20
0.0
 30
0.0
  0
VERTEX
  5
14598
  8
0
 10
407.23428809197088
 20
429.1659830602095
 30
0.0
  0
VERTEX
  5
14599
  8
0
 10
408.0124299401736
 20
429.05408157277702
 30
0.0
  0
VERTEX
  5
1459A
  8
0
 10
409.47380622976971
 20
428.89544316114751
 30
0.0
  0
VERTEX
  5
1459B
  8
0
 10
410.87008663642331
 20
428.8168583677467
 30
0.0
  0
VERTEX
  5
1459C
  8
0
 10
411.56553809197112
 20
428.80690611222349
 30
0.0
  0
SEQEND
  5
1459D
  8
0
  0
POLYLINE
  5
DC45
  8
0
 66
     1
 10
0.0
 20
0.0
 30
0.0
  0
VERTEX
  5
1459E
  8
0
 10
411.56553809197112
 20
428.80690611222349
 30
0.0
  0
VERTEX
  5
1459F
  8
0
 10
412.26098954751842
 20
428.8168583677467
 30
0.0
  0
VERTEX
  5
145A0
  8
0
 10
413.65726995417202
 20
428.89544316114751
 30
0.0
  0
VERTEX
  5
145A1
  8
0
 10
415.11864624376813
 20
429.05408157277702
 30
0.0
  0
VERTEX
  5
145A2
  8
0
 10
415.89678809197079
 20
429.1659830602095
 30
0.0
  0
SEQEND
  5
145A3
  8
0
  0
POLYLINE
  5
DC46
  8
0
 66
     1
 10
0.0
 20
0.0
 30
0.0
  0
VERTEX
  5
145A4
  8
0
 10
415.89678809197079
 20
435.34782916423751
 30
0.0
  0
VERTEX
  5
145A5
  8
0
 10
415.11864624376813
 20
435.45973065166999
 30
0.0
  0
VERTEX
  5
145A6
  8
0
 10
413.65726995417202
 20
435.61836906329989
 30
0.0
  0
VERTEX
  5
145A7
  8
0
 10
412.26098954751842
 20
435.69695385670019
 30
0.0
  0
VERTEX
  5
145A8
  8
0
 10
411.56553809197112
 20
435.70690611222358
 30
0.0
  0
SEQEND
  5
145A9
  8
0
  0
POLYLINE
  5
DC47
  8
0
 66
     1
 10
0.0
 20
0.0
 30
0.0
  0
VERTEX
  5
145AA
  8
0
 10
402.9030380919707
 20
435.70690611222358
 30
0.0
  0
VERTEX
  5
145AB
  8
0
 10
402.2075866364234
 20
435.69695385670019
 30
0.0
  0
VERTEX
  5
145AC
  8
0
 10
400.8113062297698
 20
435.61836906329989
 30
0.0
  0
VERTEX
  5
145AD
  8
0
 10
399.34992994017369
 20
435.45973065166999
 30
0.0
  0
VERTEX
  5
145AE
  8
0
 10
398.57178809197097
 20
435.34782916423751
 30
0.0
  0
SEQEND
  5
145AF
  8
0
  0
POLYLINE
  5
DC49
  8
0
 66
     1
 10
0.0
 20
0.0
 30
0.0
  0
VERTEX
  5
145B0
  8
0
 10
398.57178809197097
 20
429.1659830602095
 30
0.0
  0
VERTEX
  5
145B1
  8
0
 10
399.34992994017369
 20
429.05408157277702
 30
0.0
  0
VERTEX
  5
145B2
  8
0
 10
400.8113062297698
 20
428.89544316114751
 30
0.0
  0
VERTEX
  5
145B3
  8
0
 10
402.2075866364234
 20
428.8168583677467
 30
0.0
  0
VERTEX
  5
145B4
  8
0
 10
402.9030380919707
 20
428.80690611222349
 30
0.0
  0
SEQEND
  5
145B5
  8
0
  0
POLYLINE
  5
DC4A
  8
0
 66
     1
 10
0.0
 20
0.0
 30
0.0
  0
VERTEX
  5
145B6
  8
0
 10
402.9030380919707
 20
428.80690611222349
 30
0.0
  0
VERTEX
  5
145B7
  8
0
 10
403.59848954751851
 20
428.8168583677467
 30
0.0
  0
VERTEX
  5
145B8
  8
0
 10
404.99476995417211
 20
428.89544316114751
 30
0.0
  0
VERTEX
  5
145B9
  8
0
 10
406.45614624376822
 20
429.05408157277702
 30
0.0
  0
VERTEX
  5
145BA
  8
0
 10
407.23428809197088
 20
429.1659830602095
 30
0.0
  0
SEQEND
  5
145BB
  8
0
  0
LINE
  5
DC4B
  8
0
 10
407.23428809197088
 20
429.1659830602095
 30
0.0
 11
407.23428809197088
 21
435.34782916423751
 31
0.0
  0
POLYLINE
  5
DC4C
  8
0
 66
     1
 10
0.0
 20
0.0
 30
0.0
  0
VERTEX
  5
145BC
  8
0
 10
407.23428809197088
 20
435.34782916423751
 30
0.0
  0
VERTEX
  5
145BD
  8
0
 10
406.45614624376822
 20
435.45973065166999
 30
0.0
  0
VERTEX
  5
145BE
  8
0
 10
404.99476995417211
 20
435.61836906329989
 30
0.0
  0
VERTEX
  5
145BF
  8
0
 10
403.59848954751851
 20
435.69695385670019
 30
0.0
  0
VERTEX
  5
145C0
  8
0
 10
402.9030380919707
 20
435.70690611222358
 30
0.0
  0
SEQEND
  5
145C1
  8
0
  0
LINE
  5
DC50
  8
0
 10
398.91928809197088
 20
510.30690611222337
 30
0.0
 11
415.54928809197099
 21
510.30690611222337
 31
0.0
  0
LINE
  5
DC51
  8
0
 10
398.57178809197097
 20
506.55690611222349
 30
0.0
 11
415.89678809197079
 21
506.55690611222349
 31
0.0
  0
POLYLINE
  5
DC5C
  8
0
 66
     1
 10
0.0
 20
0.0
 30
0.0
  0
VERTEX
  5
145C2
  8
0
 10
411.56553809197112
 20
506.55690611222349
 30
0.0
  0
VERTEX
  5
145C3
  8
0
 10
410.87008663642331
 20
506.54695385670061
 30
0.0
  0
VERTEX
  5
145C4
  8
0
 10
409.47380622976971
 20
506.4683690632998
 30
0.0
  0
VERTEX
  5
145C5
  8
0
 10
408.0124299401736
 20
506.30973065167041
 30
0.0
  0
VERTEX
  5
145C6
  8
0
 10
407.23428809197088
 20
506.19782916423742
 30
0.0
  0
SEQEND
  5
145C7
  8
0
  0
POLYLINE
  5
DC5D
  8
0
 66
     1
 10
0.0
 20
0.0
 30
0.0
  0
VERTEX
  5
145C8
  8
0
 10
407.23428809197088
 20
498.6659830602095
 30
0.0
  0
VERTEX
  5
145C9
  8
0
 10
408.0124299401736
 20
498.55408157277702
 30
0.0
  0
VERTEX
  5
145CA
  8
0
 10
409.47380622976971
 20
498.39544316114763
 30
0.0
  0
VERTEX
  5
145CB
  8
0
 10
410.87008663642331
 20
498.31685836774682
 30
0.0
  0
VERTEX
  5
145CC
  8
0
 10
411.56553809197112
 20
498.30690611222337
 30
0.0
  0
SEQEND
  5
145CD
  8
0
  0
POLYLINE
  5
DC5E
  8
0
 66
     1
 10
0.0
 20
0.0
 30
0.0
  0
VERTEX
  5
145CE
  8
0
 10
411.56553809197112
 20
498.30690611222337
 30
0.0
  0
VERTEX
  5
145CF
  8
0
 10
412.26098954751842
 20
498.31685836774682
 30
0.0
  0
VERTEX
  5
145D0
  8
0
 10
413.65726995417202
 20
498.39544316114763
 30
0.0
  0
VERTEX
  5
145D1
  8
0
 10
415.11864624376813
 20
498.55408157277702
 30
0.0
  0
VERTEX
  5
145D2
  8
0
 10
415.89678809197079
 20
498.6659830602095
 30
0.0
  0
SEQEND
  5
145D3
  8
0
  0
POLYLINE
  5
DC5F
  8
0
 66
     1
 10
0.0
 20
0.0
 30
0.0
  0
VERTEX
  5
145D4
  8
0
 10
415.89678809197079
 20
506.19782916423742
 30
0.0
  0
VERTEX
  5
145D5
  8
0
 10
415.11864624376813
 20
506.30973065167041
 30
0.0
  0
VERTEX
  5
145D6
  8
0
 10
413.65726995417202
 20
506.4683690632998
 30
0.0
  0
VERTEX
  5
145D7
  8
0
 10
412.26098954751842
 20
506.54695385670061
 30
0.0
  0
VERTEX
  5
145D8
  8
0
 10
411.56553809197112
 20
506.55690611222349
 30
0.0
  0
SEQEND
  5
145D9
  8
0
  0
POLYLINE
  5
DC60
  8
0
 66
     1
 10
0.0
 20
0.0
 30
0.0
  0
VERTEX
  5
145DA
  8
0
 10
402.9030380919707
 20
506.55690611222349
 30
0.0
  0
VERTEX
  5
145DB
  8
0
 10
402.2075866364234
 20
506.54695385670061
 30
0.0
  0
VERTEX
  5
145DC
  8
0
 10
400.8113062297698
 20
506.4683690632998
 30
0.0
  0
VERTEX
  5
145DD
  8
0
 10
399.34992994017369
 20
506.30973065167041
 30
0.0
  0
VERTEX
  5
145DE
  8
0
 10
398.57178809197097
 20
506.19782916423742
 30
0.0
  0
SEQEND
  5
145DF
  8
0
  0
POLYLINE
  5
DC62
  8
0
 66
     1
 10
0.0
 20
0.0
 30
0.0
  0
VERTEX
  5
145E0
  8
0
 10
398.57178809197097
 20
498.6659830602095
 30
0.0
  0
VERTEX
  5
145E1
  8
0
 10
399.34992994017369
 20
498.55408157277702
 30
0.0
  0
VERTEX
  5
145E2
  8
0
 10
400.8113062297698
 20
498.39544316114763
 30
0.0
  0
VERTEX
  5
145E3
  8
0
 10
402.2075866364234
 20
498.31685836774682
 30
0.0
  0
VERTEX
  5
145E4
  8
0
 10
402.9030380919707
 20
498.30690611222337
 30
0.0
  0
SEQEND
  5
145E5
  8
0
  0
POLYLINE
  5
DC63
  8
0
 66
     1
 10
0.0
 20
0.0
 30
0.0
  0
VERTEX
  5
145E6
  8
0
 10
402.9030380919707
 20
498.30690611222337
 30
0.0
  0
VERTEX
  5
145E7
  8
0
 10
403.59848954751851
 20
498.31685836774682
 30
0.0
  0
VERTEX
  5
145E8
  8
0
 10
404.99476995417211
 20
498.39544316114763
 30
0.0
  0
VERTEX
  5
145E9
  8
0
 10
406.45614624376822
 20
498.55408157277702
 30
0.0
  0
VERTEX
  5
145EA
  8
0
 10
407.23428809197088
 20
498.6659830602095
 30
0.0
  0
SEQEND
  5
145EB
  8
0
  0
LINE
  5
DC64
  8
0
 10
407.23428809197088
 20
498.6659830602095
 30
0.0
 11
407.23428809197088
 21
506.19782916423742
 31
0.0
  0
POLYLINE
  5
DC65
  8
0
 66
     1
 10
0.0
 20
0.0
 30
0.0
  0
VERTEX
  5
145EC
  8
0
 10
407.23428809197088
 20
506.19782916423742
 30
0.0
  0
VERTEX
  5
145ED
  8
0
 10
406.45614624376822
 20
506.30973065167041
 30
0.0
  0
VERTEX
  5
145EE
  8
0
 10
404.99476995417211
 20
506.4683690632998
 30
0.0
  0
VERTEX
  5
145EF
  8
0
 10
403.59848954751851
 20
506.54695385670061
 30
0.0
  0
VERTEX
  5
145F0
  8
0
 10
402.9030380919707
 20
506.55690611222349
 30
0.0
  0
SEQEND
  5
145F1
  8
0
  0
LINE
  5
DC6E
  8
1
 10
407.23428809197088
 20
417.4599946381702
 30
0.0
 11
407.23428809197088
 21
524.65381758627677
 31
0.0
  0
ARC
  5
DC8D
  8
0
 10
337.17181596887212
 20
446.80690611222349
 30
0.0
 40
1.9999999999999569
 50
196.30926544641139
 51
270.0
  0
ARC
  5
DC8F
  8
0
 10
407.23428809197088
 20
467.30690611222349
 30
0.0
 40
75.000000000000057
 50
163.69073455358861
 51
196.30926544641139
  0
ARC
  5
DC91
  8
0
 10
337.17181596887212
 20
487.80690611222349
 30
0.0
 40
1.9999999999999989
 50
90.0
 51
163.69073455358861
  0
LINE
  5
DC9D
  8
0
 10
337.17181596887212
 20
444.80690611222337
 30
0.0
 11
409.23723154491779
 21
444.80690611222337
 31
0.0
  0
LINE
  5
DCA1
  8
0
 10
337.17181596887212
 20
489.80690611222337
 30
0.0
 11
409.23723154491779
 21
489.80690611222337
 31
0.0
  0
LINE
  5
117A8
  8
0
 10
126.6747345676972
 20
264.22272068512922
 30
0.0
 11
126.6747345676972
 21
267.52272068512929
 31
0.0
  0
LINE
  5
117A9
  8
0
 10
101.1747345676972
 20
267.52272068512929
 30
0.0
 11
101.1747345676972
 21
264.22272068512922
 31
0.0
  0
LINE
  5
117AA
  8
2
 10
123.93679150824801
 20
264.22272068512922
 30
0.0
 11
103.91267762714639
 21
264.22272068512922
 31
0.0
  0
ARC
  5
117AB
  8
0
 10
73.574734567697305
 20
261.2227206851291
 30
0.0
 40
2.9999999999999849
 50
90.0
 51
180.0
  0
ARC
  5
117AC
  8
0
 10
154.2747345676971
 20
261.2227206851291
 30
0.0
 40
2.9999999999999849
 50
0.0
 51
90.0
  0
LINE
  5
117AD
  8
0
 10
157.2747345676971
 20
260.72272068512922
 30
0.0
 11
157.2747345676971
 21
261.2227206851291
 31
0.0
  0
LINE
  5
117AE
  8
0
 10
70.574734567697305
 20
261.2227206851291
 30
0.0
 11
70.574734567697305
 21
260.72272068512922
 31
0.0
  0
ARC
  5
117AF
  8
0
 10
66.924734567697215
 20
256.72272068512922
 30
0.0
 40
4.0000000000000142
 50
90.0
 51
180.0
  0
ARC
  5
117B0
  8
0
 10
160.92473456769719
 20
256.72272068512922
 30
0.0
 40
4.0000000000000142
 50
0.0
 51
90.0
  0
LINE
  5
117B1
  8
0
 10
164.92473456769719
 20
255.72272068512919
 30
0.0
 11
164.92473456769719
 21
256.72272068512922
 31
0.0
  0
LINE
  5
117B2
  8
0
 10
62.924734567697207
 20
256.72272068512922
 30
0.0
 11
62.924734567697207
 21
255.72272068512919
 31
0.0
  0
LINE
  5
117B3
  8
0
 10
161.42473456769719
 20
199.10817957300131
 30
0.0
 11
161.42473456769719
 21
255.72272068512919
 31
0.0
  0
LINE
  5
117B4
  8
0
 10
66.424734567697215
 20
255.72272068512919
 30
0.0
 11
66.424734567697215
 21
199.10817957300131
 31
0.0
  0
LINE
  5
117BD
  8
0
 10
101.1747345676972
 20
267.52272068512929
 30
0.0
 11
126.6747345676972
 21
267.52272068512929
 31
0.0
  0
LINE
  5
117BE
  8
0
 10
73.574734567697305
 20
264.22272068512922
 30
0.0
 11
154.2747345676971
 21
264.22272068512922
 31
0.0
  0
LINE
  5
117C0
  8
0
 10
66.924734567697215
 20
260.72272068512922
 30
0.0
 11
160.92473456769719
 21
260.72272068512922
 31
0.0
  0
LINE
  5
117C2
  8
0
 10
62.924734567697207
 20
255.72272068512919
 30
0.0
 11
164.92473456769719
 21
255.72272068512919
 31
0.0
  0
LINE
  5
117C3
  8
0
 10
144.92473456769719
 20
253.72272068512919
 30
0.0
 11
82.924734567697215
 21
253.72272068512919
 31
0.0
  0
LINE
  5
117C4
  8
0
 10
144.92473456769719
 20
156.21273410166981
 30
0.0
 11
144.92473456769719
 21
253.72272068512919
 31
0.0
  0
LINE
  5
117C5
  8
0
 10
82.924734567697215
 20
253.72272068512919
 30
0.0
 11
82.924734567697215
 21
156.21273410166981
 31
0.0
  0
LINE
  5
117CB
  8
0
 10
144.92473456769719
 20
156.21273410166981
 30
0.0
 11
144.92473456769719
 21
143.52272068512929
 31
0.0
  0
LINE
  5
117CC
  8
0
 10
141.92473456769719
 20
143.52272068512929
 30
0.0
 11
144.92473456769719
 21
143.52272068512929
 31
0.0
  0
LINE
  5
117CD
  8
0
 10
82.924734567697215
 20
143.52272068512929
 30
0.0
 11
85.924734567697215
 21
143.52272068512929
 31
0.0
  0
LINE
  5
117CE
  8
0
 10
82.924734567697215
 20
143.52272068512929
 30
0.0
 11
82.924734567697215
 21
156.21273410166981
 31
0.0
  0
POLYLINE
  5
117D0
  8
0
 66
     1
 10
0.0
 20
0.0
 30
0.0
  0
VERTEX
  5
145F2
  8
0
 10
85.924734567697215
 20
241.0886921039735
 30
0.0
  0
VERTEX
  5
145F3
  8
0
 10
86.530470262304789
 20
241.65954985755499
 30
0.0
  0
VERTEX
  5
145F4
  8
0
 10
87.580410048049984
 20
242.59118826889451
 30
0.0
  0
VERTEX
  5
145F5
  8
0
 10
88.113794931899974
 20
243.04325891998471
 30
0.0
  0
VERTEX
  5
145F6
  8
0
 10
88.652639762440231
 20
243.4860357137257
 30
0.0
  0
VERTEX
  5
145F7
  8
0
 10
89.746252192090196
 20
244.34333506177131
 30
0.0
  0
VERTEX
  5
145F8
  8
0
 10
90.860322031703177
 20
245.16236095219509
 30
0.0
  0
VERTEX
  5
145F9
  8
0
 10
91.99390666697127
 20
245.94242040732499
 30
0.0
  0
VERTEX
  5
145FA
  8
0
 10
93.146046972120516
 20
246.68285341898471
 30
0.0
  0
VERTEX
  5
145FB
  8
0
 10
94.315768121428846
 20
247.38303350692439
 30
0.0
  0
VERTEX
  5
145FC
  8
0
 10
94.906912789365833
 20
247.7178422282488
 30
0.0
  0
VERTEX
  5
145FD
  8
0
 10
95.502080414023126
 20
248.04236824888741
 30
0.0
  0
VERTEX
  5
145FE
  8
0
 10
96.703980111268265
 20
248.66029978185651
 30
0.0
  0
VERTEX
  5
145FF
  8
0
 10
97.920450286027986
 20
249.2363052740632
 30
0.0
  0
VERTEX
  5
14600
  8
0
 10
99.150461683087087
 20
249.7698973673553
 30
0.0
  0
VERTEX
  5
14601
  8
0
 10
99.790605470659116
 20
250.0227206851294
 30
0.0
  0
SEQEND
  5
14602
  8
0
  0
POLYLINE
  5
117D3
  8
0
 66
     1
 10
0.0
 20
0.0
 30
0.0
  0
VERTEX
  5
14603
  8
0
 10
76.329919585736661
 20
164.52531409883949
 30
0.0
  0
VERTEX
  5
14604
  8
0
 10
75.962009890280115
 20
165.08029826929351
 30
0.0
  0
VERTEX
  5
14605
  8
0
 10
74.642191625911892
 20
167.279451090485
 30
0.0
  0
VERTEX
  5
14606
  8
0
 10
73.411973804860281
 20
169.5512027805037
 30
0.0
  0
VERTEX
  5
14607
  8
0
 10
72.274162458860246
 20
171.89037164938509
 30
0.0
  0
VERTEX
  5
14608
  8
0
 10
71.231352847621565
 20
174.2916222337924
 30
0.0
  0
VERTEX
  5
14609
  8
0
 10
70.74632561136832
 20
175.51382177777759
 30
0.0
  0
VERTEX
  5
1460A
  8
0
 10
70.285923539242944
 20
176.7494774667955
 30
0.0
  0
VERTEX
  5
1460B
  8
0
 10
69.44003098488065
 20
179.2583311706376
 30
0.0
  0
VERTEX
  5
1460C
  8
0
 10
68.695604600050956
 20
181.81246084399211
 30
0.0
  0
VERTEX
  5
1460D
  8
0
 10
68.05434236378278
 20
184.40604071454709
 30
0.0
  0
VERTEX
  5
1460E
  8
0
 10
67.517706945656755
 20
187.03315502714079
 30
0.0
  0
VERTEX
  5
1460F
  8
0
 10
67.086922369572676
 20
189.68781153714161
 30
0.0
  0
VERTEX
  5
14610
  8
0
 10
66.911540701745707
 20
191.02357798512821
 30
0.0
  0
VERTEX
  5
14611
  8
0
 10
66.762971221841326
 20
192.3639551782955
 30
0.0
  0
VERTEX
  5
14612
  8
0
 10
66.546592409985351
 20
195.0554818738633
 30
0.0
  0
VERTEX
  5
14613
  8
0
 10
66.438279477344622
 20
197.75625245954819
 30
0.0
  0
VERTEX
  5
14614
  8
0
 10
66.424734567697215
 20
199.10817957300131
 30
0.0
  0
SEQEND
  5
14615
  8
0
  0
POLYLINE
  5
117D6
  8
0
 66
     1
 10
0.0
 20
0.0
 30
0.0
  0
VERTEX
  5
14616
  8
0
 10
161.42473456769719
 20
199.10817957300131
 30
0.0
  0
VERTEX
  5
14617
  8
0
 10
161.4111896580493
 20
197.75625245954819
 30
0.0
  0
VERTEX
  5
14618
  8
0
 10
161.30287672540911
 20
195.0554818738633
 30
0.0
  0
VERTEX
  5
14619
  8
0
 10
161.0864979135531
 20
192.3639551782955
 30
0.0
  0
VERTEX
  5
1461A
  8
0
 10
160.93792843364869
 20
191.02357798512821
 30
0.0
  0
VERTEX
  5
1461B
  8
0
 10
160.7625467658217
 20
189.68781153714161
 30
0.0
  0
VERTEX
  5
1461C
  8
0
 10
160.33176218973759
 20
187.03315502714079
 30
0.0
  0
VERTEX
  5
1461D
  8
0
 10
159.79512677161159
 20
184.40604071454709
 30
0.0
  0
VERTEX
  5
1461E
  8
0
 10
159.1538645353435
 20
181.81246084399211
 30
0.0
  0
VERTEX
  5
1461F
  8
0
 10
158.40943815051381
 20
179.2583311706376
 30
0.0
  0
VERTEX
  5
14620
  8
0
 10
157.56354559615141
 20
176.7494774667955
 30
0.0
  0
VERTEX
  5
14621
  8
0
 10
157.10314352402611
 20
175.51382177777759
 30
0.0
  0
VERTEX
  5
14622
  8
0
 10
156.61811628777281
 20
174.2916222337924
 30
0.0
  0
VERTEX
  5
14623
  8
0
 10
155.57530667653421
 20
171.89037164938509
 30
0.0
  0
VERTEX
  5
14624
  8
0
 10
154.43749533053409
 20
169.5512027805037
 30
0.0
  0
VERTEX
  5
14625
  8
0
 10
153.20727750948251
 20
167.279451090485
 30
0.0
  0
VERTEX
  5
14626
  8
0
 10
151.88745924511429
 20
165.08029826929331
 30
0.0
  0
VERTEX
  5
14627
  8
0
 10
151.51954954965771
 20
164.52531409883949
 30
0.0
  0
SEQEND
  5
14628
  8
0
  0
LINE
  5
117D8
  8
0
 10
85.924734567697215
 20
250.0227206851294
 30
0.0
 11
141.92473456769719
 21
250.0227206851294
 31
0.0
  0
LINE
  5
117D9
  8
0
 10
85.924734567697215
 20
143.52272068512929
 30
0.0
 11
85.924734567697215
 21
250.0227206851296
 31
0.0
  0
LINE
  5
117DC
  8
0
 10
141.92473456769719
 20
250.0227206851296
 30
0.0
 11
141.92473456769719
 21
143.52272068512929
 31
0.0
  0
LINE
  5
117DE
  8
0
 10
144.92473456769719
 20
146.20772068512929
 30
0.0
 11
145.5247345676971
 21
146.20772068512929
 31
0.0
  0
LINE
  5
117DF
  8
0
 10
145.5247345676971
 20
162.8377206851294
 30
0.0
 11
144.92473456769719
 21
162.8377206851294
 31
0.0
  0
LINE
  5
117E0
  8
0
 10
68.998234567697182
 20
148.52272068512929
 30
0.0
 11
70.924734567697215
 21
148.52272068512929
 31
0.0
  0
LINE
  5
117E1
  8
0
 10
70.924734567697215
 20
160.52272068512929
 30
0.0
 11
68.998234567697182
 21
160.52272068512929
 31
0.0
  0
LINE
  5
117E2
  8
0
 10
67.924734567697215
 20
149.59622068512931
 30
0.0
 11
68.998234567697182
 21
148.52272068512929
 31
0.0
  0
LINE
  5
117E3
  8
0
 10
68.998234567697182
 20
160.52272068512929
 30
0.0
 11
67.924734567697215
 21
159.4492206851294
 31
0.0
  0
LINE
  5
117E4
  8
0
 10
152.42473456769719
 20
163.1852206851292
 30
0.0
 11
152.06565761971109
 21
164.52531409883949
 31
0.0
  0
LINE
  5
117E5
  8
0
 10
152.06565761971109
 20
144.52012727141911
 30
0.0
 11
152.42473456769719
 21
145.86022068512941
 31
0.0
  0
LINE
  5
117E6
  8
0
 10
145.88381151568319
 20
164.52531409883949
 30
0.0
 11
145.5247345676971
 21
163.1852206851292
 31
0.0
  0
LINE
  5
117E7
  8
0
 10
145.5247345676971
 20
145.86022068512941
 30
0.0
 11
145.88381151568319
 21
144.52012727141911
 31
0.0
  0
LINE
  5
117EA
  8
0
 10
70.924734567697215
 20
146.20772068512929
 30
0.0
 11
74.674734567697215
 21
146.20772068512929
 31
0.0
  0
LINE
  5
117EB
  8
0
 10
74.674734567697215
 20
162.8377206851294
 30
0.0
 11
70.924734567697215
 21
162.8377206851294
 31
0.0
  0
LINE
  5
117EC
  8
0
 10
82.924734567697215
 20
163.1852206851292
 30
0.0
 11
82.565657619711146
 21
164.52531409883949
 31
0.0
  0
LINE
  5
117ED
  8
0
 10
82.565657619711146
 20
144.52012727141911
 30
0.0
 11
82.924734567697215
 21
145.86022068512941
 31
0.0
  0
LINE
  5
117EE
  8
0
 10
75.033811515683283
 20
164.52531409883949
 30
0.0
 11
74.674734567697215
 21
163.1852206851292
 31
0.0
  0
LINE
  5
117EF
  8
0
 10
74.674734567697215
 20
145.86022068512941
 30
0.0
 11
75.033811515683283
 21
144.52012727141911
 31
0.0
  0
LINE
  5
117F2
  8
0
 10
85.924734567697215
 20
144.52272068512929
 30
0.0
 11
91.424734567697215
 21
144.52272068512929
 31
0.0
  0
LINE
  5
117F4
  8
0
 10
136.42473456769719
 20
144.52272068512929
 30
0.0
 11
141.92473456769719
 21
144.52272068512929
 31
0.0
  0
LINE
  5
117F5
  8
0
 10
141.92473456769719
 20
164.52272068512929
 30
0.0
 11
136.42473456769719
 21
164.52272068512929
 31
0.0
  0
LINE
  5
117F7
  8
0
 10
91.424734567697215
 20
164.52272068512929
 30
0.0
 11
85.924734567697215
 21
164.52272068512929
 31
0.0
  0
LINE
  5
117F8
  8
0
 10
68.998234567697182
 20
160.52272068512929
 30
0.0
 11
68.998234567697182
 21
148.52272068512929
 31
0.0
  0
LINE
  5
117F9
  8
0
 10
67.924734567697215
 20
159.4492206851294
 30
0.0
 11
67.924734567697215
 21
149.59622068512931
 31
0.0
  0
LINE
  5
117FA
  8
0
 10
152.42473456769719
 20
163.1852206851292
 30
0.0
 11
152.42473456769719
 21
145.86022068512941
 31
0.0
  0
LINE
  5
117FC
  8
0
 10
145.5247345676971
 20
163.1852206851292
 30
0.0
 11
145.5247345676971
 21
145.86022068512941
 31
0.0
  0
POLYLINE
  5
117FD
  8
0
 66
     1
 10
0.0
 20
0.0
 30
0.0
  0
VERTEX
  5
14629
  8
0
 10
152.06565761971109
 20
149.52142397827421
 30
0.0
  0
VERTEX
  5
1462A
  8
0
 10
152.17755910714371
 20
149.0721635727466
 30
0.0
  0
VERTEX
  5
1462B
  8
0
 10
152.33619751877359
 20
148.22843757856089
 30
0.0
  0
VERTEX
  5
1462C
  8
0
 10
152.41478231217391
 20
147.42229470991529
 30
0.0
  0
VERTEX
  5
1462D
  8
0
 10
152.42473456769719
 20
147.02077562484669
 30
0.0
  0
SEQEND
  5
1462E
  8
0
  0
POLYLINE
  5
117FE
  8
0
 66
     1
 10
0.0
 20
0.0
 30
0.0
  0
VERTEX
  5
1462F
  8
0
 10
152.42473456769719
 20
147.02077562484669
 30
0.0
  0
VERTEX
  5
14630
  8
0
 10
152.41478231217391
 20
146.61925653977801
 30
0.0
  0
VERTEX
  5
14631
  8
0
 10
152.33619751877359
 20
145.81311367113219
 30
0.0
  0
VERTEX
  5
14632
  8
0
 10
152.17755910714371
 20
144.96938767694681
 30
0.0
  0
VERTEX
  5
14633
  8
0
 10
152.06565761971109
 20
144.52012727141911
 30
0.0
  0
SEQEND
  5
14634
  8
0
  0
POLYLINE
  5
117FF
  8
0
 66
     1
 10
0.0
 20
0.0
 30
0.0
  0
VERTEX
  5
14635
  8
0
 10
145.88381151568319
 20
144.52012727141911
 30
0.0
  0
VERTEX
  5
14636
  8
0
 10
145.7719100282506
 20
144.96938767694681
 30
0.0
  0
VERTEX
  5
14637
  8
0
 10
145.6132716166212
 20
145.81311367113219
 30
0.0
  0
VERTEX
  5
14638
  8
0
 10
145.5346868232204
 20
146.61925653977801
 30
0.0
  0
VERTEX
  5
14639
  8
0
 10
145.5247345676971
 20
147.02077562484669
 30
0.0
  0
SEQEND
  5
1463A
  8
0
  0
POLYLINE
  5
11800
  8
0
 66
     1
 10
0.0
 20
0.0
 30
0.0
  0
VERTEX
  5
1463B
  8
0
 10
145.5247345676971
 20
147.02077562484669
 30
0.0
  0
VERTEX
  5
1463C
  8
0
 10
145.5346868232204
 20
147.42229470991529
 30
0.0
  0
VERTEX
  5
1463D
  8
0
 10
145.6132716166212
 20
148.22843757856089
 30
0.0
  0
VERTEX
  5
1463E
  8
0
 10
145.7719100282506
 20
149.0721635727466
 30
0.0
  0
VERTEX
  5
1463F
  8
0
 10
145.88381151568319
 20
149.52142397827421
 30
0.0
  0
SEQEND
  5
14640
  8
0
  0
LINE
  5
11801
  8
0
 10
152.06565761971109
 20
144.52012727141911
 30
0.0
 11
145.88381151568319
 21
144.52012727141911
 31
0.0
  0
POLYLINE
  5
11806
  8
0
 66
     1
 10
0.0
 20
0.0
 30
0.0
  0
VERTEX
  5
14641
  8
0
 10
152.06565761971109
 20
149.52142397827421
 30
0.0
  0
VERTEX
  5
14642
  8
0
 10
152.17755910714371
 20
150.41994478932949
 30
0.0
  0
VERTEX
  5
14643
  8
0
 10
152.33619751877359
 20
152.10739677770059
 30
0.0
  0
VERTEX
  5
14644
  8
0
 10
152.41478231217391
 20
153.71968251499189
 30
0.0
  0
VERTEX
  5
14645
  8
0
 10
152.42473456769719
 20
154.52272068512929
 30
0.0
  0
SEQEND
  5
14646
  8
0
  0
POLYLINE
  5
11807
  8
0
 66
     1
 10
0.0
 20
0.0
 30
0.0
  0
VERTEX
  5
14647
  8
0
 10
152.42473456769719
 20
154.52272068512929
 30
0.0
  0
VERTEX
  5
14648
  8
0
 10
152.41478231217391
 20
155.32575885526671
 30
0.0
  0
VERTEX
  5
14649
  8
0
 10
152.33619751877359
 20
156.93804459255799
 30
0.0
  0
VERTEX
  5
1464A
  8
0
 10
152.17755910714371
 20
158.62549658092911
 30
0.0
  0
VERTEX
  5
1464B
  8
0
 10
152.06565761971109
 20
159.52401739198439
 30
0.0
  0
SEQEND
  5
1464C
  8
0
  0
POLYLINE
  5
11808
  8
0
 66
     1
 10
0.0
 20
0.0
 30
0.0
  0
VERTEX
  5
1464D
  8
0
 10
145.88381151568319
 20
159.52401739198439
 30
0.0
  0
VERTEX
  5
1464E
  8
0
 10
145.7719100282506
 20
158.62549658092911
 30
0.0
  0
VERTEX
  5
1464F
  8
0
 10
145.6132716166212
 20
156.93804459255799
 30
0.0
  0
VERTEX
  5
14650
  8
0
 10
145.5346868232204
 20
155.32575885526671
 30
0.0
  0
VERTEX
  5
14651
  8
0
 10
145.5247345676971
 20
154.52272068512929
 30
0.0
  0
SEQEND
  5
14652
  8
0
  0
POLYLINE
  5
11809
  8
0
 66
     1
 10
0.0
 20
0.0
 30
0.0
  0
VERTEX
  5
14653
  8
0
 10
145.5247345676971
 20
154.52272068512929
 30
0.0
  0
VERTEX
  5
14654
  8
0
 10
145.5346868232204
 20
153.71968251499189
 30
0.0
  0
VERTEX
  5
14655
  8
0
 10
145.61327161662069
 20
152.10739677770059
 30
0.0
  0
VERTEX
  5
14656
  8
0
 10
145.7719100282506
 20
150.41994478932949
 30
0.0
  0
VERTEX
  5
14657
  8
0
 10
145.88381151568319
 20
149.52142397827421
 30
0.0
  0
SEQEND
  5
14658
  8
0
  0
POLYLINE
  5
1180A
  8
0
 66
     1
 10
0.0
 20
0.0
 30
0.0
  0
VERTEX
  5
14659
  8
0
 10
145.5247345676971
 20
162.02466574541199
 30
0.0
  0
VERTEX
  5
1465A
  8
0
 10
145.5346868232204
 20
162.42618483048071
 30
0.0
  0
VERTEX
  5
1465B
  8
0
 10
145.6132716166212
 20
163.2323276991265
 30
0.0
  0
VERTEX
  5
1465C
  8
0
 10
145.7719100282506
 20
164.07605369331191
 30
0.0
  0
VERTEX
  5
1465D
  8
0
 10
145.88381151568319
 20
164.52531409883949
 30
0.0
  0
SEQEND
  5
1465E
  8
0
  0
POLYLINE
  5
1180B
  8
0
 66
     1
 10
0.0
 20
0.0
 30
0.0
  0
VERTEX
  5
1465F
  8
0
 10
152.06565761971109
 20
164.52531409883949
 30
0.0
  0
VERTEX
  5
14660
  8
0
 10
152.17755910714371
 20
164.07605369331191
 30
0.0
  0
VERTEX
  5
14661
  8
0
 10
152.33619751877359
 20
163.2323276991265
 30
0.0
  0
VERTEX
  5
14662
  8
0
 10
152.41478231217391
 20
162.42618483048071
 30
0.0
  0
VERTEX
  5
14663
  8
0
 10
152.42473456769719
 20
162.02466574541199
 30
0.0
  0
SEQEND
  5
14664
  8
0
  0
POLYLINE
  5
1180C
  8
0
 66
     1
 10
0.0
 20
0.0
 30
0.0
  0
VERTEX
  5
14665
  8
0
 10
152.42473456769719
 20
162.02466574541199
 30
0.0
  0
VERTEX
  5
14666
  8
0
 10
152.41478231217391
 20
161.62314666034331
 30
0.0
  0
VERTEX
  5
14667
  8
0
 10
152.33619751877359
 20
160.81700379169769
 30
0.0
  0
VERTEX
  5
14668
  8
0
 10
152.17755910714371
 20
159.97327779751211
 30
0.0
  0
VERTEX
  5
14669
  8
0
 10
152.06565761971109
 20
159.52401739198439
 30
0.0
  0
SEQEND
  5
1466A
  8
0
  0
POLYLINE
  5
1180D
  8
0
 66
     1
 10
0.0
 20
0.0
 30
0.0
  0
VERTEX
  5
1466B
  8
0
 10
145.88381151568319
 20
159.52401739198439
 30
0.0
  0
VERTEX
  5
1466C
  8
0
 10
145.7719100282506
 20
159.97327779751211
 30
0.0
  0
VERTEX
  5
1466D
  8
0
 10
145.6132716166212
 20
160.81700379169769
 30
0.0
  0
VERTEX
  5
1466E
  8
0
 10
145.5346868232204
 20
161.62314666034331
 30
0.0
  0
VERTEX
  5
1466F
  8
0
 10
145.5247345676971
 20
162.02466574541199
 30
0.0
  0
SEQEND
  5
14670
  8
0
  0
LINE
  5
11811
  8
0
 10
152.06565761971109
 20
164.52531409883949
 30
0.0
 11
151.5326041160983
 21
164.52531409883949
 31
0.0
  0
LINE
  5
11812
  8
0
 10
151.5326041160983
 20
164.52531409883949
 30
0.0
 11
145.88381151568319
 21
164.52531409883949
 31
0.0
  0
LINE
  5
11816
  8
0
 10
152.06565761971109
 20
159.52401739198439
 30
0.0
 11
145.88381151568319
 21
159.52401739198439
 31
0.0
  0
LINE
  5
1181A
  8
0
 10
152.06565761971109
 20
149.52142397827421
 30
0.0
 11
145.88381151568319
 21
149.52142397827421
 31
0.0
  0
LINE
  5
1181C
  8
0
 10
70.924734567697215
 20
162.8377206851294
 30
0.0
 11
70.924734567697215
 21
146.20772068512929
 31
0.0
  0
LINE
  5
1181D
  8
0
 10
74.674734567697215
 20
163.1852206851292
 30
0.0
 11
74.674734567697215
 21
145.86022068512941
 31
0.0
  0
POLYLINE
  5
1181E
  8
0
 66
     1
 10
0.0
 20
0.0
 30
0.0
  0
VERTEX
  5
14671
  8
0
 10
82.565657619711146
 20
149.52142397827421
 30
0.0
  0
VERTEX
  5
14672
  8
0
 10
82.677559107143679
 20
149.0721635727466
 30
0.0
  0
VERTEX
  5
14673
  8
0
 10
82.836197518773574
 20
148.22843757856089
 30
0.0
  0
VERTEX
  5
14674
  8
0
 10
82.914782312173884
 20
147.42229470991529
 30
0.0
  0
VERTEX
  5
14675
  8
0
 10
82.924734567697215
 20
147.02077562484669
 30
0.0
  0
SEQEND
  5
14676
  8
0
  0
POLYLINE
  5
1181F
  8
0
 66
     1
 10
0.0
 20
0.0
 30
0.0
  0
VERTEX
  5
14677
  8
0
 10
82.924734567697215
 20
147.02077562484669
 30
0.0
  0
VERTEX
  5
14678
  8
0
 10
82.914782312173884
 20
146.61925653977801
 30
0.0
  0
VERTEX
  5
14679
  8
0
 10
82.836197518773574
 20
145.81311367113219
 30
0.0
  0
VERTEX
  5
1467A
  8
0
 10
82.677559107143679
 20
144.96938767694681
 30
0.0
  0
VERTEX
  5
1467B
  8
0
 10
82.565657619711146
 20
144.52012727141911
 30
0.0
  0
SEQEND
  5
1467C
  8
0
  0
POLYLINE
  5
11820
  8
0
 66
     1
 10
0.0
 20
0.0
 30
0.0
  0
VERTEX
  5
1467D
  8
0
 10
75.033811515683283
 20
144.52012727141911
 30
0.0
  0
VERTEX
  5
1467E
  8
0
 10
74.92191002825075
 20
144.96938767694681
 30
0.0
  0
VERTEX
  5
1467F
  8
0
 10
74.763271616620841
 20
145.81311367113219
 30
0.0
  0
VERTEX
  5
14680
  8
0
 10
74.684686823220545
 20
146.61925653977801
 30
0.0
  0
VERTEX
  5
14681
  8
0
 10
74.674734567697215
 20
147.02077562484669
 30
0.0
  0
SEQEND
  5
14682
  8
0
  0
POLYLINE
  5
11821
  8
0
 66
     1
 10
0.0
 20
0.0
 30
0.0
  0
VERTEX
  5
14683
  8
0
 10
74.674734567697215
 20
147.02077562484669
 30
0.0
  0
VERTEX
  5
14684
  8
0
 10
74.684686823220545
 20
147.42229470991529
 30
0.0
  0
VERTEX
  5
14685
  8
0
 10
74.763271616620841
 20
148.22843757856089
 30
0.0
  0
VERTEX
  5
14686
  8
0
 10
74.92191002825075
 20
149.0721635727466
 30
0.0
  0
VERTEX
  5
14687
  8
0
 10
75.033811515683283
 20
149.52142397827421
 30
0.0
  0
SEQEND
  5
14688
  8
0
  0
LINE
  5
11822
  8
0
 10
82.565657619711146
 20
144.52012727141911
 30
0.0
 11
75.033811515683283
 21
144.52012727141911
 31
0.0
  0
POLYLINE
  5
11827
  8
0
 66
     1
 10
0.0
 20
0.0
 30
0.0
  0
VERTEX
  5
14689
  8
0
 10
82.565657619711146
 20
149.52142397827421
 30
0.0
  0
VERTEX
  5
1468A
  8
0
 10
82.677559107143679
 20
150.41994478932949
 30
0.0
  0
VERTEX
  5
1468B
  8
0
 10
82.836197518773574
 20
152.10739677770059
 30
0.0
  0
VERTEX
  5
1468C
  8
0
 10
82.914782312173884
 20
153.71968251499189
 30
0.0
  0
VERTEX
  5
1468D
  8
0
 10
82.924734567697215
 20
154.52272068512929
 30
0.0
  0
SEQEND
  5
1468E
  8
0
  0
POLYLINE
  5
11828
  8
0
 66
     1
 10
0.0
 20
0.0
 30
0.0
  0
VERTEX
  5
1468F
  8
0
 10
82.924734567697215
 20
154.52272068512929
 30
0.0
  0
VERTEX
  5
14690
  8
0
 10
82.914782312173884
 20
155.32575885526671
 30
0.0
  0
VERTEX
  5
14691
  8
0
 10
82.836197518773574
 20
156.93804459255799
 30
0.0
  0
VERTEX
  5
14692
  8
0
 10
82.677559107143679
 20
158.62549658092911
 30
0.0
  0
VERTEX
  5
14693
  8
0
 10
82.565657619711146
 20
159.52401739198439
 30
0.0
  0
SEQEND
  5
14694
  8
0
  0
POLYLINE
  5
11829
  8
0
 66
     1
 10
0.0
 20
0.0
 30
0.0
  0
VERTEX
  5
14695
  8
0
 10
75.033811515683283
 20
159.52401739198439
 30
0.0
  0
VERTEX
  5
14696
  8
0
 10
74.92191002825075
 20
158.62549658092911
 30
0.0
  0
VERTEX
  5
14697
  8
0
 10
74.763271616620841
 20
156.93804459255799
 30
0.0
  0
VERTEX
  5
14698
  8
0
 10
74.684686823220545
 20
155.32575885526671
 30
0.0
  0
VERTEX
  5
14699
  8
0
 10
74.674734567697215
 20
154.52272068512929
 30
0.0
  0
SEQEND
  5
1469A
  8
0
  0
POLYLINE
  5
1182A
  8
0
 66
     1
 10
0.0
 20
0.0
 30
0.0
  0
VERTEX
  5
1469B
  8
0
 10
74.674734567697215
 20
154.52272068512929
 30
0.0
  0
VERTEX
  5
1469C
  8
0
 10
74.684686823220545
 20
153.71968251499189
 30
0.0
  0
VERTEX
  5
1469D
  8
0
 10
74.763271616620841
 20
152.10739677770059
 30
0.0
  0
VERTEX
  5
1469E
  8
0
 10
74.92191002825075
 20
150.41994478932949
 30
0.0
  0
VERTEX
  5
1469F
  8
0
 10
75.033811515683283
 20
149.52142397827421
 30
0.0
  0
SEQEND
  5
146A0
  8
0
  0
POLYLINE
  5
1182B
  8
0
 66
     1
 10
0.0
 20
0.0
 30
0.0
  0
VERTEX
  5
146A1
  8
0
 10
74.674734567697215
 20
162.02466574541199
 30
0.0
  0
VERTEX
  5
146A2
  8
0
 10
74.684686823220545
 20
162.42618483048071
 30
0.0
  0
VERTEX
  5
146A3
  8
0
 10
74.763271616620841
 20
163.2323276991265
 30
0.0
  0
VERTEX
  5
146A4
  8
0
 10
74.92191002825075
 20
164.07605369331191
 30
0.0
  0
VERTEX
  5
146A5
  8
0
 10
75.033811515683283
 20
164.52531409883949
 30
0.0
  0
SEQEND
  5
146A6
  8
0
  0
POLYLINE
  5
1182C
  8
0
 66
     1
 10
0.0
 20
0.0
 30
0.0
  0
VERTEX
  5
146A7
  8
0
 10
82.565657619711146
 20
164.52531409883949
 30
0.0
  0
VERTEX
  5
146A8
  8
0
 10
82.677559107143679
 20
164.07605369331191
 30
0.0
  0
VERTEX
  5
146A9
  8
0
 10
82.836197518773574
 20
163.2323276991265
 30
0.0
  0
VERTEX
  5
146AA
  8
0
 10
82.914782312173884
 20
162.42618483048071
 30
0.0
  0
VERTEX
  5
146AB
  8
0
 10
82.924734567697215
 20
162.02466574541199
 30
0.0
  0
SEQEND
  5
146AC
  8
0
  0
POLYLINE
  5
1182D
  8
0
 66
     1
 10
0.0
 20
0.0
 30
0.0
  0
VERTEX
  5
146AD
  8
0
 10
82.924734567697215
 20
162.02466574541199
 30
0.0
  0
VERTEX
  5
146AE
  8
0
 10
82.914782312173884
 20
161.62314666034331
 30
0.0
  0
VERTEX
  5
146AF
  8
0
 10
82.836197518773574
 20
160.81700379169769
 30
0.0
  0
VERTEX
  5
146B0
  8
0
 10
82.677559107143679
 20
159.97327779751211
 30
0.0
  0
VERTEX
  5
146B1
  8
0
 10
82.565657619711146
 20
159.52401739198439
 30
0.0
  0
SEQEND
  5
146B2
  8
0
  0
POLYLINE
  5
1182E
  8
0
 66
     1
 10
0.0
 20
0.0
 30
0.0
  0
VERTEX
  5
146B3
  8
0
 10
75.033811515683283
 20
159.52401739198439
 30
0.0
  0
VERTEX
  5
146B4
  8
0
 10
74.92191002825075
 20
159.97327779751211
 30
0.0
  0
VERTEX
  5
146B5
  8
0
 10
74.763271616620841
 20
160.81700379169769
 30
0.0
  0
VERTEX
  5
146B6
  8
0
 10
74.684686823220545
 20
161.62314666034331
 30
0.0
  0
VERTEX
  5
146B7
  8
0
 10
74.674734567697215
 20
162.02466574541199
 30
0.0
  0
SEQEND
  5
146B8
  8
0
  0
LINE
  5
11833
  8
0
 10
82.565657619711146
 20
164.52531409883949
 30
0.0
 11
75.033811515683283
 21
164.52531409883949
 31
0.0
  0
LINE
  5
11837
  8
0
 10
82.565657619711146
 20
159.52401739198439
 30
0.0
 11
75.033811515683283
 21
159.52401739198439
 31
0.0
  0
POLYLINE
  5
11839
  8
0
 66
     1
 10
0.0
 20
0.0
 30
0.0
  0
VERTEX
  5
146B9
  8
0
 10
82.878673854230314
 20
156.2570025008647
 30
0.0
  0
VERTEX
  5
146BA
  8
0
 10
82.89268026668924
 20
155.9673212789655
 30
0.0
  0
VERTEX
  5
146BB
  8
0
 10
82.913127111272374
 20
155.39012425666459
 30
0.0
  0
VERTEX
  5
146BC
  8
0
 10
82.923434378004004
 20
154.8127050381147
 30
0.0
  0
VERTEX
  5
146BD
  8
0
 10
82.924734567697215
 20
154.52272068512929
 30
0.0
  0
SEQEND
  5
146BE
  8
0
  0
LINE
  5
1183B
  8
0
 10
82.565657619711146
 20
149.52142397827421
 30
0.0
 11
75.033811515683283
 21
149.52142397827421
 31
0.0
  0
ARC
  5
11862
  8
0
 10
134.42473456769719
 20
224.58519280822819
 30
0.0
 40
1.999999999999996
 50
0.0
 51
73.690734553613609
  0
ARC
  5
11863
  8
0
 10
134.42473456769719
 20
84.460248562030515
 30
0.0
 40
2.0000000000000009
 50
286.30926544638641
 51
0.0
  0
ARC
  5
11864
  8
0
 10
113.9247345676972
 20
154.52272068512909
 30
0.0
 40
75.000000000000043
 50
253.69073455355991
 51
286.30926544638641
  0
ARC
  5
11865
  8
0
 10
113.9247345676972
 20
154.52272068512929
 30
0.0
 40
75.000000000000199
 50
73.690734553613609
 51
106.30926544638631
  0
ARC
  5
11866
  8
0
 10
93.424734567697215
 20
224.58519280822819
 30
0.0
 40
1.9999999999999989
 50
106.30926544638631
 51
180.0
  0
ARC
  5
11867
  8
0
 10
93.424734567697215
 20
84.460248562030515
 30
0.0
 40
1.9999999999999889
 50
180.0
 51
253.69073455355991
  0
LINE
  5
11872
  8
0
 10
136.42473456769719
 20
224.58519280822819
 30
0.0
 11
136.42473456769719
 21
84.460248562030515
 31
0.0
  0
LINE
  5
11874
  8
0
 10
91.424734567697215
 20
224.58519280822819
 30
0.0
 11
91.424734567697215
 21
84.460248562030515
 31
0.0
  0
LINE
  5
1187A
  8
3
 10
746.54384161631015
 20
159.4492206851294
 30
0.0
 11
743.54384161631015
 21
159.4492206851294
 31
0.0
  0
LINE
  5
1187B
  8
3
 10
746.54384161631015
 20
149.59622068512931
 30
0.0
 11
743.54384161631015
 21
149.59622068512931
 31
0.0
  0
LINE
  5
1187C
  8
2
 10
745.54384161631015
 20
199.10817957300131
 30
0.0
 11
745.54384161631015
 21
253.52272068512929
 31
0.0
  0
LINE
  5
1187D
  8
2
 10
655.54384161631015
 20
253.52272068512929
 30
0.0
 11
655.54384161631015
 21
199.10817957300131
 31
0.0
  0
LINE
  5
1187E
  8
2
 10
710.54384161631015
 20
253.52272068512929
 30
0.0
 11
710.54384161631015
 21
267.52272068512929
 31
0.0
  0
LINE
  5
1187F
  8
2
 10
690.54384161631015
 20
267.52272068512929
 30
0.0
 11
690.54384161631015
 21
253.52272068512929
 31
0.0
  0
LINE
  5
11880
  8
2
 10
655.54384161631015
 20
253.52272068512929
 30
0.0
 11
745.54384161631015
 21
253.52272068512929
 31
0.0
  0
LINE
  5
11881
  8
0
 10
402.53428809197112
 20
143.52272068512909
 30
0.0
 11
411.9342880919707
 21
143.52272068512909
 31
0.0
  0
LINE
  5
11882
  8
1
 10
463.23428809197088
 20
283.24626953769513
 30
0.0
 11
463.23428809197088
 21
225.72982135463241
 31
0.0
  0
CIRCLE
  5
11883
  8
0
 10
407.23428809197088
 20
154.5227206851286
 30
0.0
 40
8.6625000000000121
  0
LINE
  5
11884
  8
1
 10
316.51073923940572
 20
154.5227206851286
 30
0.0
 11
497.95783694453712
 21
154.5227206851286
 31
0.0
  0
LINE
  5
11885
  8
1
 10
407.23428809197128
 20
63.799171832563161
 30
0.0
 11
407.23428809197128
 21
223.68150988936529
 31
0.0
  0
LINE
  5
11886
  8
0
 10
407.23428809197128
 20
164.52531409883909
 30
0.0
 11
415.89678809197079
 21
159.5240173919837
 31
0.0
  0
LINE
  5
11887
  8
0
 10
415.89678809197079
 20
159.5240173919837
 30
0.0
 11
415.89678809197079
 21
149.5214239782735
 31
0.0
  0
LINE
  5
11888
  8
0
 10
415.89678809197079
 20
149.5214239782735
 30
0.0
 11
407.23428809197128
 21
144.5201272714182
 31
0.0
  0
LINE
  5
11889
  8
0
 10
407.23428809197048
 20
164.52531409883909
 30
0.0
 11
398.57178809197097
 21
159.52401739198399
 31
0.0
  0
LINE
  5
1188A
  8
0
 10
398.57178809197097
 20
159.52401739198399
 30
0.0
 11
398.57178809197057
 21
149.5214239782735
 31
0.0
  0
LINE
  5
1188B
  8
0
 10
398.57178809197057
 20
149.5214239782735
 30
0.0
 11
407.23428809196997
 21
144.5201272714182
 31
0.0
  0
LINE
  5
1188D
  8
1
 10
753.02220987385579
 20
154.52272068512889
 30
0.0
 11
648.06547335876439
 21
154.52272068512889
 31
0.0
  0
LINE
  5
1188E
  8
1
 10
700.54384161631015
 20
63.799171832563381
 30
0.0
 11
700.54384161631015
 21
283.24626953769513
 31
0.0
  0
LINE
  5
118F5
  8
1
 10
61.446366310118719
 20
154.52272068512889
 30
0.0
 11
166.4031028252102
 21
154.52272068512889
 31
0.0
  0
LINE
  5
118F6
  8
1
 10
113.9247345676644
 20
63.799171832563381
 30
0.0
 11
113.9247345676644
 21
283.24626953769513
 31
0.0
  0
POLYLINE
  5
118F7
  8
0
 66
     1
 10
0.0
 20
0.0
 30
0.0
  0
VERTEX
  5
146BF
  8
0
 10
128.0588636647353
 20
250.0227206851294
 30
0.0
  0
VERTEX
  5
146C0
  8
0
 10
128.69900745230731
 20
249.7698973673553
 30
0.0
  0
VERTEX
  5
146C1
  8
0
 10
129.9290188493664
 20
249.2363052740632
 30
0.0
  0
VERTEX
  5
146C2
  8
0
 10
131.14548902412611
 20
248.66029978185651
 30
0.0
  0
VERTEX
  5
146C3
  8
0
 10
132.34738872137129
 20
248.04236824888741
 30
0.0
  0
VERTEX
  5
146C4
  8
0
 10
132.9425563460286
 20
247.7178422282488
 30
0.0
  0
VERTEX
  5
146C5
  8
0
 10
133.53370101396601
 20
247.38303350692439
 30
0.0
  0
VERTEX
  5
146C6
  8
0
 10
134.7034221632739
 20
246.68285341898471
 30
0.0
  0
VERTEX
  5
146C7
  8
0
 10
135.8555624684231
 20
245.94242040732499
 30
0.0
  0
VERTEX
  5
146C8
  8
0
 10
136.98914710369121
 20
245.16236095219509
 30
0.0
  0
VERTEX
  5
146C9
  8
0
 10
138.1032169433042
 20
244.34333506177131
 30
0.0
  0
VERTEX
  5
146CA
  8
0
 10
139.1968293729546
 20
243.4860357137257
 30
0.0
  0
VERTEX
  5
146CB
  8
0
 10
139.7356742034944
 20
243.04325891998471
 30
0.0
  0
VERTEX
  5
146CC
  8
0
 10
140.2690590873444
 20
242.59118826889451
 30
0.0
  0
VERTEX
  5
146CD
  8
0
 10
141.31899887308961
 20
241.65954985755499
 30
0.0
  0
VERTEX
  5
146CE
  8
0
 10
141.92473456769719
 20
241.0886921039735
 30
0.0
  0
SEQEND
  5
146CF
  8
0
  0
LINE
  5
11938
  8
3
 10
67.924734567697215
 20
159.4492206851294
 30
0.0
 11
70.924734567697215
 21
159.4492206851294
 31
0.0
  0
LINE
  5
11939
  8
3
 10
67.924734567697215
 20
149.59622068512931
 30
0.0
 11
70.924734567697215
 21
149.59622068512931
 31
0.0
  0
LINE
  5
1193A
  8
3
 10
412.16078809197091
 20
513.30690611222349
 30
0.0
 11
412.16078809197091
 21
510.30690611222337
 31
0.0
  0
LINE
  5
1193B
  8
3
 10
402.30778809197091
 20
513.30690611222349
 30
0.0
 11
402.30778809197091
 21
510.30690611222337
 31
0.0
  0
LINE
  5
1423E
  8
0
 10
415.89678809197079
 20
506.55690611222349
 30
0.0
 11
415.89678809197079
 21
498.30690611222337
 31
0.0
  0
LINE
  5
1423F
  8
0
 10
398.57178809197097
 20
506.55690611222349
 30
0.0
 11
398.57178809197097
 21
498.30690611222337
 31
0.0
  0
LINE
  5
14240
  8
0
 10
398.57178809197097
 20
435.70690611222358
 30
0.0
 11
398.57178809197097
 21
428.80690611222349
 31
0.0
  0
LINE
  5
14241
  8
0
 10
415.89678809197079
 20
435.70690611222358
 30
0.0
 11
415.89678809197079
 21
428.80690611222349
 31
0.0
  0
TEXT
  5
1429D
  8
0
 62
     3
 10
0.0
 20
0.0
 30
0.0
 40
10.0
  1
CAG1-150FBL
  7
STANDARD1
  0
ENDSEC
  0
EOF
