  0
SECTION
  2
HEADER
  9
$ACADVER
  1
AC1009
  9
$INSBASE
 10
0.0
 20
0.0
 30
0.0
  9
$EXTMIN
 10
0.0
 20
-2.960436562073669
 30
0.0
  9
$EXTMAX
 10
337.81654600000002
 20
239.46608499999999
 30
0.0
  9
$LIMMIN
 10
0.0
 20
0.0
  9
$LIMMAX
 10
375.0
 20
270.0
  9
$ORTHOMODE
 70
     1
  9
$REGENMODE
 70
     1
  9
$FILLMODE
 70
     1
  9
$QTEXTMODE
 70
     0
  9
$MIRRTEXT
 70
     0
  9
$DRAGMODE
 70
     2
  9
$LTSCALE
 40
10.0
  9
$OSMODE
 70
  3071
  9
$ATTMODE
 70
     1
  9
$TEXTSIZE
 40
0.2
  9
$TRACEWID
 40
0.05
  9
$TEXTSTYLE
  7
STANDARD
  9
$CLAYER
  8
0
  9
$CELTYPE
  6
BYLAYER
  9
$CECOLOR
 62
   256
  9
$DIMSCALE
 40
1.0
  9
$DIMASZ
 40
3.0
  9
$DIMEXO
 40
2.0
  9
$DIMDLI
 40
0.38
  9
$DIMRND
 40
0.0
  9
$DIMDLE
 40
0.0
  9
$DIMEXE
 40
2.0
  9
$DIMTP
 40
0.0
  9
$DIMTM
 40
0.0
  9
$DIMTXT
 40
3.2000000000000002
  9
$DIMCEN
 40
0.0
  9
$DIMTSZ
 40
0.0
  9
$DIMTOL
 70
     0
  9
$DIMLIM
 70
     0
  9
$DIMTIH
 70
     0
  9
$DIMTOH
 70
     0
  9
$DIMSE1
 70
     0
  9
$DIMSE2
 70
     0
  9
$DIMTAD
 70
     1
  9
$DIMZIN
 70
     0
  9
$DIMBLK
  1

  9
$DIMASO
 70
     0
  9
$DIMSHO
 70
     0
  9
$DIMPOST
  1

  9
$DIMAPOST
  1

  9
$DIMALT
 70
     0
  9
$DIMALTD
 70
     2
  9
$DIMALTF
 40
25.399999999999999
  9
$DIMLFAC
 40
1.0
  9
$DIMTOFL
 70
     1
  9
$DIMTVP
 40
1.6000000000000001
  9
$DIMTIX
 70
     1
  9
$DIMSOXD
 70
     0
  9
$DIMSAH
 70
     0
  9
$DIMBLK1
  1

  9
$DIMBLK2
  1

  9
$DIMSTYLE
  2
STANDARD
  9
$DIMCLRD
 70
     0
  9
$DIMCLRE
 70
     0
  9
$DIMCLRT
 70
     0
  9
$DIMTFAC
 40
1.0
  9
$DIMGAP
 40
0.09
  9
$LUNITS
 70
     2
  9
$LUPREC
 70
     4
  9
$SKETCHINC
 40
0.1
  9
$FILLETRAD
 40
0.0
  9
$AUNITS
 70
     0
  9
$AUPREC
 70
     4
  9
$MENU
  1
E:\r13\win\SUPPORT\ACAD
  9
$ELEVATION
 40
0.0
  9
$PELEVATION
 40
0.0
  9
$THICKNESS
 40
0.0
  9
$LIMCHECK
 70
     0
  9
$BLIPMODE
 70
     0
  9
$CHAMFERA
 40
0.0
  9
$CHAMFERB
 40
0.0
  9
$SKPOLY
 70
     0
  9
$TDCREATE
 40
2449839.778680556
  9
$TDUPDATE
 40
2456598.579009132
  9
$TDINDWG
 40
0.000086169
  9
$TDUSRTIMER
 40
0.000086169
  9
$USRTIMER
 70
     1
  9
$ANGBASE
 50
0.0
  9
$ANGDIR
 70
     0
  9
$PDMODE
 70
     0
  9
$PDSIZE
 40
0.0
  9
$PLINEWID
 40
0.0
  9
$COORDS
 70
     1
  9
$SPLFRAME
 70
     0
  9
$SPLINETYPE
 70
     6
  9
$SPLINESEGS
 70
     8
  9
$ATTDIA
 70
     0
  9
$ATTREQ
 70
     1
  9
$HANDLING
 70
     1
  9
$HANDSEED
  5
28C
  9
$SURFTAB1
 70
     6
  9
$SURFTAB2
 70
     6
  9
$SURFTYPE
 70
     6
  9
$SURFU
 70
     6
  9
$SURFV
 70
     6
  9
$UCSNAME
  2

  9
$UCSORG
 10
0.0
 20
0.0
 30
0.0
  9
$UCSXDIR
 10
1.0
 20
0.0
 30
0.0
  9
$UCSYDIR
 10
0.0
 20
1.0
 30
0.0
  9
$PUCSNAME
  2

  9
$PUCSORG
 10
0.0
 20
0.0
 30
0.0
  9
$PUCSXDIR
 10
1.0
 20
0.0
 30
0.0
  9
$PUCSYDIR
 10
0.0
 20
1.0
 30
0.0
  9
$USERI1
 70
     0
  9
$USERI2
 70
     1
  9
$USERI3
 70
     0
  9
$USERI4
 70
     0
  9
$USERI5
 70
     0
  9
$USERR1
 40
0.0
  9
$USERR2
 40
0.0
  9
$USERR3
 40
0.0
  9
$USERR4
 40
0.0
  9
$USERR5
 40
0.0
  9
$WORLDVIEW
 70
     1
  9
$SHADEDGE
 70
     3
  9
$SHADEDIF
 70
    70
  9
$TILEMODE
 70
     1
  9
$MAXACTVP
 70
    16
  9
$PLIMCHECK
 70
     0
  9
$PEXTMIN
 10
1.0000000000000000E+020
 20
1.0000000000000000E+020
 30
1.0000000000000000E+020
  9
$PEXTMAX
 10
-1.0000000000000000E+020
 20
-1.0000000000000000E+020
 30
-1.0000000000000000E+020
  9
$PLIMMIN
 10
0.0
 20
0.0
  9
$PLIMMAX
 10
12.0
 20
9.0
  9
$UNITMODE
 70
     0
  9
$VISRETAIN
 70
     0
  9
$PLINEGEN
 70
     0
  9
$PSLTSCALE
 70
     0
  0
ENDSEC
  0
SECTION
  2
TABLES
  0
TABLE
  2
VPORT
 70
     1
  0
VPORT
  2
*ACTIVE
 70
     0
 10
0.0
 20
0.0
 11
1.0
 21
1.0
 12
195.0581083320873
 22
133.5127261426681
 13
0.0
 23
0.0
 14
10.0
 24
10.0
 15
10.0
 25
10.0
 16
0.0
 26
0.0
 36
1.0
 17
0.0
 27
0.0
 37
0.0
 40
275.42274993631997
 41
1.831871345029239
 42
50.0
 43
0.0
 44
0.0
 50
0.0
 51
0.0
 71
     0
 72
   100
 73
     1
 74
     0
 75
     0
 76
     0
 77
     0
 78
     2
  0
ENDTAB
  0
TABLE
  2
LTYPE
 70
     4
  0
LTYPE
  2
CONTINUOUS
 70
     0
  3
Solid Line
 72
    65
 73
     0
 40
0.0
  0
LTYPE
  2
CENTER
 70
     0
  3
____ _ ____ _ ____ _ ____ _ ____ _ ____ _ ____
 72
    65
 73
     4
 40
2.0
 49
1.25
 49
-0.25
 49
0.25
 49
-0.25
  0
LTYPE
  2
HIDDEN
 70
     0
  3
_ _ _ _ _ _ _ _ _ _ _ _ _ _ _ _ _ _ _ _ _ _ _
 72
    65
 73
     2
 40
0.375
 49
0.25
 49
-0.125
  0
LTYPE
  2
PHANTOM2
 70
     0
  3
___ _ _ ___ _ _ ___ _ _ ___ _ _
 72
    65
 73
     6
 40
1.25
 49
0.625
 49
-0.125
 49
0.125
 49
-0.125
 49
0.125
 49
-0.125
  0
ENDTAB
  0
TABLE
  2
LAYER
 70
     4
  0
LAYER
  2
0
 70
     0
 62
     7
  6
CONTINUOUS
  0
LAYER
  2
1
 70
     0
 62
     1
  6
CENTER
  0
LAYER
  2
2
 70
     0
 62
     2
  6
HIDDEN
  0
LAYER
  2
3
 70
     0
 62
     3
  6
CONTINUOUS
  0
ENDTAB
  0
TABLE
  2
STYLE
 70
     2
  0
STYLE
  2
STANDARD
 70
     0
 40
0.0
 41
1.0
 50
0.0
 71
     0
 42
0.2
  3
ROMANS
  4
EXTFONT
  0
STYLE
  2
STANDARD1
 70
     0
 40
0.0
 41
1.0
 50
0.0
 71
     0
 42
3.0
  3
txt
  4

  0
ENDTAB
  0
TABLE
  2
VIEW
 70
     1
  0
VIEW
  2
ALL
 70
     0
 40
270.0
 10
220.99159700000001
 20
135.0
 41
0.0
 11
0.0
 21
0.0
 31
1.0
 12
0.0
 22
0.0
 32
0.0
 42
0.0
 43
0.0
 44
0.0
 50
0.0
 71
     0
  0
ENDTAB
  0
TABLE
  2
UCS
 70
     0
  0
ENDTAB
  0
TABLE
  2
APPID
 70
     3
  0
APPID
  2
ACAD
 70
     0
  0
APPID
  2
ACAD_MLEADERVER
 70
     0
  0
APPID
  2
ACAD_NAV_VCDISPLAY
 70
     0
  0
ENDTAB
  0
TABLE
  2
DIMSTYLE
 70
     1
  0
DIMSTYLE
  2
STANDARD
 70
     0
  3

  4

  5

  6

  7

 40
1.0
 41
0.18
 42
0.0625
 43
0.38
 44
0.18
 45
0.0
 46
0.0
 47
0.0
 48
0.0
140
0.18
141
0.09
142
0.0
143
25.399999999999999
144
1.0
145
0.0
146
1.0
147
0.09
 71
     0
 72
     0
 73
     1
 74
     1
 75
     0
 76
     0
 77
     0
 78
     0
170
     0
171
     2
172
     0
173
     0
174
     0
175
     0
176
     0
177
     0
178
     0
  0
ENDTAB
  0
ENDSEC
  0
SECTION
  2
BLOCKS
  0
BLOCK
  8
0
  2
$MODEL_SPACE
 70
     0
 10
0.0
 20
0.0
 30
0.0
  3
$MODEL_SPACE
  1

  0
ENDBLK
  5
140
  8
0
  0
BLOCK
 67
     1
  8
0
  2
$PAPER_SPACE
 70
     0
 10
0.0
 20
0.0
 30
0.0
  3
$PAPER_SPACE
  1

  0
ENDBLK
  5
13E
 67
     1
  8
0
  0
ENDSEC
  0
SECTION
  2
ENTITIES
  0
LINE
  5
37
  8
0
 10
317.81654600000002
 20
160.05709300000001
 30
0.0
 11
302.81654600000002
 21
151.396839
 31
0.0
  0
LINE
  5
38
  8
0
 10
332.81654600000002
 20
151.396839
 30
0.0
 11
317.81654600000002
 21
160.05709300000001
 31
0.0
  0
LINE
  5
39
  8
0
 10
332.81654600000002
 20
134.07633100000001
 30
0.0
 11
332.81654600000002
 21
151.396839
 31
0.0
  0
LINE
  5
3A
  8
0
 10
317.81654600000002
 20
125.416077
 30
0.0
 11
332.81654600000002
 21
134.07633100000001
 31
0.0
  0
LINE
  5
3B
  8
0
 10
302.81654600000002
 20
134.07633100000001
 30
0.0
 11
317.81654600000002
 21
125.416077
 31
0.0
  0
LINE
  5
3C
  8
0
 10
302.81654600000002
 20
151.396839
 30
0.0
 11
302.81654600000002
 21
134.07633100000001
 31
0.0
  0
CIRCLE
  5
3D
  8
3
 10
317.81654600000002
 20
142.73658499999999
 30
0.0
 40
8.6470000000000002
  0
CIRCLE
  5
3E
  8
0
 10
317.81654600000002
 20
142.73658499999999
 30
0.0
 40
10.0
  0
LINE
  5
3F
  8
1
 10
297.81654600000002
 20
142.73658499999999
 30
0.0
 11
337.81654600000002
 21
142.73658499999999
 31
0.0
  0
LINE
  5
40
  8
1
 10
317.81654600000002
 20
120.416077
 30
0.0
 11
317.81654600000002
 21
165.0570929999999
 31
0.0
  0
ARC
  5
41
  8
0
 10
317.81654600000002
 20
142.73658499999999
 30
0.0
 40
16.5
 50
95.380022999999994
 51
144.61997700000001
  0
ARC
  5
42
  8
0
 10
317.81654600000002
 20
142.73658499999999
 30
0.0
 40
16.5
 50
155.38002299999999
 51
204.61997700000001
  0
ARC
  5
43
  8
0
 10
317.81654600000002
 20
142.73658499999999
 30
0.0
 40
16.5
 50
215.38002299999999
 51
264.61997700000001
  0
ARC
  5
44
  8
0
 10
317.81654600000002
 20
142.73658499999999
 30
0.0
 40
16.5
 50
275.38002299999999
 51
324.61997700000001
  0
ARC
  5
45
  8
0
 10
317.81654600000002
 20
142.73658499999999
 30
0.0
 40
16.5
 50
335.38002299999999
 51
24.619976999999999
  0
ARC
  5
46
  8
0
 10
317.81654600000002
 20
142.73658499999999
 30
0.0
 40
16.5
 50
35.380023000000001
 51
84.619977000000006
  0
LINE
  5
47
  8
1
 10
132.70537100000001
 20
194.41608500000001
 30
0.0
 11
132.70537100000001
 21
239.46608499999999
 31
0.0
  0
LINE
  5
48
  8
1
 10
112.705371
 20
216.94108499999999
 30
0.0
 11
272.70537100000001
 21
216.94108499999999
 31
0.0
  0
LINE
  5
49
  8
1
 10
112.705371
 20
142.73658499999999
 30
0.0
 11
272.70537100000001
 21
142.73658499999999
 31
0.0
  0
LINE
  5
4A
  8
1
 10
132.70537100000001
 20
152.636585
 30
0.0
 11
132.70537100000001
 21
132.83658500000001
 31
0.0
  0
LINE
  5
4B
  8
0
 10
175.70537100000001
 20
206.94108499999999
 30
0.0
 11
175.70537100000001
 21
226.94108499999999
 31
0.0
  0
LINE
  5
4C
  8
0
 10
265.20537100000001
 20
226.94108499999999
 30
0.0
 11
265.20537100000001
 21
206.94108499999999
 31
0.0
  0
LINE
  5
4D
  8
0
 10
267.70537100000001
 20
209.44108499999999
 30
0.0
 11
265.20537100000001
 21
206.94108499999999
 31
0.0
  0
LINE
  5
4E
  8
0
 10
265.20537100000001
 20
226.94108499999999
 30
0.0
 11
267.70537100000001
 21
224.44108499999999
 31
0.0
  0
LINE
  5
4F
  8
0
 10
168.7053709999999
 20
226.94108499999999
 30
0.0
 11
201.70537100000001
 21
226.94108499999999
 31
0.0
  0
LINE
  5
50
  8
3
 10
175.70537100000001
 20
225.58808500000001
 30
0.0
 11
201.70537100000001
 21
225.58808500000001
 31
0.0
  0
LINE
  5
51
  8
3
 10
175.70537100000001
 20
208.294085
 30
0.0
 11
201.70537100000001
 21
208.294085
 31
0.0
  0
LINE
  5
52
  8
0
 10
168.7053709999999
 20
206.94108499999999
 30
0.0
 11
201.70537100000001
 21
206.94108499999999
 31
0.0
  0
LINE
  5
53
  8
0
 10
267.70537100000001
 20
224.44108499999999
 30
0.0
 11
267.70537100000001
 21
209.44108499999999
 31
0.0
  0
ARC
  5
54
  8
0
 10
168.7053709999999
 20
205.94108499999999
 30
0.0
 40
1.0
 50
90.0
 51
180.0
  0
ARC
  5
55
  8
0
 10
168.7053709999999
 20
227.94108499999999
 30
0.0
 40
1.0
 50
180.0
 51
270.0
  0
ARC
  5
56
  8
0
 10
168.7053709999999
 20
153.73658499999999
 30
0.0
 40
1.0
 50
180.0
 51
270.0
  0
ARC
  5
57
  8
0
 10
168.7053709999999
 20
131.73658499999999
 30
0.0
 40
1.0
 50
90.0
 51
180.0
  0
LINE
  5
58
  8
0
 10
267.70537100000001
 20
150.23658499999999
 30
0.0
 11
267.70537100000001
 21
135.23658499999999
 31
0.0
  0
LINE
  5
59
  8
0
 10
168.7053709999999
 20
132.73658499999999
 30
0.0
 11
201.70537100000001
 21
132.73658499999999
 31
0.0
  0
LINE
  5
5A
  8
3
 10
175.70537100000001
 20
134.089585
 30
0.0
 11
201.70537100000001
 21
134.089585
 31
0.0
  0
LINE
  5
5B
  8
3
 10
175.70537100000001
 20
151.38358500000001
 30
0.0
 11
201.70537100000001
 21
151.38358500000001
 31
0.0
  0
LINE
  5
5C
  8
0
 10
168.7053709999999
 20
152.73658499999999
 30
0.0
 11
201.70537100000001
 21
152.73658499999999
 31
0.0
  0
LINE
  5
5D
  8
0
 10
265.20537100000001
 20
152.73658499999999
 30
0.0
 11
267.70537100000001
 21
150.23658499999999
 31
0.0
  0
LINE
  5
5E
  8
0
 10
267.70537100000001
 20
135.23658499999999
 30
0.0
 11
265.20537100000001
 21
132.73658499999999
 31
0.0
  0
LINE
  5
5F
  8
0
 10
265.20537100000001
 20
152.73658499999999
 30
0.0
 11
265.20537100000001
 21
132.73658499999999
 31
0.0
  0
LINE
  5
60
  8
0
 10
175.70537100000001
 20
132.73658499999999
 30
0.0
 11
175.70537100000001
 21
152.73658499999999
 31
0.0
  0
LINE
  5
61
  8
0
 10
127.705371
 20
152.22341800000001
 30
0.0
 11
127.705371
 21
159.23658499999999
 31
0.0
  0
LINE
  5
62
  8
0
 10
127.705371
 20
126.23658500000001
 30
0.0
 11
127.705371
 21
133.249752
 31
0.0
  0
ARC
  5
63
  8
0
 10
133.767549
 20
142.73658499999999
 30
0.0
 40
11.258330000000001
 50
122.57897
 51
237.42103
  0
LINE
  5
64
  8
0
 10
117.705371
 20
206.21458799999999
 30
0.0
 11
117.705371
 21
227.66758200000001
 31
0.0
  0
LINE
  5
65
  8
0
 10
127.705371
 20
159.23658499999999
 30
0.0
 11
117.705371
 21
153.46308200000001
 31
0.0
  0
LINE
  5
66
  8
0
 10
127.705371
 20
126.23658500000001
 30
0.0
 11
117.705371
 21
132.010088
 31
0.0
  0
LINE
  5
67
  8
0
 10
127.705371
 20
203.19108499999999
 30
0.0
 11
127.705371
 21
230.69108499999999
 31
0.0
  0
ARC
  5
68
  8
0
 10
124.59063500000001
 20
142.73658499999999
 30
0.0
 40
26.846788
 50
339.30645900000002
 51
20.693541
  0
LINE
  5
69
  8
0
 10
149.70537100000001
 20
152.22341800000001
 30
0.0
 11
127.705371
 21
152.22341800000001
 31
0.0
  0
LINE
  5
6A
  8
0
 10
149.70537100000001
 20
133.249752
 30
0.0
 11
127.705371
 21
133.249752
 31
0.0
  0
LINE
  5
6B
  8
0
 10
167.70537100000001
 20
232.44108499999999
 30
0.0
 11
166.70537100000001
 21
233.44108499999999
 31
0.0
  0
LINE
  5
6C
  8
0
 10
166.70537100000001
 20
200.44108499999999
 30
0.0
 11
167.70537100000001
 21
201.44108499999999
 31
0.0
  0
LINE
  5
6D
  8
0
 10
167.70537100000001
 20
158.23658499999999
 30
0.0
 11
166.70537100000001
 21
159.23658499999999
 31
0.0
  0
LINE
  5
6E
  8
0
 10
166.70537100000001
 20
126.23658500000001
 30
0.0
 11
167.70537100000001
 21
127.23658500000001
 31
0.0
  0
LINE
  5
6F
  8
0
 10
167.70537100000001
 20
201.44108499999999
 30
0.0
 11
167.70537100000001
 21
232.44108499999999
 31
0.0
  0
LINE
  5
70
  8
0
 10
167.70537100000001
 20
127.23658500000001
 30
0.0
 11
167.70537100000001
 21
158.23658499999999
 31
0.0
  0
LINE
  5
71
  8
0
 10
166.70537100000001
 20
200.44108499999999
 30
0.0
 11
166.70537100000001
 21
233.44108499999999
 31
0.0
  0
LINE
  5
72
  8
0
 10
166.70537100000001
 20
126.23658500000001
 30
0.0
 11
166.70537100000001
 21
159.23658499999999
 31
0.0
  0
LINE
  5
73
  8
0
 10
149.84970899999999
 20
230.69108499999999
 30
0.0
 11
151.437422
 21
233.44108499999999
 31
0.0
  0
LINE
  5
74
  8
0
 10
149.84970899999999
 20
203.19108499999999
 30
0.0
 11
151.437422
 21
200.44108499999999
 31
0.0
  0
LINE
  5
75
  8
0
 10
149.70537100000001
 20
133.249752
 30
0.0
 11
149.70537100000001
 21
152.22341800000001
 31
0.0
  0
LINE
  5
76
  8
0
 10
127.705371
 20
159.23658499999999
 30
0.0
 11
166.70537100000001
 21
159.23658499999999
 31
0.0
  0
LINE
  5
77
  8
0
 10
127.705371
 20
126.23658500000001
 30
0.0
 11
166.70537100000001
 21
126.23658500000001
 31
0.0
  0
LINE
  5
78
  8
0
 10
151.437422
 20
233.44108499999999
 30
0.0
 11
166.70537100000001
 21
233.44108499999999
 31
0.0
  0
LINE
  5
79
  8
0
 10
151.437422
 20
200.44108499999999
 30
0.0
 11
166.70537100000001
 21
200.44108499999999
 31
0.0
  0
LINE
  5
7A
  8
0
 10
117.705371
 20
132.010088
 30
0.0
 11
117.705371
 21
153.46308200000001
 31
0.0
  0
CIRCLE
  5
7B
  8
0
 10
67.479171999999991
 20
142.73658499999999
 30
0.0
 40
16.5
  0
CIRCLE
  5
7C
  8
0
 10
67.479171999999991
 20
142.73658499999999
 30
0.0
 40
10.726497
  0
LINE
  5
7D
  8
1
 10
88.979172000000005
 20
142.73658499999999
 30
0.0
 11
45.979171999999998
 21
142.73658499999999
 31
0.0
  0
LINE
  5
7E
  8
1
 10
67.479171999999991
 20
164.23658499999999
 30
0.0
 11
67.479171999999991
 21
121.23658500000001
 31
0.0
  0
LINE
  5
7F
  8
0
 10
217.70537100000001
 20
201.94108499999999
 30
0.0
 11
217.70537100000001
 21
231.94108499999999
 31
0.0
  0
ARC
  5
80
  8
0
 10
223.65670499999999
 20
224.44108499999999
 30
0.0
 40
21.662659000000001
 50
159.743842
 51
200.256158
  0
LINE
  5
81
  8
0
 10
201.70537100000001
 20
231.44108499999999
 30
0.0
 11
201.99404699999999
 21
231.94108499999999
 31
0.0
  0
LINE
  5
82
  8
0
 10
201.99404699999999
 20
231.94108499999999
 30
0.0
 11
217.70537100000001
 21
231.94108499999999
 31
0.0
  0
LINE
  5
83
  8
0
 10
201.99404699999999
 20
201.94108499999999
 30
0.0
 11
217.70537100000001
 21
201.94108499999999
 31
0.0
  0
LINE
  5
84
  8
0
 10
201.70537100000001
 20
202.44108499999999
 30
0.0
 11
201.99404699999999
 21
201.94108499999999
 31
0.0
  0
ARC
  5
85
  8
0
 10
223.65670499999999
 20
209.44108499999999
 30
0.0
 40
21.662659000000001
 50
159.743842
 51
200.256158
  0
LINE
  5
86
  8
0
 10
201.70537100000001
 20
202.44108499999999
 30
0.0
 11
201.70537100000001
 21
231.44108499999999
 31
0.0
  0
LINE
  5
87
  8
0
 10
203.33379299999999
 20
216.94108499999999
 30
0.0
 11
217.70537100000001
 21
216.94108499999999
 31
0.0
  0
LINE
  5
88
  8
0
 10
217.70537100000001
 20
125.416077
 30
0.0
 11
217.70537100000001
 21
160.05709300000001
 31
0.0
  0
LINE
  5
89
  8
0
 10
201.70537100000001
 20
128.23658499999999
 30
0.0
 11
203.33379299999999
 21
125.416077
 31
0.0
  0
ARC
  5
8A
  8
0
 10
209.66151500000001
 20
129.74620400000001
 30
0.0
 40
7.6674679999999986
 50
145.61575300000001
 51
205.61575300000001
  0
ARC
  5
8B
  8
0
 10
209.66151500000001
 20
129.74620400000001
 30
0.0
 40
7.6674679999999986
 50
214.38424699999999
 51
214.38424699999999
  0
ARC
  5
8C
  8
0
 10
230.654301
 20
142.73658499999999
 30
0.0
 40
28.660253999999998
 50
162.412046
 51
197.587954
  0
LINE
  5
8D
  8
0
 10
203.33379299999999
 20
125.416077
 30
0.0
 11
217.70537100000001
 21
125.416077
 31
0.0
  0
LINE
  5
8E
  8
0
 10
217.70537100000001
 20
134.07633100000001
 30
0.0
 11
203.33379299999999
 21
134.07633100000001
 31
0.0
  0
LINE
  5
8F
  8
0
 10
217.70537100000001
 20
151.396839
 30
0.0
 11
203.33379299999999
 21
151.396839
 31
0.0
  0
LINE
  5
90
  8
0
 10
203.33379299999999
 20
160.05709300000001
 30
0.0
 11
217.70537100000001
 21
160.05709300000001
 31
0.0
  0
ARC
  5
91
  8
0
 10
209.66151500000001
 20
155.726966
 30
0.0
 40
7.6674679999999986
 50
145.61575300000001
 51
145.61575300000001
  0
ARC
  5
92
  8
0
 10
209.66151500000001
 20
155.726966
 30
0.0
 40
7.6674679999999986
 50
154.38424699999999
 51
214.38424699999999
  0
LINE
  5
93
  8
0
 10
201.70537100000001
 20
157.23658499999999
 30
0.0
 11
203.33379299999999
 21
160.05709300000001
 31
0.0
  0
LINE
  5
94
  8
0
 10
201.70537100000001
 20
128.23658499999999
 30
0.0
 11
201.70537100000001
 21
157.23658499999999
 31
0.0
  0
LINE
  5
95
  8
0
 10
217.70537100000001
 20
152.73658499999999
 30
0.0
 11
265.20537100000001
 21
152.73658499999999
 31
0.0
  0
LINE
  5
96
  8
3
 10
217.70537100000001
 20
151.38358500000001
 30
0.0
 11
266.55837100000002
 21
151.38358500000001
 31
0.0
  0
LINE
  5
97
  8
3
 10
217.70537100000001
 20
134.089585
 30
0.0
 11
266.55837100000002
 21
134.089585
 31
0.0
  0
LINE
  5
98
  8
0
 10
217.70537100000001
 20
132.73658499999999
 30
0.0
 11
265.20537100000001
 21
132.73658499999999
 31
0.0
  0
LINE
  5
99
  8
3
 10
217.70537100000001
 20
225.58808500000001
 30
0.0
 11
266.55837100000002
 21
225.58808500000001
 31
0.0
  0
LINE
  5
9A
  8
0
 10
217.70537100000001
 20
226.94108499999999
 30
0.0
 11
265.20537100000001
 21
226.94108499999999
 31
0.0
  0
LINE
  5
9B
  8
0
 10
217.70537100000001
 20
206.94108499999999
 30
0.0
 11
265.20537100000001
 21
206.94108499999999
 31
0.0
  0
LINE
  5
9C
  8
3
 10
217.70537100000001
 20
208.294085
 30
0.0
 11
266.55837100000002
 21
208.294085
 31
0.0
  0
LINE
  5
9D
  8
0
 10
122.509219
 20
230.69108499999999
 30
0.0
 11
149.84970899999999
 21
230.69108499999999
 31
0.0
  0
LINE
  5
9E
  8
0
 10
122.509219
 20
203.19108499999999
 30
0.0
 11
149.84970899999999
 21
203.19108499999999
 31
0.0
  0
LINE
  5
9F
  8
2
 10
127.905371
 20
229.69108499999999
 30
0.0
 11
127.905371
 21
204.19108499999999
 31
0.0
  0
LINE
  5
A0
  8
2
 10
137.505371
 20
229.69108499999999
 30
0.0
 11
137.505371
 21
204.19108499999999
 31
0.0
  0
LINE
  5
A1
  8
2
 10
126.905371
 20
230.69108499999999
 30
0.0
 11
127.905371
 21
229.69108499999999
 31
0.0
  0
LINE
  5
A2
  8
2
 10
127.905371
 20
204.19108499999999
 30
0.0
 11
126.905371
 21
203.19108499999999
 31
0.0
  0
LINE
  5
A3
  8
2
 10
137.505371
 20
204.19108499999999
 30
0.0
 11
138.505371
 21
203.19108499999999
 31
0.0
  0
LINE
  5
A4
  8
2
 10
137.505371
 20
229.69108499999999
 30
0.0
 11
138.505371
 21
230.69108499999999
 31
0.0
  0
LINE
  5
A5
  8
2
 10
127.905371
 20
229.69108499999999
 30
0.0
 11
137.505371
 21
229.69108499999999
 31
0.0
  0
LINE
  5
A6
  8
2
 10
127.905371
 20
204.19108499999999
 30
0.0
 11
137.505371
 21
204.19108499999999
 31
0.0
  0
CIRCLE
  5
A7
  8
0
 10
132.70537100000001
 20
142.73658499999999
 30
0.0
 40
4.7999999999999989
  0
LINE
  5
A8
  8
2
 10
54.729171999999998
 20
147.536585
 30
0.0
 11
54.729171999999998
 21
137.93658500000001
 31
0.0
  0
LINE
  5
A9
  8
2
 10
80.229172000000005
 20
147.536585
 30
0.0
 11
80.229172000000005
 21
137.93658500000001
 31
0.0
  0
LINE
  5
AA
  8
2
 10
80.229172000000005
 20
137.93658500000001
 30
0.0
 11
81.229171999999991
 21
136.93658500000001
 31
0.0
  0
LINE
  5
AB
  8
2
 10
54.729171999999998
 20
137.93658500000001
 30
0.0
 11
53.729171999999991
 21
136.93658500000001
 31
0.0
  0
LINE
  5
AC
  8
2
 10
54.729171999999998
 20
147.536585
 30
0.0
 11
53.729171999999991
 21
148.536585
 31
0.0
  0
LINE
  5
AD
  8
2
 10
81.229171999999991
 20
148.536585
 30
0.0
 11
80.229172000000005
 21
147.536585
 31
0.0
  0
LINE
  5
AE
  8
2
 10
80.229172000000005
 20
137.93658500000001
 30
0.0
 11
54.729171999999998
 21
137.93658500000001
 31
0.0
  0
LINE
  5
AF
  8
2
 10
80.229172000000005
 20
147.536585
 30
0.0
 11
54.729171999999998
 21
147.536585
 31
0.0
  0
LINE
  5
B0
  8
0
 10
81.229171999999991
 20
133.61586700000001
 30
0.0
 11
81.229171999999991
 21
151.857303
 31
0.0
  0
LINE
  5
B1
  8
0
 10
53.729171999999991
 20
133.61586700000001
 30
0.0
 11
53.729171999999991
 21
151.857303
 31
0.0
  0
LINE
  5
B2
  8
0
 10
122.509219
 20
203.19108499999999
 30
0.0
 11
117.705371
 21
206.21458799999999
 31
0.0
  0
LINE
  5
B3
  8
0
 10
122.509219
 20
230.69108499999999
 30
0.0
 11
117.705371
 21
227.66758200000001
 31
0.0
  0
LINE
  5
B4
  8
0
 10
122.509219
 20
88.437632999999991
 30
0.0
 11
117.705371
 21
85.414131000000012
 31
0.0
  0
LINE
  5
B5
  8
0
 10
122.509219
 20
60.937632999999991
 30
0.0
 11
117.705371
 21
63.961135999999989
 31
0.0
  0
LINE
  5
B6
  8
2
 10
127.905371
 20
61.937632999999998
 30
0.0
 11
137.505371
 21
61.937632999999998
 31
0.0
  0
LINE
  5
B7
  8
2
 10
127.905371
 20
87.437632999999991
 30
0.0
 11
137.505371
 21
87.437632999999991
 31
0.0
  0
LINE
  5
B8
  8
2
 10
137.505371
 20
87.437632999999991
 30
0.0
 11
138.505371
 21
88.437632999999991
 31
0.0
  0
LINE
  5
B9
  8
2
 10
137.505371
 20
61.937632999999998
 30
0.0
 11
138.505371
 21
60.937632999999991
 31
0.0
  0
LINE
  5
BA
  8
2
 10
127.905371
 20
61.937632999999998
 30
0.0
 11
126.905371
 21
60.937632999999991
 31
0.0
  0
LINE
  5
BB
  8
2
 10
126.905371
 20
88.437632999999991
 30
0.0
 11
127.905371
 21
87.437632999999991
 31
0.0
  0
LINE
  5
BC
  8
2
 10
137.505371
 20
87.437632999999991
 30
0.0
 11
137.505371
 21
61.937632999999998
 31
0.0
  0
LINE
  5
BD
  8
2
 10
127.905371
 20
87.437632999999991
 30
0.0
 11
127.905371
 21
61.937632999999998
 31
0.0
  0
LINE
  5
BE
  8
0
 10
122.509219
 20
60.937632999999991
 30
0.0
 11
149.84970899999999
 21
60.937632999999991
 31
0.0
  0
LINE
  5
BF
  8
0
 10
122.509219
 20
88.437632999999991
 30
0.0
 11
149.84970899999999
 21
88.437632999999991
 31
0.0
  0
LINE
  5
C0
  8
3
 10
217.70537100000001
 20
66.040632999999985
 30
0.0
 11
266.55837100000002
 21
66.040632999999985
 31
0.0
  0
LINE
  5
C1
  8
0
 10
217.70537100000001
 20
64.687632999999991
 30
0.0
 11
265.20537100000001
 21
64.687632999999991
 31
0.0
  0
LINE
  5
C2
  8
0
 10
217.70537100000001
 20
84.687632999999991
 30
0.0
 11
265.20537100000001
 21
84.687632999999991
 31
0.0
  0
LINE
  5
C3
  8
3
 10
217.70537100000001
 20
83.334632999999997
 30
0.0
 11
266.55837100000002
 21
83.334632999999997
 31
0.0
  0
LINE
  5
C4
  8
0
 10
203.33379299999999
 20
74.687632999999991
 30
0.0
 11
217.70537100000001
 21
74.687632999999991
 31
0.0
  0
LINE
  5
C5
  8
0
 10
201.70537100000001
 20
60.187632999999991
 30
0.0
 11
201.70537100000001
 21
89.187633000000005
 31
0.0
  0
ARC
  5
C6
  8
0
 10
223.65670499999999
 20
67.187632999999991
 30
0.0
 40
21.662659000000001
 50
159.743842
 51
200.256158
  0
LINE
  5
C7
  8
0
 10
201.70537100000001
 20
60.187632999999991
 30
0.0
 11
201.99404699999999
 21
59.687632999999991
 31
0.0
  0
LINE
  5
C8
  8
0
 10
201.99404699999999
 20
59.687632999999991
 30
0.0
 11
217.70537100000001
 21
59.687632999999991
 31
0.0
  0
LINE
  5
C9
  8
0
 10
201.99404699999999
 20
89.687632999999991
 30
0.0
 11
217.70537100000001
 21
89.687632999999991
 31
0.0
  0
LINE
  5
CA
  8
0
 10
201.70537100000001
 20
89.187633000000005
 30
0.0
 11
201.99404699999999
 21
89.687632999999991
 31
0.0
  0
ARC
  5
CB
  8
0
 10
223.65670499999999
 20
82.187632999999991
 30
0.0
 40
21.662659000000001
 50
159.743842
 51
200.256158
  0
LINE
  5
CC
  8
0
 10
217.70537100000001
 20
59.687632999999991
 30
0.0
 11
217.70537100000001
 21
89.687632999999991
 31
0.0
  0
LINE
  5
CD
  8
0
 10
151.437422
 20
58.187632999999998
 30
0.0
 11
166.70537100000001
 21
58.187632999999998
 31
0.0
  0
LINE
  5
CE
  8
0
 10
151.437422
 20
91.187632999999991
 30
0.0
 11
166.70537100000001
 21
91.187632999999991
 31
0.0
  0
LINE
  5
CF
  8
0
 10
149.84970899999999
 20
60.937632999999991
 30
0.0
 11
151.437422
 21
58.187632999999998
 31
0.0
  0
LINE
  5
D0
  8
0
 10
149.84970899999999
 20
88.437632999999991
 30
0.0
 11
151.437422
 21
91.187632999999991
 31
0.0
  0
LINE
  5
D1
  8
0
 10
166.70537100000001
 20
58.187632999999998
 30
0.0
 11
166.70537100000001
 21
91.187632999999991
 31
0.0
  0
LINE
  5
D2
  8
0
 10
167.70537100000001
 20
59.187632999999998
 30
0.0
 11
167.70537100000001
 21
90.187632999999991
 31
0.0
  0
LINE
  5
D3
  8
0
 10
166.70537100000001
 20
58.187632999999998
 30
0.0
 11
167.70537100000001
 21
59.187632999999998
 31
0.0
  0
LINE
  5
D4
  8
0
 10
167.70537100000001
 20
90.187632999999991
 30
0.0
 11
166.70537100000001
 21
91.187632999999991
 31
0.0
  0
LINE
  5
D5
  8
0
 10
127.705371
 20
60.937632999999991
 30
0.0
 11
127.705371
 21
88.437632999999991
 31
0.0
  0
LINE
  5
D6
  8
0
 10
117.705371
 20
63.961135999999989
 30
0.0
 11
117.705371
 21
85.414131000000012
 31
0.0
  0
ARC
  5
D7
  8
0
 10
168.7053709999999
 20
85.687632999999977
 30
0.0
 40
1.0
 50
180.0
 51
270.0
  0
ARC
  5
D8
  8
0
 10
168.7053709999999
 20
63.687632999999998
 30
0.0
 40
1.0
 50
90.0
 51
180.0
  0
LINE
  5
D9
  8
0
 10
267.70537100000001
 20
82.187632999999991
 30
0.0
 11
267.70537100000001
 21
67.187632999999991
 31
0.0
  0
LINE
  5
DA
  8
0
 10
168.7053709999999
 20
64.687632999999991
 30
0.0
 11
201.70537100000001
 21
64.687632999999991
 31
0.0
  0
LINE
  5
DB
  8
3
 10
175.70537100000001
 20
66.040632999999985
 30
0.0
 11
201.70537100000001
 21
66.040632999999985
 31
0.0
  0
LINE
  5
DC
  8
3
 10
175.70537100000001
 20
83.334632999999997
 30
0.0
 11
201.70537100000001
 21
83.334632999999997
 31
0.0
  0
LINE
  5
DD
  8
0
 10
168.7053709999999
 20
84.687632999999991
 30
0.0
 11
201.70537100000001
 21
84.687632999999991
 31
0.0
  0
LINE
  5
DE
  8
0
 10
265.20537100000001
 20
84.687632999999991
 30
0.0
 11
267.70537100000001
 21
82.187632999999991
 31
0.0
  0
LINE
  5
DF
  8
0
 10
267.70537100000001
 20
67.187632999999991
 30
0.0
 11
265.20537100000001
 21
64.687632999999991
 31
0.0
  0
LINE
  5
E0
  8
0
 10
265.20537100000001
 20
84.687632999999991
 30
0.0
 11
265.20537100000001
 21
64.687632999999991
 31
0.0
  0
LINE
  5
E1
  8
0
 10
175.70537100000001
 20
64.687632999999991
 30
0.0
 11
175.70537100000001
 21
84.687632999999991
 31
0.0
  0
LINE
  5
E2
  8
1
 10
112.705371
 20
74.687632999999991
 30
0.0
 11
272.70537100000001
 21
74.687632999999991
 31
0.0
  0
LINE
  5
E3
  8
1
 10
132.70537100000001
 20
52.162633
 30
0.0
 11
132.70537100000001
 21
97.212632999999997
 31
0.0
  0
TEXT
  5
1FB
  8
0
 62
     3
 10
0.0
 20
0.0
 30
0.0
 40
10.0
  1
CBS1-100
  7
STANDARD1
  0
ENDSEC
  0
EOF
