  0
SECTION
  2
HEADER
  9
$ACADVER
  1
AC1009
  9
$INSBASE
 10
0.0
 20
0.0
 30
0.0
  9
$EXTMIN
 10
0.0
 20
-2.960436562073669
 30
0.0
  9
$EXTMAX
 10
145.55449200000001
 20
96.373043000000024
 30
0.0
  9
$LIMMIN
 10
0.0
 20
0.0
  9
$LIMMAX
 10
187.5
 20
135.0
  9
$ORTHOMODE
 70
     1
  9
$REGENMODE
 70
     1
  9
$FILLMODE
 70
     1
  9
$QTEXTMODE
 70
     0
  9
$MIRRTEXT
 70
     0
  9
$DRAGMODE
 70
     2
  9
$LTSCALE
 40
5.0
  9
$OSMODE
 70
  3071
  9
$ATTMODE
 70
     1
  9
$TEXTSIZE
 40
4.0
  9
$TRACEWID
 40
0.05
  9
$TEXTSTYLE
  7
STANDARD
  9
$CLAYER
  8
0
  9
$CELTYPE
  6
BYLAYER
  9
$CECOLOR
 62
   256
  9
$DIMSCALE
 40
0.5
  9
$DIMASZ
 40
3.0
  9
$DIMEXO
 40
2.0
  9
$DIMDLI
 40
0.38
  9
$DIMRND
 40
0.0
  9
$DIMDLE
 40
0.0
  9
$DIMEXE
 40
2.0
  9
$DIMTP
 40
0.0
  9
$DIMTM
 40
0.0
  9
$DIMTXT
 40
3.2000000000000002
  9
$DIMCEN
 40
0.0
  9
$DIMTSZ
 40
0.0
  9
$DIMTOL
 70
     0
  9
$DIMLIM
 70
     0
  9
$DIMTIH
 70
     0
  9
$DIMTOH
 70
     0
  9
$DIMSE1
 70
     0
  9
$DIMSE2
 70
     0
  9
$DIMTAD
 70
     1
  9
$DIMZIN
 70
     0
  9
$DIMBLK
  1

  9
$DIMASO
 70
     0
  9
$DIMSHO
 70
     0
  9
$DIMPOST
  1

  9
$DIMAPOST
  1

  9
$DIMALT
 70
     0
  9
$DIMALTD
 70
     2
  9
$DIMALTF
 40
25.399999999999999
  9
$DIMLFAC
 40
1.0
  9
$DIMTOFL
 70
     0
  9
$DIMTVP
 40
1.6000000000000001
  9
$DIMTIX
 70
     1
  9
$DIMSOXD
 70
     0
  9
$DIMSAH
 70
     0
  9
$DIMBLK1
  1

  9
$DIMBLK2
  1

  9
$DIMSTYLE
  2
STANDARD
  9
$DIMCLRD
 70
     0
  9
$DIMCLRE
 70
     0
  9
$DIMCLRT
 70
     0
  9
$DIMTFAC
 40
1.0
  9
$DIMGAP
 40
0.09
  9
$LUNITS
 70
     2
  9
$LUPREC
 70
     1
  9
$SKETCHINC
 40
0.1
  9
$FILLETRAD
 40
0.0
  9
$AUNITS
 70
     0
  9
$AUPREC
 70
     0
  9
$MENU
  1
E:\r13\win\SUPPORT\ACAD
  9
$ELEVATION
 40
0.0
  9
$PELEVATION
 40
0.0
  9
$THICKNESS
 40
0.0
  9
$LIMCHECK
 70
     0
  9
$BLIPMODE
 70
     0
  9
$CHAMFERA
 40
0.0
  9
$CHAMFERB
 40
0.0
  9
$SKPOLY
 70
     0
  9
$TDCREATE
 40
2449839.7788773151
  9
$TDUPDATE
 40
2456598.5798235419
  9
$TDINDWG
 40
0.0001084491
  9
$TDUSRTIMER
 40
0.0001084491
  9
$USRTIMER
 70
     1
  9
$ANGBASE
 50
0.0
  9
$ANGDIR
 70
     0
  9
$PDMODE
 70
     0
  9
$PDSIZE
 40
0.0
  9
$PLINEWID
 40
0.0
  9
$COORDS
 70
     1
  9
$SPLFRAME
 70
     0
  9
$SPLINETYPE
 70
     6
  9
$SPLINESEGS
 70
     8
  9
$ATTDIA
 70
     0
  9
$ATTREQ
 70
     1
  9
$HANDLING
 70
     1
  9
$HANDSEED
  5
259
  9
$SURFTAB1
 70
     6
  9
$SURFTAB2
 70
     6
  9
$SURFTYPE
 70
     6
  9
$SURFU
 70
     6
  9
$SURFV
 70
     6
  9
$UCSNAME
  2

  9
$UCSORG
 10
0.0
 20
0.0
 30
0.0
  9
$UCSXDIR
 10
1.0
 20
0.0
 30
0.0
  9
$UCSYDIR
 10
0.0
 20
1.0
 30
0.0
  9
$PUCSNAME
  2

  9
$PUCSORG
 10
0.0
 20
0.0
 30
0.0
  9
$PUCSXDIR
 10
1.0
 20
0.0
 30
0.0
  9
$PUCSYDIR
 10
0.0
 20
1.0
 30
0.0
  9
$USERI1
 70
     0
  9
$USERI2
 70
     1
  9
$USERI3
 70
     0
  9
$USERI4
 70
     0
  9
$USERI5
 70
     0
  9
$USERR1
 40
0.0
  9
$USERR2
 40
0.0
  9
$USERR3
 40
0.0
  9
$USERR4
 40
0.0
  9
$USERR5
 40
0.0
  9
$WORLDVIEW
 70
     1
  9
$SHADEDGE
 70
     3
  9
$SHADEDIF
 70
    70
  9
$TILEMODE
 70
     1
  9
$MAXACTVP
 70
    16
  9
$PLIMCHECK
 70
     0
  9
$PEXTMIN
 10
1.0000000000000000E+020
 20
1.0000000000000000E+020
 30
1.0000000000000000E+020
  9
$PEXTMAX
 10
-1.0000000000000000E+020
 20
-1.0000000000000000E+020
 30
-1.0000000000000000E+020
  9
$PLIMMIN
 10
0.0
 20
0.0
  9
$PLIMMAX
 10
12.0
 20
9.0
  9
$UNITMODE
 70
     0
  9
$VISRETAIN
 70
     0
  9
$PLINEGEN
 70
     0
  9
$PSLTSCALE
 70
     0
  0
ENDSEC
  0
SECTION
  2
TABLES
  0
TABLE
  2
VPORT
 70
     1
  0
VPORT
  2
*ACTIVE
 70
     0
 10
0.0
 20
0.0
 11
1.0
 21
1.0
 12
97.570150770051072
 22
66.014785922033241
 13
0.0
 23
0.0
 14
5.0
 24
5.0
 15
5.0
 25
5.0
 16
0.0
 26
0.0
 36
1.0
 17
0.0
 27
0.0
 37
0.0
 40
139.20783109903601
 41
1.831871345029239
 42
50.0
 43
0.0
 44
0.0
 50
0.0
 51
0.0
 71
     0
 72
   100
 73
     1
 74
     0
 75
     0
 76
     0
 77
     0
 78
     2
  0
ENDTAB
  0
TABLE
  2
LTYPE
 70
     4
  0
LTYPE
  2
CONTINUOUS
 70
     0
  3
Solid Line
 72
    65
 73
     0
 40
0.0
  0
LTYPE
  2
CENTER
 70
     0
  3
____ _ ____ _ ____ _ ____ _ ____ _ ____ _ ____
 72
    65
 73
     4
 40
2.0
 49
1.25
 49
-0.25
 49
0.25
 49
-0.25
  0
LTYPE
  2
HIDDEN
 70
     0
  3
_ _ _ _ _ _ _ _ _ _ _ _ _ _ _ _ _ _ _ _ _ _ _
 72
    65
 73
     2
 40
0.375
 49
0.25
 49
-0.125
  0
LTYPE
  2
PHANTOM2
 70
     0
  3
___ _ _ ___ _ _ ___ _ _ ___ _ _
 72
    65
 73
     6
 40
1.25
 49
0.625
 49
-0.125
 49
0.125
 49
-0.125
 49
0.125
 49
-0.125
  0
ENDTAB
  0
TABLE
  2
LAYER
 70
     4
  0
LAYER
  2
0
 70
     0
 62
     7
  6
CONTINUOUS
  0
LAYER
  2
1
 70
     0
 62
     1
  6
CENTER
  0
LAYER
  2
3
 70
     0
 62
     3
  6
CONTINUOUS
  0
LAYER
  2
2
 70
     0
 62
     2
  6
HIDDEN
  0
ENDTAB
  0
TABLE
  2
STYLE
 70
     2
  0
STYLE
  2
STANDARD
 70
     0
 40
0.0
 41
1.0
 50
0.0
 71
     0
 42
4.0
  3
ROMANS
  4
BIGFONT
  0
STYLE
  2
STANDARD1
 70
     0
 40
0.0
 41
1.0
 50
0.0
 71
     0
 42
3.0
  3
txt
  4

  0
ENDTAB
  0
TABLE
  2
VIEW
 70
     1
  0
VIEW
  2
ALL
 70
     0
 40
175.0
 10
142.98110500000001
 20
87.5
 41
285.96221100000002
 11
0.0
 21
0.0
 31
1.0
 12
0.0
 22
0.0
 32
0.0
 42
0.0
 43
0.0
 44
0.0
 50
0.0
 71
     0
  0
ENDTAB
  0
TABLE
  2
UCS
 70
     0
  0
ENDTAB
  0
TABLE
  2
APPID
 70
     3
  0
APPID
  2
ACAD
 70
     0
  0
APPID
  2
ACAD_MLEADERVER
 70
     0
  0
APPID
  2
ACAD_NAV_VCDISPLAY
 70
     0
  0
ENDTAB
  0
TABLE
  2
DIMSTYLE
 70
     1
  0
DIMSTYLE
  2
STANDARD
 70
     0
  3

  4

  5

  6

  7

 40
1.0
 41
0.18
 42
0.0625
 43
0.38
 44
0.18
 45
0.0
 46
0.0
 47
0.0
 48
0.0
140
0.18
141
0.09
142
0.0
143
25.399999999999999
144
1.0
145
0.0
146
1.0
147
0.09
 71
     0
 72
     0
 73
     1
 74
     1
 75
     0
 76
     0
 77
     0
 78
     0
170
     0
171
     2
172
     0
173
     0
174
     0
175
     0
176
     0
177
     0
178
     0
  0
ENDTAB
  0
ENDSEC
  0
SECTION
  2
BLOCKS
  0
BLOCK
  8
0
  2
$MODEL_SPACE
 70
     0
 10
0.0
 20
0.0
 30
0.0
  3
$MODEL_SPACE
  1

  0
ENDBLK
  5
10D
  8
0
  0
BLOCK
 67
     1
  8
0
  2
$PAPER_SPACE
 70
     0
 10
0.0
 20
0.0
 30
0.0
  3
$PAPER_SPACE
  1

  0
ENDBLK
  5
10B
 67
     1
  8
0
  0
ENDSEC
  0
SECTION
  2
ENTITIES
  0
LINE
  5
29
  8
1
 10
70.787804000000008
 20
86.673043000000007
 30
0.0
 11
70.787804000000008
 21
96.073042999999998
 31
0.0
  0
LINE
  5
2A
  8
1
 10
65.287804000000008
 20
91.373043000000024
 30
0.0
 11
117.28780399999999
 21
91.373043000000024
 31
0.0
  0
LINE
  5
2B
  8
1
 10
70.787804000000008
 20
59.349128
 30
0.0
 11
70.787804000000008
 21
51.849128
 31
0.0
  0
LINE
  5
2C
  8
0
 10
68.382548
 20
88.973043000000004
 30
0.0
 11
67.787804000000008
 21
89.316417999999985
 31
0.0
  0
LINE
  5
2D
  8
0
 10
68.382548
 20
93.773043000000001
 30
0.0
 11
67.787804000000008
 21
93.429667000000009
 31
0.0
  0
LINE
  5
2E
  8
0
 10
70.287804000000008
 20
59.099128
 30
0.0
 11
67.787804000000008
 21
57.655752
 31
0.0
  0
LINE
  5
2F
  8
0
 10
70.287804000000008
 20
52.099128
 30
0.0
 11
67.787804000000008
 21
53.542503000000004
 31
0.0
  0
LINE
  5
30
  8
0
 10
70.287804000000008
 20
58.146675000000002
 30
0.0
 11
70.287804000000008
 21
59.099128
 31
0.0
  0
LINE
  5
31
  8
0
 10
70.287804000000008
 20
52.099128
 30
0.0
 11
70.287804000000008
 21
53.051580000000001
 31
0.0
  0
LINE
  5
32
  8
0
 10
74.287803999999994
 20
93.773043000000001
 30
0.0
 11
74.922888999999998
 21
94.87304300000001
 31
0.0
  0
LINE
  5
33
  8
0
 10
74.287803999999994
 20
88.973043000000004
 30
0.0
 11
74.922888999999998
 21
87.873042999999996
 31
0.0
  0
LINE
  5
34
  8
0
 10
77.787804000000008
 20
87.873042999999996
 30
0.0
 11
77.787804000000008
 21
94.87304300000001
 31
0.0
  0
LINE
  5
35
  8
0
 10
70.287804000000008
 20
52.099128
 30
0.0
 11
77.787804000000008
 21
52.099128
 31
0.0
  0
LINE
  5
36
  8
0
 10
70.287804000000008
 20
59.099128
 30
0.0
 11
77.787804000000008
 21
59.099128
 31
0.0
  0
LINE
  5
37
  8
0
 10
74.922888999999998
 20
94.87304300000001
 30
0.0
 11
77.787804000000008
 21
94.87304300000001
 31
0.0
  0
LINE
  5
38
  8
0
 10
74.922888999999998
 20
87.873042999999996
 30
0.0
 11
77.787804000000008
 21
87.873042999999996
 31
0.0
  0
CIRCLE
  5
39
  8
0
 10
70.787804000000008
 20
55.599128
 30
0.0
 40
1.25
  0
LINE
  5
3A
  8
0
 10
67.787804000000008
 20
89.316417999999985
 30
0.0
 11
67.787804000000008
 21
93.429667000000009
 31
0.0
  0
LINE
  5
3B
  8
0
 10
67.787804000000008
 20
53.542503000000004
 30
0.0
 11
67.787804000000008
 21
57.655752
 31
0.0
  0
LINE
  5
3C
  8
0
 10
77.787804000000008
 20
52.099128
 30
0.0
 11
77.787804000000008
 21
59.099128
 31
0.0
  0
CIRCLE
  5
3D
  8
0
 10
45.744211
 20
55.599128
 30
0.0
 40
3.5
  0
ARC
  5
3E
  8
0
 10
78.287804000000008
 20
52.099128
 30
0.0
 40
0.5
 50
90.0
 51
180.0
  0
ARC
  5
3F
  8
0
 10
78.287804000000008
 20
59.099128
 30
0.0
 40
0.5
 50
180.0
 51
270.0
  0
LINE
  5
40
  8
2
 10
47.644210999999991
 20
56.799128000000003
 30
0.0
 11
47.644210999999991
 21
54.399127999999997
 31
0.0
  0
LINE
  5
41
  8
2
 10
43.844210999999987
 20
56.799128000000003
 30
0.0
 11
43.844210999999987
 21
54.399127999999997
 31
0.0
  0
LINE
  5
42
  8
2
 10
47.644210999999991
 20
54.399127999999997
 30
0.0
 11
48.144210999999999
 21
53.899128000000012
 31
0.0
  0
LINE
  5
43
  8
2
 10
47.644210999999991
 20
56.799128000000003
 30
0.0
 11
48.144210999999999
 21
57.29912800000001
 31
0.0
  0
LINE
  5
44
  8
2
 10
43.844210999999987
 20
54.399127999999997
 30
0.0
 11
43.344211000000001
 21
53.899128000000012
 31
0.0
  0
LINE
  5
45
  8
2
 10
43.344211000000001
 20
57.29912800000001
 30
0.0
 11
43.844210999999987
 21
56.799128000000003
 31
0.0
  0
LINE
  5
46
  8
2
 10
47.644210999999991
 20
54.399127999999997
 30
0.0
 11
43.844210999999987
 21
54.399127999999997
 31
0.0
  0
LINE
  5
47
  8
2
 10
47.644210999999991
 20
56.799128000000003
 30
0.0
 11
43.844210999999987
 21
56.799128000000003
 31
0.0
  0
LINE
  5
48
  8
0
 10
43.344211000000001
 20
58.146675000000002
 30
0.0
 11
43.344211000000001
 21
53.051580000000001
 31
0.0
  0
LINE
  5
49
  8
0
 10
48.144210999999999
 20
58.146675000000002
 30
0.0
 11
48.144210999999999
 21
53.051580000000001
 31
0.0
  0
LINE
  5
4A
  8
2
 10
69.587804000000006
 20
93.273042999999987
 30
0.0
 11
71.987803999999997
 21
93.273042999999987
 31
0.0
  0
LINE
  5
4B
  8
2
 10
69.587804000000006
 20
89.473043000000004
 30
0.0
 11
71.987803999999997
 21
89.473043000000004
 31
0.0
  0
LINE
  5
4C
  8
2
 10
71.987803999999997
 20
93.273042999999987
 30
0.0
 11
72.487803999999997
 21
93.773043000000001
 31
0.0
  0
LINE
  5
4D
  8
2
 10
69.587804000000006
 20
93.273042999999987
 30
0.0
 11
69.087804000000006
 21
93.773043000000001
 31
0.0
  0
LINE
  5
4E
  8
2
 10
71.987803999999997
 20
89.473043000000004
 30
0.0
 11
72.487803999999997
 21
88.973043000000004
 31
0.0
  0
LINE
  5
4F
  8
2
 10
69.087804000000006
 20
88.973043000000004
 30
0.0
 11
69.587804000000006
 21
89.473043000000004
 31
0.0
  0
LINE
  5
50
  8
2
 10
71.987803999999997
 20
93.273042999999987
 30
0.0
 11
71.987803999999997
 21
89.473043000000004
 31
0.0
  0
LINE
  5
51
  8
2
 10
69.587804000000006
 20
93.273042999999987
 30
0.0
 11
69.587804000000006
 21
89.473043000000004
 31
0.0
  0
LINE
  5
52
  8
0
 10
68.382548
 20
93.773043000000001
 30
0.0
 11
74.287803999999994
 21
93.773043000000001
 31
0.0
  0
LINE
  5
53
  8
0
 10
68.382548
 20
88.973043000000004
 30
0.0
 11
74.287803999999994
 21
88.973043000000004
 31
0.0
  0
LINE
  5
54
  8
1
 10
65.287804000000008
 20
55.599128
 30
0.0
 11
118.28780399999999
 21
55.599128
 31
0.0
  0
LINE
  5
55
  8
0
 10
70.287804000000008
 20
58.146675000000002
 30
0.0
 11
74.287803999999994
 21
58.146675000000002
 31
0.0
  0
LINE
  5
56
  8
0
 10
70.287804000000008
 20
53.051580000000001
 30
0.0
 11
74.287803999999994
 21
53.051580000000001
 31
0.0
  0
ARC
  5
57
  8
0
 10
71.038358999999986
 20
55.599128
 30
0.0
 40
2.655810999999999
 50
106.41596199999999
 51
253.58403799999999
  0
LINE
  5
58
  8
0
 10
115.78780399999999
 20
57.599128
 30
0.0
 11
115.78780399999999
 21
53.599128
 31
0.0
  0
LINE
  5
59
  8
0
 10
78.287804000000008
 20
52.599128
 30
0.0
 11
89.414996000000002
 21
52.599128
 31
0.0
  0
LINE
  5
5A
  8
3
 10
80.787804000000008
 20
53.140628
 30
0.0
 11
89.414996000000002
 21
53.140628
 31
0.0
  0
LINE
  5
5B
  8
3
 10
80.787804000000008
 20
58.057628000000001
 30
0.0
 11
89.414996000000002
 21
58.057628000000001
 31
0.0
  0
LINE
  5
5C
  8
0
 10
78.287804000000008
 20
58.599128
 30
0.0
 11
89.414996000000002
 21
58.599128
 31
0.0
  0
LINE
  5
5D
  8
0
 10
114.78780399999999
 20
58.599128
 30
0.0
 11
115.78780399999999
 21
57.599128
 31
0.0
  0
LINE
  5
5E
  8
0
 10
115.78780399999999
 20
53.599128
 30
0.0
 11
114.78780399999999
 21
52.599128
 31
0.0
  0
LINE
  5
5F
  8
0
 10
114.78780399999999
 20
52.599128
 30
0.0
 11
114.78780399999999
 21
58.599128
 31
0.0
  0
LINE
  5
60
  8
0
 10
80.787804000000008
 20
52.599128
 30
0.0
 11
80.787804000000008
 21
58.599128
 31
0.0
  0
LINE
  5
61
  8
3
 10
80.787804000000008
 20
58.057628000000001
 30
0.0
 11
79.849897999999996
 21
58.599128
 31
0.0
  0
LINE
  5
62
  8
3
 10
80.787804000000008
 20
53.140628
 30
0.0
 11
79.849897999999996
 21
52.599128
 31
0.0
  0
LINE
  5
63
  8
3
 10
80.787804000000008
 20
88.914543000000009
 30
0.0
 11
79.849897999999996
 21
88.37304300000001
 31
0.0
  0
LINE
  5
64
  8
3
 10
80.787804000000008
 20
93.831543000000011
 30
0.0
 11
79.849897999999996
 21
94.373042999999996
 31
0.0
  0
LINE
  5
65
  8
0
 10
80.787804000000008
 20
88.37304300000001
 30
0.0
 11
80.787804000000008
 21
94.373042999999996
 31
0.0
  0
LINE
  5
66
  8
0
 10
114.78780399999999
 20
88.37304300000001
 30
0.0
 11
114.78780399999999
 21
94.373042999999996
 31
0.0
  0
LINE
  5
67
  8
0
 10
115.78780399999999
 20
89.373042999999996
 30
0.0
 11
114.78780399999999
 21
88.37304300000001
 31
0.0
  0
LINE
  5
68
  8
0
 10
114.78780399999999
 20
94.373042999999996
 30
0.0
 11
115.78780399999999
 21
93.37304300000001
 31
0.0
  0
LINE
  5
69
  8
0
 10
78.287804000000008
 20
94.373042999999996
 30
0.0
 11
89.414996000000002
 21
94.373042999999996
 31
0.0
  0
LINE
  5
6A
  8
3
 10
80.787804000000008
 20
93.831543000000011
 30
0.0
 11
89.414996000000002
 21
93.831543000000011
 31
0.0
  0
LINE
  5
6B
  8
3
 10
80.787804000000008
 20
88.914543000000009
 30
0.0
 11
89.414996000000002
 21
88.914543000000009
 31
0.0
  0
LINE
  5
6C
  8
0
 10
78.287804000000008
 20
88.37304300000001
 30
0.0
 11
89.414996000000002
 21
88.37304300000001
 31
0.0
  0
LINE
  5
6D
  8
0
 10
115.78780399999999
 20
93.37304300000001
 30
0.0
 11
115.78780399999999
 21
89.373042999999996
 31
0.0
  0
ARC
  5
6E
  8
0
 10
78.287804000000008
 20
87.873042999999996
 30
0.0
 40
0.5
 50
90.0
 51
180.0
  0
ARC
  5
6F
  8
0
 10
78.287804000000008
 20
94.87304300000001
 30
0.0
 40
0.5
 50
180.0
 51
270.0
  0
LINE
  5
70
  8
0
 10
94.414996000000002
 20
61.372630000000001
 30
0.0
 11
94.414996000000002
 21
49.825625000000002
 31
0.0
  0
LINE
  5
71
  8
0
 10
89.414996000000002
 20
60.499128000000013
 30
0.0
 11
89.414996000000002
 21
50.699128000000002
 31
0.0
  0
LINE
  5
72
  8
0
 10
89.919313000000002
 20
61.372630000000001
 30
0.0
 11
89.414996000000002
 21
60.499128000000013
 31
0.0
  0
ARC
  5
73
  8
0
 10
92.028553000000016
 20
59.929255000000012
 30
0.0
 40
2.5558230000000002
 50
154.38424699999999
 51
214.38424699999999
  0
LINE
  5
74
  8
0
 10
89.919313000000002
 20
61.372630000000001
 30
0.0
 11
94.414996000000002
 21
61.372630000000001
 31
0.0
  0
LINE
  5
75
  8
0
 10
89.919313000000002
 20
58.485878999999997
 30
0.0
 11
94.414996000000002
 21
58.485878999999997
 31
0.0
  0
LINE
  5
76
  8
0
 10
89.919313000000002
 20
52.712375999999999
 30
0.0
 11
94.414996000000002
 21
52.712375999999999
 31
0.0
  0
LINE
  5
77
  8
0
 10
89.919313000000002
 20
49.825625000000002
 30
0.0
 11
94.414996000000002
 21
49.825625000000002
 31
0.0
  0
ARC
  5
78
  8
0
 10
99.026149000000004
 20
55.599128
 30
0.0
 40
9.5534179999999989
 50
162.412046
 51
197.587954
  0
ARC
  5
79
  8
0
 10
92.028553000000016
 20
51.269001000000003
 30
0.0
 40
2.5558230000000002
 50
145.61575300000001
 51
205.61575300000001
  0
LINE
  5
7A
  8
0
 10
89.919313000000002
 20
49.825625000000002
 30
0.0
 11
89.414996000000002
 21
50.699128000000002
 31
0.0
  0
LINE
  5
7B
  8
0
 10
94.414996000000002
 20
86.373043000000024
 30
0.0
 11
94.414996000000002
 21
96.373043000000024
 31
0.0
  0
LINE
  5
7C
  8
0
 10
89.919313000000002
 20
91.373043000000024
 30
0.0
 11
94.414996000000002
 21
91.373043000000024
 31
0.0
  0
ARC
  5
7D
  8
0
 10
96.693617000000003
 20
88.873043000000024
 30
0.0
 40
7.2208860000000001
 50
159.743842
 51
200.256158
  0
LINE
  5
7E
  8
0
 10
89.472731000000024
 20
86.373043000000024
 30
0.0
 11
89.414996000000002
 21
86.473043000000004
 31
0.0
  0
LINE
  5
7F
  8
0
 10
89.472731000000024
 20
86.373043000000024
 30
0.0
 11
94.414996000000002
 21
86.373043000000024
 31
0.0
  0
LINE
  5
80
  8
0
 10
89.472731000000024
 20
96.373043000000024
 30
0.0
 11
94.414996000000002
 21
96.373043000000024
 31
0.0
  0
LINE
  5
81
  8
0
 10
89.472731000000024
 20
96.373043000000024
 30
0.0
 11
89.414996000000002
 21
96.273043000000001
 31
0.0
  0
ARC
  5
82
  8
0
 10
96.693617000000003
 20
93.873043000000024
 30
0.0
 40
7.2208860000000001
 50
159.743842
 51
200.256158
  0
LINE
  5
83
  8
0
 10
89.414996000000002
 20
86.473043000000004
 30
0.0
 11
89.414996000000002
 21
96.273043000000001
 31
0.0
  0
LINE
  5
84
  8
0
 10
94.414996000000002
 20
94.373042999999996
 30
0.0
 11
114.78780399999999
 21
94.373042999999996
 31
0.0
  0
LINE
  5
85
  8
3
 10
94.414996000000002
 20
93.831543000000011
 30
0.0
 11
115.32930399999999
 21
93.831543000000011
 31
0.0
  0
LINE
  5
86
  8
3
 10
94.414996000000002
 20
88.914543000000009
 30
0.0
 11
115.32930399999999
 21
88.914543000000009
 31
0.0
  0
LINE
  5
87
  8
0
 10
94.414996000000002
 20
88.37304300000001
 30
0.0
 11
114.78780399999999
 21
88.37304300000001
 31
0.0
  0
LINE
  5
88
  8
0
 10
70.287804000000008
 20
88.973043000000004
 30
0.0
 11
70.287804000000008
 21
93.773043000000001
 31
0.0
  0
CIRCLE
  5
89
  8
0
 10
45.744211
 20
55.599128
 30
0.0
 40
2.0566239999999998
  0
LINE
  5
8A
  8
3
 10
94.414996000000002
 20
58.057628000000001
 30
0.0
 11
115.32930399999999
 21
58.057628000000001
 31
0.0
  0
LINE
  5
8B
  8
0
 10
94.414996000000002
 20
58.599128
 30
0.0
 11
114.78780399999999
 21
58.599128
 31
0.0
  0
LINE
  5
8C
  8
3
 10
94.414996000000002
 20
53.140628
 30
0.0
 11
115.32930399999999
 21
53.140628
 31
0.0
  0
LINE
  5
8D
  8
0
 10
94.414996000000002
 20
52.599128
 30
0.0
 11
114.78780399999999
 21
52.599128
 31
0.0
  0
LINE
  5
8E
  8
0
 10
40.744211
 20
58.485878999999997
 30
0.0
 11
40.744211
 21
52.712375999999999
 31
0.0
  0
LINE
  5
8F
  8
0
 10
40.744211
 20
52.712375999999999
 30
0.0
 11
45.744211
 21
49.825625000000002
 31
0.0
  0
LINE
  5
90
  8
0
 10
45.744211
 20
49.825625000000002
 30
0.0
 11
50.744211
 21
52.712375999999999
 31
0.0
  0
LINE
  5
91
  8
0
 10
50.744211
 20
52.712375999999999
 30
0.0
 11
50.744211
 21
58.485878999999997
 31
0.0
  0
LINE
  5
92
  8
0
 10
50.744211
 20
58.485878999999997
 30
0.0
 11
45.744211
 21
61.372630000000001
 31
0.0
  0
LINE
  5
93
  8
0
 10
45.744211
 20
61.372630000000001
 30
0.0
 11
40.744211
 21
58.485878999999997
 31
0.0
  0
CIRCLE
  5
94
  8
0
 10
45.744211
 20
55.599128
 30
0.0
 40
4.9000000000000004
  0
LINE
  5
95
  8
0
 10
74.287803999999994
 20
58.146675000000002
 30
0.0
 11
74.287803999999994
 21
53.051580000000001
 31
0.0
  0
ARC
  5
96
  8
0
 10
70.339616000000007
 20
55.599128
 30
0.0
 40
4.6987430000000003
 50
327.16807699999998
 51
32.831923000000003
  0
LINE
  5
A5
  8
0
 10
138.05449200000001
 20
61.372630000000001
 30
0.0
 11
133.05449200000001
 21
58.485878999999997
 31
0.0
  0
LINE
  5
A6
  8
0
 10
143.0544919999999
 20
58.485878999999997
 30
0.0
 11
138.05449200000001
 21
61.372630000000001
 31
0.0
  0
LINE
  5
A7
  8
0
 10
143.0544919999999
 20
52.712375999999999
 30
0.0
 11
143.0544919999999
 21
58.485878999999997
 31
0.0
  0
LINE
  5
A8
  8
0
 10
138.05449200000001
 20
49.825625000000002
 30
0.0
 11
143.0544919999999
 21
52.712375999999999
 31
0.0
  0
LINE
  5
A9
  8
0
 10
133.05449200000001
 20
52.712375999999999
 30
0.0
 11
138.05449200000001
 21
49.825625000000002
 31
0.0
  0
LINE
  5
AA
  8
0
 10
133.05449200000001
 20
58.485878999999997
 30
0.0
 11
133.05449200000001
 21
52.712375999999999
 31
0.0
  0
CIRCLE
  5
AB
  8
0
 10
138.05449200000001
 20
55.599128
 30
0.0
 40
3.0
  0
CIRCLE
  5
AC
  8
3
 10
138.05449200000001
 20
55.599128
 30
0.0
 40
2.458499999999999
  0
LINE
  5
AD
  8
1
 10
138.05449200000001
 20
63.872630000000001
 30
0.0
 11
138.05449200000001
 21
47.325625000000002
 31
0.0
  0
LINE
  5
AE
  8
1
 10
130.5544919999999
 20
55.599128
 30
0.0
 11
145.55449200000001
 21
55.599128
 31
0.0
  0
LINE
  5
AF
  8
1
 10
45.744211
 20
47.325625000000002
 30
0.0
 11
45.744211
 21
63.872630000000001
 31
0.0
  0
LINE
  5
B0
  8
1
 10
53.244211
 20
55.599128
 30
0.0
 11
38.244211
 21
55.599128
 31
0.0
  0
TEXT
  5
1C8
  8
0
 62
     3
 10
0.0
 20
0.0
 30
0.0
 40
10.0
  1
CBS2-25
  7
STANDARD1
  0
ENDSEC
  0
EOF
