  0
SECTION
  2
HEADER
  9
$ACADVER
  1
AC1009
  9
$INSBASE
 10
0.0
 20
0.0
 30
0.0
  9
$EXTMIN
 10
0.0
 20
-2.960436562073669
 30
-1809.409409556665
  9
$EXTMAX
 10
387.05251779043829
 20
144.97563209396941
 30
0.0
  9
$LIMMIN
 10
0.0
 20
0.0
  9
$LIMMAX
 10
375.0
 20
270.0
  9
$ORTHOMODE
 70
     1
  9
$REGENMODE
 70
     1
  9
$FILLMODE
 70
     1
  9
$QTEXTMODE
 70
     0
  9
$MIRRTEXT
 70
     0
  9
$DRAGMODE
 70
     2
  9
$LTSCALE
 40
5.0
  9
$OSMODE
 70
  3071
  9
$ATTMODE
 70
     1
  9
$TEXTSIZE
 40
0.2
  9
$TRACEWID
 40
0.05
  9
$TEXTSTYLE
  7
STANDARD
  9
$CLAYER
  8
0
  9
$CELTYPE
  6
BYLAYER
  9
$CECOLOR
 62
   256
  9
$DIMSCALE
 40
1.0
  9
$DIMASZ
 40
3.0
  9
$DIMEXO
 40
2.0
  9
$DIMDLI
 40
0.38
  9
$DIMRND
 40
0.0
  9
$DIMDLE
 40
0.0
  9
$DIMEXE
 40
2.0
  9
$DIMTP
 40
0.0
  9
$DIMTM
 40
0.0
  9
$DIMTXT
 40
3.2000000000000002
  9
$DIMCEN
 40
0.09
  9
$DIMTSZ
 40
0.0
  9
$DIMTOL
 70
     0
  9
$DIMLIM
 70
     0
  9
$DIMTIH
 70
     0
  9
$DIMTOH
 70
     0
  9
$DIMSE1
 70
     0
  9
$DIMSE2
 70
     0
  9
$DIMTAD
 70
     1
  9
$DIMZIN
 70
     0
  9
$DIMBLK
  1

  9
$DIMASO
 70
     1
  9
$DIMSHO
 70
     0
  9
$DIMPOST
  1

  9
$DIMAPOST
  1

  9
$DIMALT
 70
     0
  9
$DIMALTD
 70
     2
  9
$DIMALTF
 40
25.399999999999999
  9
$DIMLFAC
 40
1.0
  9
$DIMTOFL
 70
     0
  9
$DIMTVP
 40
1.6000000000000001
  9
$DIMTIX
 70
     1
  9
$DIMSOXD
 70
     0
  9
$DIMSAH
 70
     0
  9
$DIMBLK1
  1

  9
$DIMBLK2
  1

  9
$DIMSTYLE
  2
STANDARD
  9
$DIMCLRD
 70
     0
  9
$DIMCLRE
 70
     0
  9
$DIMCLRT
 70
     0
  9
$DIMTFAC
 40
1.0
  9
$DIMGAP
 40
0.09
  9
$LUNITS
 70
     2
  9
$LUPREC
 70
     4
  9
$SKETCHINC
 40
0.1
  9
$FILLETRAD
 40
2.0
  9
$AUNITS
 70
     0
  9
$AUPREC
 70
     0
  9
$MENU
  1
E:\r13\win\SUPPORT\ACAD
  9
$ELEVATION
 40
0.0
  9
$PELEVATION
 40
0.0
  9
$THICKNESS
 40
0.0
  9
$LIMCHECK
 70
     0
  9
$BLIPMODE
 70
     0
  9
$CHAMFERA
 40
0.0
  9
$CHAMFERB
 40
0.0
  9
$SKPOLY
 70
     0
  9
$TDCREATE
 40
2447977.5416277782
  9
$TDUPDATE
 40
2456598.5871373732
  9
$TDINDWG
 40
0.0584271065
  9
$TDUSRTIMER
 40
0.0584271065
  9
$USRTIMER
 70
     1
  9
$ANGBASE
 50
0.0
  9
$ANGDIR
 70
     0
  9
$PDMODE
 70
     0
  9
$PDSIZE
 40
0.0
  9
$PLINEWID
 40
0.0
  9
$COORDS
 70
     1
  9
$SPLFRAME
 70
     0
  9
$SPLINETYPE
 70
     6
  9
$SPLINESEGS
 70
     8
  9
$ATTDIA
 70
     0
  9
$ATTREQ
 70
     1
  9
$HANDLING
 70
     1
  9
$HANDSEED
  5
103D
  9
$SURFTAB1
 70
     6
  9
$SURFTAB2
 70
     6
  9
$SURFTYPE
 70
     6
  9
$SURFU
 70
     6
  9
$SURFV
 70
     6
  9
$UCSNAME
  2

  9
$UCSORG
 10
0.0
 20
0.0
 30
0.0
  9
$UCSXDIR
 10
1.0
 20
0.0
 30
0.0
  9
$UCSYDIR
 10
0.0
 20
1.0
 30
0.0
  9
$PUCSNAME
  2

  9
$PUCSORG
 10
0.0
 20
0.0
 30
0.0
  9
$PUCSXDIR
 10
1.0
 20
0.0
 30
0.0
  9
$PUCSYDIR
 10
0.0
 20
1.0
 30
0.0
  9
$USERI1
 70
     0
  9
$USERI2
 70
     1
  9
$USERI3
 70
     1
  9
$USERI4
 70
     0
  9
$USERI5
 70
     0
  9
$USERR1
 40
0.0
  9
$USERR2
 40
0.0
  9
$USERR3
 40
0.0
  9
$USERR4
 40
0.0
  9
$USERR5
 40
0.0
  9
$WORLDVIEW
 70
     1
  9
$SHADEDGE
 70
     3
  9
$SHADEDIF
 70
    70
  9
$TILEMODE
 70
     1
  9
$MAXACTVP
 70
    16
  9
$PLIMCHECK
 70
     0
  9
$PEXTMIN
 10
1.0000000000000000E+020
 20
1.0000000000000000E+020
 30
1.0000000000000000E+020
  9
$PEXTMAX
 10
-1.0000000000000000E+020
 20
-1.0000000000000000E+020
 30
-1.0000000000000000E+020
  9
$PLIMMIN
 10
0.0
 20
0.0
  9
$PLIMMAX
 10
12.0
 20
9.0
  9
$UNITMODE
 70
     0
  9
$VISRETAIN
 70
     0
  9
$PLINEGEN
 70
     1
  9
$PSLTSCALE
 70
     0
  0
ENDSEC
  0
SECTION
  2
TABLES
  0
TABLE
  2
VPORT
 70
     1
  0
VPORT
  2
*ACTIVE
 70
     0
 10
0.0
 20
0.0
 11
1.0
 21
1.0
 12
201.08977280044149
 22
133.51844519249019
 13
0.0
 23
0.0
 14
10.0
 24
10.0
 15
10.0
 25
10.0
 16
0.0
 26
0.0
 36
1.0
 17
0.0
 27
0.0
 37
0.0
 40
275.41120925282257
 41
1.831871345029239
 42
50.0
 43
0.0
 44
0.0
 50
0.0
 51
0.0
 71
     0
 72
   500
 73
     1
 74
     0
 75
     0
 76
     0
 77
     0
 78
     2
  0
ENDTAB
  0
TABLE
  2
LTYPE
 70
     3
  0
LTYPE
  2
CONTINUOUS
 70
     0
  3
Solid Line
 72
    65
 73
     0
 40
0.0
  0
LTYPE
  2
CENTER
 70
     0
  3
____ _ ____ _ ____ _ ____ _ ____ _ ____ _ ____
 72
    65
 73
     4
 40
2.0
 49
1.25
 49
-0.25
 49
0.25
 49
-0.25
  0
LTYPE
  2
PHANTOM2
 70
     0
  3
___ _ _ ___ _ _ ___ _ _ ___ _ _
 72
    65
 73
     6
 40
1.25
 49
0.625
 49
-0.125
 49
0.125
 49
-0.125
 49
0.125
 49
-0.125
  0
ENDTAB
  0
TABLE
  2
LAYER
 70
     3
  0
LAYER
  2
0
 70
     0
 62
     7
  6
CONTINUOUS
  0
LAYER
  2
1
 70
     0
 62
     1
  6
CENTER
  0
LAYER
  2
3
 70
     0
 62
     3
  6
CONTINUOUS
  0
ENDTAB
  0
TABLE
  2
STYLE
 70
     2
  0
STYLE
  2
STANDARD
 70
     0
 40
0.0
 41
1.0
 50
0.0
 71
     0
 42
0.2
  3
TXT
  4
BIGFONT
  0
STYLE
  2
STANDARD1
 70
     0
 40
0.0
 41
1.0
 50
0.0
 71
     0
 42
3.0
  3
txt
  4

  0
ENDTAB
  0
TABLE
  2
VIEW
 70
     1
  0
VIEW
  2
ALL
 70
     0
 40
270.0
 10
220.99159663865549
 20
135.0
 41
0.0
 11
0.0
 21
0.0
 31
1.0
 12
0.0
 22
0.0
 32
0.0
 42
0.0
 43
0.0
 44
0.0
 50
0.0
 71
     0
  0
ENDTAB
  0
TABLE
  2
UCS
 70
     0
  0
ENDTAB
  0
TABLE
  2
APPID
 70
     3
  0
APPID
  2
ACAD
 70
     0
  0
APPID
  2
ACAD_MLEADERVER
 70
     0
  0
APPID
  2
ACAD_NAV_VCDISPLAY
 70
     0
  0
ENDTAB
  0
TABLE
  2
DIMSTYLE
 70
     1
  0
DIMSTYLE
  2
STANDARD
 70
     0
  3

  4

  5

  6

  7

 40
1.0
 41
0.18
 42
0.0625
 43
0.38
 44
0.18
 45
0.0
 46
0.0
 47
0.0
 48
0.0
140
0.18
141
0.09
142
0.0
143
25.399999999999999
144
1.0
145
0.0
146
1.0
147
0.09
 71
     0
 72
     0
 73
     1
 74
     1
 75
     0
 76
     0
 77
     0
 78
     0
170
     0
171
     2
172
     0
173
     0
174
     0
175
     0
176
     0
177
     0
178
     0
  0
ENDTAB
  0
ENDSEC
  0
SECTION
  2
BLOCKS
  0
BLOCK
  8
0
  2
$MODEL_SPACE
 70
     0
 10
0.0
 20
0.0
 30
0.0
  3
$MODEL_SPACE
  1

  0
ENDBLK
  5
19F
  8
0
  0
BLOCK
 67
     1
  8
0
  2
$PAPER_SPACE
 70
     0
 10
0.0
 20
0.0
 30
0.0
  3
$PAPER_SPACE
  1

  0
ENDBLK
  5
19D
 67
     1
  8
0
  0
ENDSEC
  0
SECTION
  2
ENTITIES
  0
ARC
  5
E20
  8
0
 10
-376.05252374043812
 20
134.20511175392741
 30
1809.409409556665
 40
5.9999940479999498
210
0.0
220
0.0
230
-1.0
 50
105.89727373563031
 51
180.0000050089993
  0
LINE
  5
E21
  8
0
 10
382.05251779043851
 20
132.70511324292721
 30
-1809.409409556665
 11
382.05251779043851
 21
134.20511175492749
 31
-1809.4094094726649
  0
ARC
  5
E22
  8
0
 10
-376.05252374243878
 20
132.7051132429271
 30
1809.409409556665
 40
5.9999940479999498
210
0.0
220
0.0
230
-1.0
 50
180.0000050089993
 51
252.72963633985719
  0
LINE
  5
E23
  8
0
 10
374.05252826643601
 20
139.97563209396921
 30
-1809.3275679095209
 11
374.05252826643641
 21
126.9756319899692
 31
-1809.3275679095209
  0
LINE
  5
E24
  8
0
 10
374.05252826643618
 20
134.43770398726741
 30
-1809.3275679095209
 11
374.05252826643618
 21
133.47563204196911
 31
-1809.3275679095209
  0
ARC
  5
E25
  8
3
 10
378.15283588874132
 20
133.47563204198241
 30
-1809.3275679095191
 40
0.4
 50
124.748011293223
 51
235.2519887432133
  0
ARC
  5
E26
  8
3
 10
378.252528266436
 20
134.4377039872796
 30
-1809.3275679095209
 40
0.4
 50
305.95305255354259
 51
48.08829444668261
  0
LINE
  5
E27
  8
3
 10
377.9248485914145
 20
133.80429873067729
 30
-1809.3275679095191
 11
378.48737712908451
 21
134.11390464862569
 31
-1809.3275679095209
  0
ARC
  5
E28
  8
3
 10
378.10283588874108
 20
135.4842425124944
 30
-1809.3275679095191
 40
0.35
 50
110.1413622607494
 51
230.7030279380526
  0
ARC
  5
E29
  8
3
 10
378.35246068411789
 20
136.26767360369649
 30
-1809.3275679095209
 40
0.3
 50
294.92213431311859
 51
50.467472311804741
  0
LINE
  5
E2A
  8
3
 10
378.5197221083215
 20
134.73537402416349
 30
-1809.3275679095209
 11
377.88116689706021
 21
135.21338672406239
 31
-1809.3275679095191
  0
LINE
  5
E2B
  8
3
 10
377.92484859141678
 20
133.14696535325621
 30
-1809.3275679095191
 11
378.487377129089
 21
132.83735943531181
 31
-1809.3275679095209
  0
ARC
  5
E2C
  8
3
 10
378.4525282664361
 20
137.82433873793741
 30
-1809.3275679095209
 40
0.2
 50
277.29767788784483
 51
54.194618392945351
  0
ARC
  5
E2D
  8
3
 10
378.002528266436
 20
137.2962362048271
 30
-1809.3275679095209
 40
0.25
 50
94.776354532568845
 51
223.65199318079149
  0
LINE
  5
E2E
  8
3
 10
377.98231774823989
 20
135.81283858339319
 30
-1809.3275679095191
 11
378.4788765405583
 21
135.99560921565489
 31
-1809.3275679095209
  0
LINE
  5
E2F
  8
3
 10
378.54341553835769
 20
136.4990526080212
 30
-1809.3275679095209
 11
377.82164182478891
 21
137.1236671020647
 31
-1809.3275679095209
  0
LINE
  5
E30
  8
3
 10
377.98171161835529
 20
137.54536803170339
 30
-1809.3275679095209
 11
378.47793314813538
 21
137.6259588196346
 31
-1809.3275679095209
  0
ARC
  5
E31
  8
3
 10
377.95252826643599
 20
138.73424254206239
 30
-1809.3275679095209
 40
0.2
 50
75.825198866969387
 51
234.78927860078619
  0
LINE
  5
E32
  8
3
 10
377.83721122378228
 20
138.57083513808811
 30
-1809.3275679095209
 11
378.58469848279668
 21
137.97444214864871
 31
-1809.3275679095209
  0
ARC
  5
E33
  8
3
 10
378.502528266436
 20
138.95532216182571
 30
-1809.32756790952
 40
0.15
 50
254.1751192933063
 51
67.287648898477315
  0
ARC
  5
E34
  8
3
 10
377.90252826643592
 20
139.657499444618
 30
-1809.3275679095209
 40
0.15
 50
119.9608230322428
 51
240.0391769677617
  0
LINE
  5
E35
  8
3
 10
378.56044400180798
 20
139.09369039371541
 30
-1809.32756790952
 11
377.82461692649957
 21
139.52932057307771
 31
-1809.3275679095209
  0
LINE
  5
E36
  8
3
 10
377.99879328831372
 20
138.92881784304029
 30
-1809.3275679095209
 11
378.46945647481402
 21
138.80901339039031
 31
-1809.32756790952
  0
LINE
  5
E37
  8
3
 10
377.99009457462739
 20
139.88364570544459
 30
-1809.3275679095209
 11
377.82461692649957
 21
139.78567831615831
 31
-1809.3275679095209
  0
LINE
  5
E38
  8
3
 10
377.99009457463399
 20
127.0676183784859
 30
-1809.3275679095209
 11
377.82461692650622
 21
127.1655857677721
 31
-1809.3275679095209
  0
LINE
  5
E39
  8
3
 10
377.9987932883194
 20
128.0224462408903
 30
-1809.3275679095209
 11
378.46945647481948
 21
128.14225069354069
 31
-1809.32756790952
  0
LINE
  5
E3A
  8
3
 10
378.56044400181389
 20
127.8575736902157
 30
-1809.32756790952
 11
377.824616926506
 21
127.4219435108527
 31
-1809.3275679095209
  0
ARC
  5
E3B
  8
3
 10
377.90252826644252
 20
127.2937646393125
 30
-1809.3275679095209
 40
0.15
 50
119.96082303229809
 51
240.03917696781861
  0
ARC
  5
E3C
  8
3
 10
378.50252826644169
 20
127.9959419221054
 30
-1809.32756790952
 40
0.15
 50
292.71235110158261
 51
105.8248807067513
  0
LINE
  5
E3D
  8
3
 10
377.83721122378751
 20
128.38042894584231
 30
-1809.3275679095209
 11
378.58469848280151
 21
128.97682193528249
 31
-1809.3275679095209
  0
ARC
  5
E3E
  8
3
 10
377.9525282664415
 20
128.21702154186821
 30
-1809.3275679095209
 40
0.2
 50
125.2107213992725
 51
284.17480113309142
  0
LINE
  5
E3F
  8
3
 10
377.98171161835972
 20
129.40589605222721
 30
-1809.3275679095209
 11
378.47793314813981
 21
129.3253052642965
 31
-1809.3275679095209
  0
LINE
  5
E40
  8
3
 10
378.5434155383607
 20
130.45221147590991
 30
-1809.3275679095209
 11
377.82164182479261
 21
129.8275969818657
 31
-1809.3275679095209
  0
LINE
  5
E41
  8
3
 10
377.98231774824239
 20
131.13842550053741
 30
-1809.3275679095191
 11
378.47887654056098
 21
130.9556548682761
 31
-1809.3275679095209
  0
ARC
  5
E42
  8
3
 10
378.00252826643992
 20
129.6550278791035
 30
-1809.3275679095209
 40
0.25
 50
136.34800681927069
 51
265.22364546749333
  0
ARC
  5
E43
  8
3
 10
378.45252826644059
 20
129.12692534599361
 30
-1809.3275679095209
 40
0.2
 50
305.80538160711529
 51
82.702322112217374
  0
LINE
  5
E44
  8
3
 10
378.51972210832292
 20
132.21589005976759
 30
-1809.3275679095209
 11
377.8811668970618
 21
131.73787735986809
 31
-1809.3275679095191
  0
ARC
  5
E45
  8
3
 10
378.35246068412079
 20
130.68359048023439
 30
-1809.3275679095209
 40
0.3
 50
309.5325276882553
 51
65.077865686942602
  0
ARC
  5
E46
  8
3
 10
378.10283588874307
 20
131.46702157143631
 30
-1809.3275679095191
 40
0.35
 50
129.2969720620074
 51
249.8586377393093
  0
ARC
  5
E47
  8
3
 10
378.25252826643691
 20
132.5135600966513
 30
-1809.3275679095209
 40
0.4
 50
311.91170555337959
 51
54.046947446515382
  0
ARC
  5
E48
  8
3
 10
119.8525282664351
 20
132.5135600966511
 30
-1809.3275679095209
 40
0.4
 50
125.9530525534846
 51
228.08829444662501
  0
ARC
  5
E49
  8
3
 10
120.0022206441289
 20
131.46702157143611
 30
-1809.3275679095191
 40
0.35
 50
290.1413622606907
 51
50.703027937994619
  0
ARC
  5
E4A
  8
3
 10
119.7525958487512
 20
130.6835904802343
 30
-1809.3275679095209
 40
0.3
 50
114.9221343130617
 51
230.4674723117447
  0
LINE
  5
E4B
  8
3
 10
119.5853344245493
 20
132.21589005976739
 30
-1809.3275679095209
 11
120.2238896358102
 21
131.73787735986789
 31
-1809.3275679095191
  0
ARC
  5
E4C
  8
3
 10
119.6525282664317
 20
129.12692534599341
 30
-1809.3275679095209
 40
0.2
 50
97.297677887785881
 51
234.1946183928867
  0
ARC
  5
E4D
  8
3
 10
120.1025282664322
 20
129.6550278791033
 30
-1809.3275679095209
 40
0.25
 50
274.77635453250991
 51
43.651993180733911
  0
LINE
  5
E4E
  8
3
 10
120.1227387846297
 20
131.13842550053721
 30
-1809.3275679095191
 11
119.62617999231109
 21
130.95565486827601
 31
-1809.3275679095209
  0
LINE
  5
E4F
  8
3
 10
119.56164099451139
 20
130.45221147590971
 30
-1809.3275679095209
 11
120.2834147080795
 21
129.8275969818655
 31
-1809.3275679095209
  0
LINE
  5
E50
  8
3
 10
120.1233449145125
 20
129.40589605222701
 30
-1809.3275679095209
 11
119.6271233847324
 21
129.3253052642963
 31
-1809.3275679095209
  0
ARC
  5
E51
  8
3
 10
120.15252826643081
 20
128.21702154186801
 30
-1809.3275679095209
 40
0.2
 50
255.82519886691171
 51
54.789278600730171
  0
LINE
  5
E52
  8
3
 10
120.26784530908461
 20
128.38042894584211
 30
-1809.3275679095209
 11
119.5203580500708
 21
128.97682193528229
 31
-1809.3275679095209
  0
ARC
  5
E53
  8
3
 10
119.6025282664306
 20
127.9959419221052
 30
-1809.32756790952
 40
0.15
 50
74.175119293249509
 51
247.28764889841739
  0
ARC
  5
E54
  8
3
 10
120.20252826642979
 20
127.2937646393123
 30
-1809.3275679095209
 40
0.15
 50
299.96082303218577
 51
60.039176967704712
  0
LINE
  5
E55
  8
3
 10
119.54461253105831
 20
127.8575736902155
 30
-1809.32756790952
 11
120.2804396063663
 21
127.4219435108525
 31
-1809.3275679095209
  0
LINE
  5
E56
  8
3
 10
120.10626324455281
 20
128.0224462408901
 30
-1809.3275679095209
 11
119.6356000580526
 21
128.14225069354049
 31
-1809.32756790952
  0
LINE
  5
E57
  8
3
 10
120.1149619582383
 20
127.0676183784857
 30
-1809.3275679095209
 11
120.2804396063661
 21
127.1655857677719
 31
-1809.3275679095209
  0
LINE
  5
E58
  8
3
 10
120.11496195824439
 20
139.88364570544451
 30
-1809.3275679095209
 11
120.2804396063722
 21
139.7856783161582
 31
-1809.3275679095209
  0
LINE
  5
E59
  8
3
 10
120.10626324455821
 20
138.92881784304021
 30
-1809.3275679095209
 11
119.6356000580578
 21
138.80901339039019
 31
-1809.32756790952
  0
LINE
  5
E5A
  8
3
 10
119.54461253106381
 20
139.09369039371529
 30
-1809.32756790952
 11
120.2804396063722
 21
139.5293205730776
 31
-1809.3275679095209
  0
ARC
  5
E5B
  8
3
 10
120.20252826643581
 20
139.65749944461791
 30
-1809.3275679095209
 40
0.15
 50
299.96082303224119
 51
60.039176967758863
  0
ARC
  5
E5C
  8
3
 10
119.6025282664358
 20
138.95532216182551
 30
-1809.32756790952
 40
0.15
 50
112.7123511015257
 51
285.8248807066937
  0
LINE
  5
E5D
  8
3
 10
120.26784530908949
 20
138.570835138088
 30
-1809.3275679095209
 11
119.5203580500751
 21
137.97444214864851
 31
-1809.3275679095209
  0
ARC
  5
E5E
  8
3
 10
120.15252826643579
 20
138.73424254206219
 30
-1809.3275679095209
 40
0.2
 50
305.21072139921381
 51
104.17480113303451
  0
LINE
  5
E5F
  8
3
 10
120.12334491451649
 20
137.54536803170319
 30
-1809.3275679095209
 11
119.62712338473639
 21
137.62595881963441
 31
-1809.3275679095209
  0
LINE
  5
E60
  8
3
 10
119.56164099451431
 20
136.49905260802109
 30
-1809.3275679095209
 11
120.2834147080831
 21
137.12366710206459
 31
-1809.3275679095209
  0
LINE
  5
E61
  8
3
 10
120.12273878463191
 20
135.81283858339299
 30
-1809.3275679095191
 11
119.6261799923135
 21
135.99560921565481
 31
-1809.3275679095209
  0
ARC
  5
E62
  8
3
 10
120.1025282664358
 20
137.29623620482701
 30
-1809.3275679095209
 40
0.25
 50
316.34800681921092
 51
85.223645467434395
  0
ARC
  5
E63
  8
3
 10
119.65252826643579
 20
137.8243387379373
 30
-1809.3275679095209
 40
0.2
 50
125.8053816070573
 51
262.70232211215841
  0
LINE
  5
E64
  8
3
 10
120.18020794145529
 20
133.14696535325601
 30
-1809.3275679095191
 11
119.6176794037829
 21
132.83735943531161
 31
-1809.3275679095209
  0
LINE
  5
E65
  8
3
 10
119.5853344245506
 20
134.73537402416329
 30
-1809.3275679095209
 11
120.2238896358118
 21
135.21338672406219
 31
-1809.3275679095191
  0
ARC
  5
E66
  8
3
 10
119.7525958487539
 20
136.26767360369641
 30
-1809.3275679095209
 40
0.3
 50
129.53252768819729
 51
245.07786568688439
  0
ARC
  5
E67
  8
3
 10
120.0022206441307
 20
135.48424251249421
 30
-1809.3275679095191
 40
0.35
 50
309.29697206194737
 51
69.858637739253652
  0
LINE
  5
E68
  8
3
 10
120.1802079414576
 20
133.80429873067709
 30
-1809.3275679095191
 11
119.61767940378741
 21
134.11390464862561
 31
-1809.3275679095209
  0
ARC
  5
E69
  8
3
 10
119.8525282664361
 20
134.43770398727941
 30
-1809.3275679095209
 40
0.4
 50
131.91170555331959
 51
234.0469474464594
  0
ARC
  5
E6A
  8
3
 10
119.9522206441308
 20
133.47563204198229
 30
-1809.3275679095191
 40
0.4
 50
304.74801125678681
 51
55.251988706778832
  0
LINE
  5
E6B
  8
0
 10
124.0525282664359
 20
134.43770398726741
 30
-1809.3275679095209
 11
124.0525282664359
 21
133.47563204196911
 31
-1809.3275679095209
  0
LINE
  5
E6C
  8
0
 10
124.0525282664359
 20
139.97563209396921
 30
-1809.3275679095209
 11
124.0525282664359
 21
126.9756319899692
 31
-1809.3275679095209
  0
LINE
  5
E6D
  8
3
 10
119.4525282664351
 20
132.51356009667111
 30
-1809.3275679095209
 11
378.65252826643678
 21
132.51356009666469
 31
-1809.3275679095209
  0
LINE
  5
E6E
  8
0
 10
120.2712486614929
 20
126.975631989967
 30
-1809.3275679095209
 11
377.83380787138498
 21
126.975631989969
 31
-1809.3275679095209
  0
LINE
  5
E6F
  8
3
 10
120.3525282664299
 20
127.2937646393203
 30
-1809.3275679095209
 11
377.75252826644243
 21
127.2937646393203
 31
-1809.3275679095209
  0
LINE
  5
E70
  8
3
 10
119.45252826643051
 20
127.99594192211271
 30
-1809.3275679095209
 11
378.65252826644161
 21
127.99594192211261
 31
-1809.3275679095209
  0
LINE
  5
E71
  8
3
 10
120.3525282664307
 20
128.21702154187579
 30
-1809.3275679095209
 11
377.75252826644152
 21
128.2170215418779
 31
-1809.3275679095209
  0
LINE
  5
E72
  8
3
 10
119.4525282664316
 20
129.126925346001
 30
-1809.3275679095209
 11
378.6525282664407
 21
129.12692534600089
 31
-1809.3275679095209
  0
LINE
  5
E73
  8
3
 10
120.3525282664322
 20
129.65502787911129
 30
-1809.3275679095209
 11
377.75252826643992
 21
129.6550278791112
 31
-1809.3275679095209
  0
LINE
  5
E74
  8
3
 10
119.4525958487513
 20
130.6835904802418
 30
-1809.3275679095209
 11
378.6524606841208
 21
130.68359048024189
 31
-1809.3275679095209
  0
LINE
  5
E75
  8
3
 10
120.35222064412881
 20
131.467021571435
 30
-1809.3275679095209
 11
377.75283588874322
 21
131.46702157143699
 31
-1809.3275679095209
  0
LINE
  5
E76
  8
3
 10
120.3522206441308
 20
133.47563204196311
 30
-1809.3275679095209
 11
377.75283588874117
 21
133.47563204196931
 31
-1809.3275679095209
  0
LINE
  5
E77
  8
3
 10
119.452528266436
 20
134.4377039872671
 30
-1809.3275679095209
 11
378.65252826643592
 21
134.43770398727341
 31
-1809.3275679095209
  0
LINE
  5
E78
  8
3
 10
120.3522206441309
 20
135.4842425125031
 30
-1809.3275679095209
 11
377.75283588874117
 21
135.48424251250111
 31
-1809.3275679095209
  0
LINE
  5
E79
  8
3
 10
119.452595848754
 20
136.2676736036963
 30
-1809.3275679095209
 11
378.6524606841179
 21
136.26767360369621
 31
-1809.3275679095209
  0
LINE
  5
E7A
  8
3
 10
120.3525282664358
 20
137.29623620482701
 30
-1809.3275679095209
 11
377.752528266436
 21
137.2962362048269
 31
-1809.3275679095209
  0
LINE
  5
E7B
  8
3
 10
119.45252826643591
 20
137.8243387379373
 30
-1809.3275679095209
 11
378.65252826643609
 21
137.82433873793741
 31
-1809.3275679095209
  0
LINE
  5
E7C
  8
3
 10
120.3525282664358
 20
138.7342425420623
 30
-1809.3275679095209
 11
377.752528266436
 21
138.73424254206029
 31
-1809.3275679095209
  0
LINE
  5
E7D
  8
3
 10
119.45252826643591
 20
138.95532216182551
 30
-1809.3275679095209
 11
378.65252826643592
 21
138.95532216182551
 31
-1809.3275679095209
  0
LINE
  5
E7E
  8
3
 10
120.3525282664358
 20
139.65749944461791
 30
-1809.3275679095209
 11
377.752528266436
 21
139.6574994446178
 31
-1809.3275679095209
  0
LINE
  5
E7F
  8
0
 10
120.4090536835995
 20
139.97563209397109
 30
-1809.3275679095209
 11
377.69600284928021
 21
139.9756320939691
 31
-1809.3275679095209
  0
LINE
  5
E80
  8
1
 10
68.052538638433745
 20
133.47563204196919
 30
-1809.3275679095209
 11
91.052538742433683
 21
133.47563204196919
 31
-1809.3275679095209
  0
ARC
  5
E81
  8
0
 10
30.325723079619479
 20
136.6483530413511
 30
-1809.3275679095209
 40
0.8385184307081474
 50
298.51087705600088
 51
7.489121603001279
  0
ARC
  5
E82
  8
0
 10
36.552538586433798
 20
133.47563204196939
 30
-1809.3275679095209
 40
4.7500000379999996
 50
107.10463517700251
 51
162.89536482300051
  0
LINE
  5
E83
  8
0
 10
33.40253846623375
 20
132.7256320359692
 30
-1809.3275679095209
 11
32.490519351937678
 21
132.7256320359692
 31
-1809.3275679095209
  0
ARC
  5
E84
  8
0
 10
32.490519351937678
 20
132.2256320319693
 30
-1809.3275679095209
 40
0.5000000039999999
 50
90.0
 51
197.10463517699941
  0
ARC
  5
E85
  8
0
 10
31.08396357368531
 20
131.69878431075449
 30
-1809.3275679095209
 40
0.7500000059999998
 50
154.51087705599841
 51
241.48912144700259
  0
ARC
  5
E86
  8
0
 10
29.650060407214031
 20
132.3823869242234
 30
-1809.3275679095209
 40
0.8385184307081474
 50
334.51087705599838
 51
43.489121603001223
  0
LINE
  5
E87
  8
0
 10
35.802538580433861
 20
130.32563192176929
 30
-1809.3275679095209
 11
35.802538580433861
 21
129.41361280747321
 31
-1809.3275679095209
  0
ARC
  5
E88
  8
0
 10
34.775690855219068
 20
128.00705703022069
 30
-1809.3275679095209
 40
0.7500000059999998
 50
208.51087705600091
 51
295.48912144699688
  0
ARC
  5
E89
  8
0
 10
33.17277335839583
 20
128.82378428775451
 30
-1809.3275679095209
 40
0.7500000059999998
 50
190.51087705600031
 51
277.48912144699722
  0
ARC
  5
E8A
  8
0
 10
31.900690832219091
 20
130.09586681493121
 30
-1809.3275679095209
 40
0.7500000059999998
 50
172.5108770560004
 51
259.48912144699818
  0
ARC
  5
E8B
  8
0
 10
31.61090979390076
 20
128.5340032854364
 30
-1809.3275679095209
 40
0.8385184307081474
 50
10.51087705600029
 51
79.48912160300236
  0
ARC
  5
E8C
  8
0
 10
33.379817588052113
 20
127.2488165351549
 30
-1809.3275679095209
 40
0.8385184307081474
 50
28.510877056000862
 51
97.489121602997656
  0
ARC
  5
E8D
  8
0
 10
36.552538586433798
 20
133.47563204196939
 30
-1809.3275679095209
 40
4.7500000379999996
 50
197.10463517699941
 51
252.89536482299749
  0
ARC
  5
E8E
  8
0
 10
30.325723056619498
 20
130.30291108858771
 30
-1809.3275679095209
 40
0.8385184307081474
 50
352.51087705600042
 51
61.489121602997578
  0
LINE
  5
E8F
  8
0
 10
33.40253846623375
 20
134.22563204796921
 30
-1809.3275679095209
 11
32.490519351937678
 21
134.22563204796921
 31
-1809.3275679095209
  0
ARC
  5
E90
  8
0
 10
32.490519351937678
 20
134.72563205196931
 30
-1809.3275679095209
 40
0.5000000039999999
 50
162.89536482300051
 51
270.0
  0
ARC
  5
E91
  8
0
 10
29.65006041521395
 20
134.56887720971531
 30
-1809.3275679095209
 40
0.8385184307081474
 50
316.51087705600042
 51
25.489121602999312
  0
ARC
  5
E92
  8
0
 10
31.08396357368531
 20
135.25247977418411
 30
-1809.3275679095209
 40
0.7500000059999998
 50
118.51087705600079
 51
205.48912144700131
  0
ARC
  5
E93
  8
0
 10
30.802538540433829
 20
133.47563204196939
 30
-1809.3275679095209
 40
0.7500000059999998
 50
136.5108770560004
 51
223.48912144700151
  0
ARC
  5
E94
  8
0
 10
33.40253846623375
 20
133.47563204196939
 30
-1809.3275679095209
 40
0.7500000059999998
 50
270.0
 51
90.0
  0
ARC
  5
E95
  8
0
 10
34.775690855219068
 20
138.94420705471791
 30
-1809.3275679095209
 40
0.7500000059999998
 50
64.510877055998449
 51
151.48912144699969
  0
LINE
  5
E96
  8
0
 10
35.802538580433861
 20
136.6256321631692
 30
-1809.3275679095209
 11
35.802538580433861
 21
137.53765127746539
 31
-1809.3275679095209
  0
ARC
  5
E97
  8
0
 10
31.900690832219091
 20
136.8553972700075
 30
-1809.3275679095209
 40
0.7500000059999998
 50
100.5108770559971
 51
187.48912144700091
  0
ARC
  5
E98
  8
0
 10
31.610909829900841
 20
138.4172608355023
 30
-1809.3275679095209
 40
0.8385184307081474
 50
280.51087705599713
 51
349.48912160299921
  0
ARC
  5
E99
  8
0
 10
33.17277335839583
 20
138.12747979718409
 30
-1809.3275679095209
 40
0.7500000059999998
 50
82.51087705599717
 51
169.48912144700139
  0
ARC
  5
E9A
  8
0
 10
33.379817633052312
 20
139.70244757278371
 30
-1809.3275679095209
 40
0.8385184307081474
 50
262.51087705600361
 51
331.48912160300051
  0
ARC
  5
E9B
  8
0
 10
36.552538586433798
 20
133.47563204196939
 30
-1809.3275679095209
 40
4.7500000379999996
 50
17.10463517699943
 51
72.895364822997465
  0
ARC
  5
E9C
  8
0
 10
42.779354117248538
 20
136.64835299635109
 30
-1809.3275679095209
 40
0.8385184307081474
 50
172.5108770560004
 51
241.48912160299761
  0
LINE
  5
E9D
  8
1
 10
36.552538586433798
 20
121.9756319899692
 30
-1809.3275679095209
 11
36.552538586433798
 21
144.9756320939691
 31
-1809.3275679095209
  0
ARC
  5
E9E
  8
0
 10
41.204386341648721
 20
130.09586681493121
 30
-1809.3275679095209
 40
0.7500000059999998
 50
280.51087705599713
 51
7.4891214470009277
  0
ARC
  5
E9F
  8
0
 10
42.779354094248333
 20
130.3029110435875
 30
-1809.3275679095209
 40
0.8385184307081474
 50
118.51087705600079
 51
187.48912160300131
  0
ARC
  5
EA0
  8
0
 10
36.552538586433798
 20
133.47563204196939
 30
-1809.3275679095209
 40
4.7500000379999996
 50
287.10463517700248
 51
342.89536482300059
  0
ARC
  5
EA1
  8
0
 10
40.614557820930138
 20
132.2256320319693
 30
-1809.3275679095209
 40
0.5000000039999999
 50
342.89536482300059
 51
90.0
  0
LINE
  5
EA2
  8
0
 10
39.702538707633607
 20
132.7256320359692
 30
-1809.3275679095209
 11
40.614557820930138
 21
132.7256320359692
 31
-1809.3275679095209
  0
ARC
  5
EA3
  8
0
 10
39.932303814472
 20
128.82378428775451
 30
-1809.3275679095209
 40
0.7500000059999998
 50
262.51087705600361
 51
349.48912144700142
  0
ARC
  5
EA4
  8
0
 10
41.494167343966971
 20
128.5340032494363
 30
-1809.3275679095209
 40
0.8385184307081474
 50
100.5108770559971
 51
169.48912160299909
  0
ARC
  5
EA5
  8
0
 10
38.329386318648517
 20
128.00705703022069
 30
-1809.3275679095209
 40
0.7500000059999998
 50
244.51087705599841
 51
331.48912144699972
  0
ARC
  5
EA6
  8
0
 10
39.725259539815738
 20
127.2488165121548
 30
-1809.3275679095209
 40
0.8385184307081474
 50
82.51087705599717
 51
151.4891216030004
  0
LINE
  5
EA7
  8
0
 10
37.302538592433741
 20
130.32563192176929
 30
-1809.3275679095209
 11
37.302538592433741
 21
129.41361280747321
 31
-1809.3275679095209
  0
ARC
  5
EA8
  8
0
 10
36.552538586433798
 20
127.7256319959692
 30
-1809.3275679095209
 40
0.7500000059999998
 50
226.51087705600051
 51
313.48912144699921
  0
ARC
  5
EA9
  8
0
 10
37.802538596433692
 20
129.41361280747321
 30
-1809.3275679095209
 40
0.5000000039999999
 50
180.0
 51
287.10463517700248
  0
ARC
  5
EAA
  8
0
 10
37.645783704179742
 20
126.5731538637496
 30
-1809.3275679095209
 40
0.8385184307081474
 50
64.510877055998449
 51
133.48912160299881
  0
LINE
  5
EAB
  8
0
 10
39.702538707633607
 20
134.22563204796921
 30
-1809.3275679095209
 11
40.614557820930138
 21
134.22563204796921
 31
-1809.3275679095209
  0
ARC
  5
EAC
  8
0
 10
40.614557820930138
 20
134.72563205196931
 30
-1809.3275679095209
 40
0.5000000039999999
 50
270.0
 51
17.10463517699943
  0
ARC
  5
EAD
  8
0
 10
39.702538707633607
 20
133.47563204196939
 30
-1809.3275679095209
 40
0.7500000059999998
 50
90.0
 51
270.0
  0
ARC
  5
EAE
  8
0
 10
43.455016757653418
 20
132.38238687522329
 30
-1809.3275679095209
 40
0.8385184307081474
 50
136.5108770560004
 51
205.48912160299929
  0
ARC
  5
EAF
  8
0
 10
42.021113599182513
 20
131.69878431075449
 30
-1809.3275679095209
 40
0.7500000059999998
 50
298.51087705600088
 51
25.48912144700131
  0
ARC
  5
EB0
  8
0
 10
42.021113599182513
 20
135.25247977418411
 30
-1809.3275679095209
 40
0.7500000059999998
 50
334.51087705599838
 51
61.489121447002617
  0
ARC
  5
EB1
  8
0
 10
43.455016765653788
 20
134.5688771597153
 30
-1809.3275679095209
 40
0.8385184307081474
 50
154.51087705599841
 51
223.48912160300119
  0
ARC
  5
EB2
  8
0
 10
42.302538632433759
 20
133.47563204196939
 30
-1809.3275679095209
 40
0.7500000059999998
 50
316.51087705600042
 51
43.489121446999249
  0
ARC
  5
EB3
  8
0
 10
41.204386341648721
 20
136.8553972700075
 30
-1809.3275679095209
 40
0.7500000059999998
 50
352.51087705600042
 51
79.48912144699824
  0
ARC
  5
EB4
  8
0
 10
38.329386318648517
 20
138.94420705471791
 30
-1809.3275679095209
 40
0.7500000059999998
 50
28.510877056000862
 51
115.4891214469969
  0
ARC
  5
EB5
  8
0
 10
41.494167378967063
 20
138.4172607995024
 30
-1809.3275679095209
 40
0.8385184307081474
 50
190.51087705600031
 51
259.48912160300239
  0
ARC
  5
EB6
  8
0
 10
39.725259584815717
 20
139.70244754978381
 30
-1809.3275679095209
 40
0.8385184307081474
 50
208.51087705600091
 51
277.48912160299761
  0
ARC
  5
EB7
  8
0
 10
39.932303814472
 20
138.12747979718409
 30
-1809.3275679095209
 40
0.7500000059999998
 50
10.51087705600029
 51
97.48912144699726
  0
ARC
  5
EB8
  8
0
 10
36.552538586433798
 20
139.22563208796939
 30
-1809.3275679095209
 40
0.7500000059999998
 50
46.510877056000467
 51
133.48912144699921
  0
LINE
  5
EB9
  8
0
 10
37.302538592433741
 20
136.6256321631692
 30
-1809.3275679095209
 11
37.302538592433741
 21
137.53765127746539
 31
-1809.3275679095209
  0
ARC
  5
EBA
  8
0
 10
37.645783754179661
 20
140.37811021318919
 30
-1809.3275679095209
 40
0.8385184307081474
 50
226.51087705600051
 51
295.48912160300358
  0
ARC
  5
EBB
  8
0
 10
37.802538596433692
 20
137.53765127746539
 30
-1809.3275679095209
 40
0.5000000039999999
 50
72.895364822997465
 51
180.0
  0
ARC
  5
EBC
  8
0
 10
35.302538576433911
 20
129.41361280747321
 30
-1809.3275679095209
 40
0.5000000039999999
 50
252.89536482299749
 51
0.0
  0
ARC
  5
EBD
  8
0
 10
35.459293418687942
 20
126.5731538717496
 30
-1809.3275679095209
 40
0.8385184307081474
 50
46.510877056000467
 51
115.4891216030036
  0
ARC
  5
EBE
  8
0
 10
36.552538586433798
 20
130.3256319217694
 30
-1809.3275679095209
 40
0.7500000059999998
 50
0.0
 51
180.0
  0
ARC
  5
EBF
  8
0
 10
35.459293468687861
 20
140.3781102211891
 30
-1809.3275679095209
 40
0.8385184307081474
 50
244.51087705599841
 51
313.48912160299659
  0
ARC
  5
EC0
  8
0
 10
35.302538576433911
 20
137.53765127746539
 30
-1809.3275679095209
 40
0.5000000039999999
 50
0.0
 51
107.10463517700251
  0
ARC
  5
EC1
  8
0
 10
36.552538586433798
 20
136.62563216316931
 30
-1809.3275679095209
 40
0.7500000059999998
 50
180.0
 51
0.0
  0
ARC
  5
EC2
  8
0
 10
80.645783858179755
 20
140.37811021318919
 30
-1809.3275679095209
 40
0.8385184307081474
 50
226.51087705600051
 51
295.48912160300358
  0
ARC
  5
EC3
  8
0
 10
79.552538690433664
 20
139.22563208796939
 30
-1809.3275679095209
 40
0.7500000059999998
 50
46.510877056000467
 51
133.48912144699921
  0
ARC
  5
EC4
  8
0
 10
82.932303918471874
 20
138.12747979718409
 30
-1809.3275679095209
 40
0.7500000059999998
 50
10.51087705600029
 51
97.48912144699726
  0
ARC
  5
EC5
  8
0
 10
82.725259688815584
 20
139.70244754978381
 30
-1809.3275679095209
 40
0.8385184307081474
 50
208.51087705600091
 51
277.48912160299761
  0
ARC
  5
EC6
  8
0
 10
84.49416748296693
 20
138.4172607995024
 30
-1809.3275679095209
 40
0.8385184307081474
 50
190.51087705600031
 51
259.48912160300239
  0
ARC
  5
EC7
  8
0
 10
81.329386422648611
 20
138.94420705471791
 30
-1809.3275679095209
 40
0.7500000059999998
 50
28.510877056000862
 51
115.4891214469969
  0
ARC
  5
EC8
  8
0
 10
84.204386445648595
 20
136.8553972700075
 30
-1809.3275679095209
 40
0.7500000059999998
 50
352.51087705600042
 51
79.48912144699824
  0
ARC
  5
EC9
  8
0
 10
85.302538736433874
 20
133.47563204196939
 30
-1809.3275679095209
 40
0.7500000059999998
 50
316.51087705600042
 51
43.489121446999249
  0
ARC
  5
ECA
  8
0
 10
86.455016869653647
 20
134.5688771597153
 30
-1809.3275679095209
 40
0.8385184307081474
 50
154.51087705599841
 51
223.48912160300119
  0
ARC
  5
ECB
  8
0
 10
85.021113703182365
 20
135.25247977418411
 30
-1809.3275679095209
 40
0.7500000059999998
 50
334.51087705599838
 51
61.489121447002617
  0
ARC
  5
ECC
  8
0
 10
85.021113703182365
 20
131.69878431075449
 30
-1809.3275679095209
 40
0.7500000059999998
 50
298.51087705600088
 51
25.48912144700131
  0
ARC
  5
ECD
  8
0
 10
86.455016861653505
 20
132.38238687522329
 30
-1809.3275679095209
 40
0.8385184307081474
 50
136.5108770560004
 51
205.48912160299929
  0
ARC
  5
ECE
  8
0
 10
80.645783808179814
 20
126.5731538637496
 30
-1809.3275679095209
 40
0.8385184307081474
 50
64.510877055998449
 51
133.48912160299881
  0
ARC
  5
ECF
  8
0
 10
79.552538690433664
 20
127.7256319959692
 30
-1809.3275679095209
 40
0.7500000059999998
 50
226.51087705600051
 51
313.48912144699921
  0
ARC
  5
ED0
  8
0
 10
82.725259643815605
 20
127.2488165121548
 30
-1809.3275679095209
 40
0.8385184307081474
 50
82.51087705599717
 51
151.4891216030004
  0
ARC
  5
ED1
  8
0
 10
81.329386422648611
 20
128.00705703022069
 30
-1809.3275679095209
 40
0.7500000059999998
 50
244.51087705599841
 51
331.48912144699972
  0
ARC
  5
ED2
  8
0
 10
84.494167447966845
 20
128.5340032494363
 30
-1809.3275679095209
 40
0.8385184307081474
 50
100.5108770559971
 51
169.48912160299909
  0
ARC
  5
ED3
  8
0
 10
82.932303918471874
 20
128.82378428775451
 30
-1809.3275679095209
 40
0.7500000059999998
 50
262.51087705600361
 51
349.48912144700142
  0
ARC
  5
ED4
  8
0
 10
85.7793541982482
 20
130.3029110435875
 30
-1809.3275679095209
 40
0.8385184307081474
 50
118.51087705600079
 51
187.48912160300131
  0
ARC
  5
ED5
  8
0
 10
84.204386445648595
 20
130.09586681493121
 30
-1809.3275679095209
 40
0.7500000059999998
 50
280.51087705599713
 51
7.4891214470009277
  0
LINE
  5
ED6
  8
1
 10
79.552538690433664
 20
121.9756319899692
 30
-1809.3275679095209
 11
79.552538690433664
 21
144.97563209396941
 31
-1809.3275679095209
  0
ARC
  5
ED7
  8
0
 10
85.779354221248411
 20
136.64835299635109
 30
-1809.3275679095209
 40
0.8385184307081474
 50
172.5108770560004
 51
241.48912160299761
  0
ARC
  5
ED8
  8
0
 10
76.379817737052178
 20
139.70244757278371
 30
-1809.3275679095209
 40
0.8385184307081474
 50
262.51087705600361
 51
331.48912160300051
  0
ARC
  5
ED9
  8
0
 10
76.172773462395696
 20
138.12747979718409
 30
-1809.3275679095209
 40
0.7500000059999998
 50
82.51087705599717
 51
169.48912144700139
  0
ARC
  5
EDA
  8
0
 10
74.610909933900928
 20
138.4172608355023
 30
-1809.3275679095209
 40
0.8385184307081474
 50
280.51087705599713
 51
349.48912160299921
  0
ARC
  5
EDB
  8
0
 10
74.900690936219178
 20
136.8553972700075
 30
-1809.3275679095209
 40
0.7500000059999998
 50
100.5108770559971
 51
187.48912144700091
  0
ARC
  5
EDC
  8
0
 10
77.775690959218934
 20
138.94420705471791
 30
-1809.3275679095209
 40
0.7500000059999998
 50
64.510877055998449
 51
151.48912144699969
  0
ARC
  5
EDD
  8
0
 10
73.802538644433696
 20
133.47563204196939
 30
-1809.3275679095209
 40
0.7500000059999998
 50
136.5108770560004
 51
223.48912144699929
  0
ARC
  5
EDE
  8
0
 10
74.083963677685404
 20
135.25247977418411
 30
-1809.3275679095209
 40
0.7500000059999998
 50
118.51087705600079
 51
205.48912144700131
  0
ARC
  5
EDF
  8
0
 10
72.650060519214037
 20
134.56887720971531
 30
-1809.3275679095209
 40
0.8385184307081474
 50
316.51087705600042
 51
25.489121602999312
  0
ARC
  5
EE0
  8
0
 10
73.325723160619361
 20
130.30291108858771
 30
-1809.3275679095209
 40
0.8385184307081474
 50
352.51087705600042
 51
61.489121602997578
  0
ARC
  5
EE1
  8
0
 10
76.379817692051972
 20
127.2488165351549
 30
-1809.3275679095209
 40
0.8385184307081474
 50
28.510877056000862
 51
97.489121602997656
  0
ARC
  5
EE2
  8
0
 10
74.610909897900854
 20
128.5340032854364
 30
-1809.3275679095209
 40
0.8385184307081474
 50
10.51087705600029
 51
79.48912160300236
  0
ARC
  5
EE3
  8
0
 10
74.900690936219178
 20
130.09586681493121
 30
-1809.3275679095209
 40
0.7500000059999998
 50
172.5108770560004
 51
259.48912144699818
  0
ARC
  5
EE4
  8
0
 10
76.172773462395696
 20
128.82378428775451
 30
-1809.3275679095209
 40
0.7500000059999998
 50
190.51087705600031
 51
277.48912144699722
  0
ARC
  5
EE5
  8
0
 10
77.775690959218934
 20
128.00705703022069
 30
-1809.3275679095209
 40
0.7500000059999998
 50
208.51087705600091
 51
295.48912144699688
  0
ARC
  5
EE6
  8
0
 10
72.650060511214122
 20
132.3823869242234
 30
-1809.3275679095209
 40
0.8385184307081474
 50
334.51087705599838
 51
43.489121603001223
  0
ARC
  5
EE7
  8
0
 10
74.083963677685404
 20
131.69878431075449
 30
-1809.3275679095209
 40
0.7500000059999998
 50
154.51087705599841
 51
241.48912144700259
  0
ARC
  5
EE8
  8
0
 10
73.325723183619345
 20
136.6483530413511
 30
-1809.3275679095209
 40
0.8385184307081474
 50
298.51087705600088
 51
7.489121603001279
  0
ARC
  5
EE9
  8
0
 10
-122.0525327904333
 20
132.70511324292701
 30
1809.409409556665
 40
5.9999940479999498
210
0.0
220
0.0
230
-1.0
 50
287.27036366014278
 51
359.99999499099749
  0
LINE
  5
EEA
  8
0
 10
116.0525387424335
 20
132.7051132429269
 30
-1809.409409556665
 11
116.0525387424335
 21
134.2051117549272
 31
-1809.4094094726649
  0
ARC
  5
EEB
  8
0
 10
-122.05253279243389
 20
134.2051117539273
 30
1809.409409556665
 40
5.9999940479999498
210
0.0
220
0.0
230
-1.0
 50
359.99999499099749
 51
74.102726264366552
  0
ARC
  5
EEC
  8
0
 10
78.459293572687713
 20
140.3781102211891
 30
-1809.3275679095209
 40
0.8385184307081474
 50
244.51087705599841
 51
313.48912160299659
  0
ARC
  5
EED
  8
0
 10
78.459293522688029
 20
126.5731538717496
 30
-1809.3275679095209
 40
0.8385184307081474
 50
46.510877056000467
 51
115.4891216030036
  0
LINE
  5
EEE
  8
1
 10
111.0525387424337
 20
133.47563204196919
 30
-1809.3275679095209
 11
387.05251779043829
 21
133.47563204196911
 31
-1809.3275679095209
  0
LINE
  5
EEF
  8
1
 10
25.05253853443384
 20
133.47563204196919
 30
-1809.3275679095209
 11
48.052538638433752
 21
133.47563204196919
 31
-1809.3275679095209
  0
TEXT
  5
FAE
  8
0
 62
     3
 10
0.0
 20
0.0
 30
0.0
 40
10.0
  1
CC60CT-250
  7
STANDARD1
  0
ENDSEC
  0
EOF
