  0
SECTION
  2
HEADER
  9
$ACADVER
  1
AC1009
  9
$INSBASE
 10
0.0
 20
0.0
 30
0.0
  9
$EXTMIN
 10
0.0
 20
-2.960436562073669
 30
-5.0000000000000027
  9
$EXTMAX
 10
197.97155621199661
 20
201.25421174726779
 30
0.0
  9
$LIMMIN
 10
0.0
 20
0.0
  9
$LIMMAX
 10
375.0
 20
270.0
  9
$ORTHOMODE
 70
     1
  9
$REGENMODE
 70
     1
  9
$FILLMODE
 70
     1
  9
$QTEXTMODE
 70
     0
  9
$MIRRTEXT
 70
     0
  9
$DRAGMODE
 70
     2
  9
$LTSCALE
 40
5.0
  9
$OSMODE
 70
  3071
  9
$ATTMODE
 70
     1
  9
$TEXTSIZE
 40
0.2
  9
$TRACEWID
 40
0.05
  9
$TEXTSTYLE
  7
STANDARD
  9
$CLAYER
  8
0
  9
$CELTYPE
  6
BYLAYER
  9
$CECOLOR
 62
   256
  9
$DIMSCALE
 40
1.0
  9
$DIMASZ
 40
3.0
  9
$DIMEXO
 40
2.0
  9
$DIMDLI
 40
0.38
  9
$DIMRND
 40
0.0
  9
$DIMDLE
 40
0.0
  9
$DIMEXE
 40
2.0
  9
$DIMTP
 40
0.0
  9
$DIMTM
 40
0.0
  9
$DIMTXT
 40
3.2000000000000002
  9
$DIMCEN
 40
0.09
  9
$DIMTSZ
 40
0.0
  9
$DIMTOL
 70
     0
  9
$DIMLIM
 70
     0
  9
$DIMTIH
 70
     0
  9
$DIMTOH
 70
     0
  9
$DIMSE1
 70
     0
  9
$DIMSE2
 70
     0
  9
$DIMTAD
 70
     1
  9
$DIMZIN
 70
     0
  9
$DIMBLK
  1

  9
$DIMASO
 70
     1
  9
$DIMSHO
 70
     0
  9
$DIMPOST
  1

  9
$DIMAPOST
  1

  9
$DIMALT
 70
     0
  9
$DIMALTD
 70
     2
  9
$DIMALTF
 40
25.399999999999999
  9
$DIMLFAC
 40
1.0
  9
$DIMTOFL
 70
     0
  9
$DIMTVP
 40
1.6000000000000001
  9
$DIMTIX
 70
     1
  9
$DIMSOXD
 70
     0
  9
$DIMSAH
 70
     0
  9
$DIMBLK1
  1

  9
$DIMBLK2
  1

  9
$DIMSTYLE
  2
STANDARD
  9
$DIMCLRD
 70
     0
  9
$DIMCLRE
 70
     0
  9
$DIMCLRT
 70
     0
  9
$DIMTFAC
 40
1.0
  9
$DIMGAP
 40
0.09
  9
$LUNITS
 70
     2
  9
$LUPREC
 70
     4
  9
$SKETCHINC
 40
0.1
  9
$FILLETRAD
 40
2.0
  9
$AUNITS
 70
     0
  9
$AUPREC
 70
     0
  9
$MENU
  1
E:\r13\win\SUPPORT\ACAD
  9
$ELEVATION
 40
0.0
  9
$PELEVATION
 40
0.0
  9
$THICKNESS
 40
0.0
  9
$LIMCHECK
 70
     0
  9
$BLIPMODE
 70
     0
  9
$CHAMFERA
 40
0.0
  9
$CHAMFERB
 40
0.0
  9
$SKPOLY
 70
     0
  9
$TDCREATE
 40
2447977.5416277782
  9
$TDUPDATE
 40
2456598.5872843978
  9
$TDINDWG
 40
0.053685544
  9
$TDUSRTIMER
 40
0.053685544
  9
$USRTIMER
 70
     1
  9
$ANGBASE
 50
0.0
  9
$ANGDIR
 70
     0
  9
$PDMODE
 70
     0
  9
$PDSIZE
 40
0.0
  9
$PLINEWID
 40
0.0
  9
$COORDS
 70
     1
  9
$SPLFRAME
 70
     0
  9
$SPLINETYPE
 70
     6
  9
$SPLINESEGS
 70
     8
  9
$ATTDIA
 70
     0
  9
$ATTREQ
 70
     1
  9
$HANDLING
 70
     1
  9
$HANDSEED
  5
DC9
  9
$SURFTAB1
 70
     6
  9
$SURFTAB2
 70
     6
  9
$SURFTYPE
 70
     6
  9
$SURFU
 70
     6
  9
$SURFV
 70
     6
  9
$UCSNAME
  2

  9
$UCSORG
 10
0.0
 20
0.0
 30
0.0
  9
$UCSXDIR
 10
1.0
 20
0.0
 30
0.0
  9
$UCSYDIR
 10
0.0
 20
1.0
 30
0.0
  9
$PUCSNAME
  2

  9
$PUCSORG
 10
0.0
 20
0.0
 30
0.0
  9
$PUCSXDIR
 10
1.0
 20
0.0
 30
0.0
  9
$PUCSYDIR
 10
0.0
 20
1.0
 30
0.0
  9
$USERI1
 70
     0
  9
$USERI2
 70
     1
  9
$USERI3
 70
     1
  9
$USERI4
 70
     0
  9
$USERI5
 70
     0
  9
$USERR1
 40
0.0
  9
$USERR2
 40
0.0
  9
$USERR3
 40
0.0
  9
$USERR4
 40
0.0
  9
$USERR5
 40
0.0
  9
$WORLDVIEW
 70
     1
  9
$SHADEDGE
 70
     3
  9
$SHADEDIF
 70
    70
  9
$TILEMODE
 70
     1
  9
$MAXACTVP
 70
    16
  9
$PLIMCHECK
 70
     0
  9
$PEXTMIN
 10
1.0000000000000000E+020
 20
1.0000000000000000E+020
 30
1.0000000000000000E+020
  9
$PEXTMAX
 10
-1.0000000000000000E+020
 20
-1.0000000000000000E+020
 30
-1.0000000000000000E+020
  9
$PLIMMIN
 10
0.0
 20
0.0
  9
$PLIMMAX
 10
12.0
 20
9.0
  9
$UNITMODE
 70
     0
  9
$VISRETAIN
 70
     0
  9
$PLINEGEN
 70
     1
  9
$PSLTSCALE
 70
     0
  0
ENDSEC
  0
SECTION
  2
TABLES
  0
TABLE
  2
VPORT
 70
     1
  0
VPORT
  2
*ACTIVE
 70
     0
 10
0.0
 20
0.0
 11
1.0
 21
1.0
 12
195.0581083320873
 22
133.5127261426681
 13
0.0
 23
0.0
 14
10.0
 24
10.0
 15
10.0
 25
10.0
 16
0.0
 26
0.0
 36
1.0
 17
0.0
 27
0.0
 37
0.0
 40
275.42274993631997
 41
1.831871345029239
 42
50.0
 43
0.0
 44
0.0
 50
0.0
 51
0.0
 71
     0
 72
   500
 73
     1
 74
     0
 75
     0
 76
     0
 77
     0
 78
     2
  0
ENDTAB
  0
TABLE
  2
LTYPE
 70
     4
  0
LTYPE
  2
CONTINUOUS
 70
     0
  3
Solid Line
 72
    65
 73
     0
 40
0.0
  0
LTYPE
  2
CENTER
 70
     0
  3
____ _ ____ _ ____ _ ____ _ ____ _ ____ _ ____
 72
    65
 73
     4
 40
2.0
 49
1.25
 49
-0.25
 49
0.25
 49
-0.25
  0
LTYPE
  2
HIDDEN
 70
     0
  3
_ _ _ _ _ _ _ _ _ _ _ _ _ _ _ _ _ _ _ _ _ _ _
 72
    65
 73
     2
 40
0.375
 49
0.25
 49
-0.125
  0
LTYPE
  2
PHANTOM2
 70
     0
  3
___ _ _ ___ _ _ ___ _ _ ___ _ _
 72
    65
 73
     6
 40
1.25
 49
0.625
 49
-0.125
 49
0.125
 49
-0.125
 49
0.125
 49
-0.125
  0
ENDTAB
  0
TABLE
  2
LAYER
 70
     4
  0
LAYER
  2
0
 70
     0
 62
     7
  6
CONTINUOUS
  0
LAYER
  2
1
 70
     0
 62
     1
  6
CENTER
  0
LAYER
  2
2
 70
     0
 62
     2
  6
HIDDEN
  0
LAYER
  2
3
 70
     0
 62
     3
  6
CONTINUOUS
  0
ENDTAB
  0
TABLE
  2
STYLE
 70
     2
  0
STYLE
  2
STANDARD
 70
     0
 40
0.0
 41
1.0
 50
0.0
 71
     0
 42
0.2
  3
TXT
  4
BIGFONT
  0
STYLE
  2
STANDARD1
 70
     0
 40
0.0
 41
1.0
 50
0.0
 71
     0
 42
3.0
  3
txt
  4

  0
ENDTAB
  0
TABLE
  2
VIEW
 70
     1
  0
VIEW
  2
ALL
 70
     0
 40
270.0
 10
220.99159663865549
 20
135.0
 41
0.0
 11
0.0
 21
0.0
 31
1.0
 12
0.0
 22
0.0
 32
0.0
 42
0.0
 43
0.0
 44
0.0
 50
0.0
 71
     0
  0
ENDTAB
  0
TABLE
  2
UCS
 70
     0
  0
ENDTAB
  0
TABLE
  2
APPID
 70
     3
  0
APPID
  2
ACAD
 70
     0
  0
APPID
  2
ACAD_MLEADERVER
 70
     0
  0
APPID
  2
ACAD_NAV_VCDISPLAY
 70
     0
  0
ENDTAB
  0
TABLE
  2
DIMSTYLE
 70
     1
  0
DIMSTYLE
  2
STANDARD
 70
     0
  3

  4

  5

  6

  7

 40
1.0
 41
0.18
 42
0.0625
 43
0.38
 44
0.18
 45
0.0
 46
0.0
 47
0.0
 48
0.0
140
0.18
141
0.09
142
0.0
143
25.399999999999999
144
1.0
145
0.0
146
1.0
147
0.09
 71
     0
 72
     0
 73
     1
 74
     1
 75
     0
 76
     0
 77
     0
 78
     0
170
     0
171
     2
172
     0
173
     0
174
     0
175
     0
176
     0
177
     0
178
     0
  0
ENDTAB
  0
ENDSEC
  0
SECTION
  2
BLOCKS
  0
BLOCK
  8
0
  2
$MODEL_SPACE
 70
     0
 10
0.0
 20
0.0
 30
0.0
  3
$MODEL_SPACE
  1

  0
ENDBLK
  5
19F
  8
0
  0
BLOCK
 67
     1
  8
0
  2
$PAPER_SPACE
 70
     0
 10
0.0
 20
0.0
 30
0.0
  3
$PAPER_SPACE
  1

  0
ENDBLK
  5
19D
 67
     1
  8
0
  0
ENDSEC
  0
SECTION
  2
ENTITIES
  0
LINE
  5
B1F
  8
2
 10
188.45095809317419
 20
129.78750212562221
 30
0.0
 11
191.00095809317401
 21
129.78750212562221
 31
0.0
  0
LINE
  5
B20
  8
2
 10
188.45095809317411
 20
123.2875021256225
 30
0.0
 11
191.00095809317421
 21
123.2875021256224
 31
0.0
  0
LINE
  5
B21
  8
2
 10
185.00095809317381
 20
133.23750212562231
 30
0.0
 11
188.45095809317419
 21
129.78750212562221
 31
0.0
  0
LINE
  5
B22
  8
2
 10
185.00095809317389
 20
119.83750212562219
 30
0.0
 11
188.45095809317411
 21
123.2875021256225
 31
0.0
  0
LINE
  5
B23
  8
2
 10
188.45095809317419
 20
129.78750212562221
 30
0.0
 11
188.45095809317411
 21
123.2875021256225
 31
0.0
  0
LINE
  5
B24
  8
2
 10
47.550958093173449
 20
129.78750212562221
 30
0.0
 11
47.550958093173563
 21
123.2875021256225
 31
0.0
  0
LINE
  5
B25
  8
2
 10
51.000958093173722
 20
119.83750212562219
 30
0.0
 11
47.550958093173563
 21
123.2875021256225
 31
0.0
  0
LINE
  5
B26
  8
2
 10
51.000958093173843
 20
133.23750212562231
 30
0.0
 11
47.550958093173449
 21
129.78750212562221
 31
0.0
  0
LINE
  5
B27
  8
2
 10
47.550958093173563
 20
123.2875021256225
 30
0.0
 11
45.000958093173487
 21
123.2875021256224
 31
0.0
  0
LINE
  5
B28
  8
2
 10
47.550958093173449
 20
129.78750212562221
 30
0.0
 11
45.000958093173601
 21
129.78750212562221
 31
0.0
  0
CIRCLE
  5
B29
  8
0
 10
118.0009580931234
 20
126.5375021256222
 30
0.0
 40
3.25
  0
CIRCLE
  5
B2A
  8
0
 10
118.00095809317379
 20
126.5375021256222
 30
0.0
 40
6.7000000000000002
  0
ARC
  5
B2B
  8
0
 10
42.532383306604629
 20
91.260655274888904
 30
-5.0
 40
0.75
 50
154.51095832900251
 51
241.48916732399991
  0
ARC
  5
B2C
  8
0
 10
48.000958536604571
 20
93.037500762888826
 30
-5.0
 40
6.1999998089999986
 50
186.51712488799879
 51
191.48283890099879
  0
ARC
  5
B2D
  8
0
 10
41.098480611604707
 20
91.9442578618889
 30
-5.0
 40
0.838518
 50
27.681740829001999
 51
43.489120833001202
  0
ARC
  5
B2E
  8
0
 10
41.098480611604707
 20
91.9442578618889
 30
-5.0
 40
0.838518
 50
334.51079087599442
 51
350.31822552100482
  0
ARC
  5
B2F
  8
0
 10
44.828237602604652
 20
86.810687034888815
 30
-5.0
 40
0.838518
 50
28.51087115300135
 51
44.318046251003132
  0
ARC
  5
B30
  8
0
 10
48.000958536604571
 20
93.037500762888826
 30
-5.0
 40
6.1999998089999986
 50
258.51710896200183
 51
263.48288188500032
  0
ARC
  5
B31
  8
0
 10
46.9077129726046
 20
86.135024481888877
 30
-5.0
 40
0.838518
 50
46.510837503000502
 51
62.317998940001331
  0
ARC
  5
B32
  8
0
 10
46.9077129726046
 20
86.135024481888877
 30
-5.0
 40
0.838518
 50
99.681981889003737
 51
115.48910234600061
  0
ARC
  5
B33
  8
0
 10
46.224110527604687
 20
87.568927244888869
 30
-5.0
 40
0.75
 50
208.51087103899999
 51
295.48914150599882
  0
ARC
  5
B34
  8
0
 10
43.059329631604548
 20
88.095874153888886
 30
-5.0
 40
0.838518
 50
10.51085016099894
 51
26.318066241002231
  0
ARC
  5
B35
  8
0
 10
48.000958536604571
 20
93.037500762888826
 30
-5.0
 40
6.1999998089999986
 50
204.5171057520034
 51
209.4828633070012
  0
ARC
  5
B36
  8
0
 10
41.774143513604599
 20
89.864782124888848
 30
-5.0
 40
0.838518
 50
352.51085284800018
 51
8.3180552669968666
  0
ARC
  5
B37
  8
0
 10
48.000958536604571
 20
93.037500762888826
 30
-5.0
 40
6.1999998089999986
 50
222.5171079609988
 51
227.48286380799439
  0
ARC
  5
B38
  8
0
 10
43.059329631604548
 20
88.095874153888886
 30
-5.0
 40
0.838518
 50
63.681905755000507
 51
79.489142325000955
  0
ARC
  5
B39
  8
0
 10
43.349110768604639
 20
89.657737248888907
 30
-5.0
 40
0.75
 50
172.51084613200231
 51
259.48907903199847
  0
ARC
  5
B3A
  8
0
 10
41.774143513604599
 20
89.864782124888848
 30
-5.0
 40
0.838518
 50
45.681925744996157
 51
61.489128163996938
  0
ARC
  5
B3B
  8
0
 10
48.000958536604571
 20
93.037500762888826
 30
-5.0
 40
6.1999998089999986
 50
239.7600455147454
 51
245.48287455399699
  0
ARC
  5
B3C
  8
0
 10
44.621192907604723
 20
88.385654314888825
 30
-5.0
 40
0.75
 50
190.51084236400109
 51
290.06432106530889
  0
ARC
  5
B3D
  8
0
 10
54.903435596604709
 20
91.9442578618889
 30
-5.0
 40
0.838518
 50
136.51087415799839
 51
152.3180953599954
  0
ARC
  5
B3E
  8
0
 10
51.380723299604711
 20
88.385654314888825
 30
-5.0
 40
0.75
 50
262.51085717399621
 51
349.48916349900412
  0
ARC
  5
B3F
  8
0
 10
52.942586576604633
 20
88.095874153888886
 30
-5.0
 40
0.838518
 50
153.68204315600701
 51
169.4891448300032
  0
ARC
  5
B40
  8
0
 10
48.000958536604571
 20
93.037500762888826
 30
-5.0
 40
6.1999998089999986
 50
330.5171382870019
 51
335.48289071900319
  0
ARC
  5
B41
  8
0
 10
54.227773694604707
 20
89.864782124888848
 30
-5.0
 40
0.838518
 50
171.6819249829978
 51
187.48914106200061
  0
ARC
  5
B42
  8
0
 10
48.000958536604571
 20
93.037500762888826
 30
-5.0
 40
6.1999998089999986
 50
312.5171172949984
 51
317.48289704800561
  0
ARC
  5
B43
  8
0
 10
52.942586576604633
 20
88.095874153888886
 30
-5.0
 40
0.838518
 50
100.5108526660007
 51
116.31797312199519
  0
ARC
  5
B44
  8
0
 10
52.652806415604687
 20
89.657737429888812
 30
-5.0
 40
0.75
 50
280.51084082700157
 51
7.4891334910000369
  0
ARC
  5
B45
  8
0
 10
54.227773694604707
 20
89.864782124888848
 30
-5.0
 40
0.838518
 50
118.5108736569958
 51
134.31810339699729
  0
ARC
  5
B46
  8
0
 10
48.000958536604571
 20
93.037500762888826
 30
-5.0
 40
6.1999998089999986
 50
276.51710263299861
 51
281.48289604699983
  0
ARC
  5
B47
  8
0
 10
51.17367860560455
 20
86.810687034888815
 30
-5.0
 40
0.838518
 50
135.68202728699799
 51
151.48912383799851
  0
ARC
  5
B48
  8
0
 10
49.777805886604597
 20
87.56892762288885
 30
-5.0
 40
0.75
 50
244.51091814500211
 51
331.48910152600268
  0
ARC
  5
B49
  8
0
 10
49.094203569604701
 20
86.135024798888935
 30
-5.0
 40
0.838518
 50
117.6820643519999
 51
133.48919163900231
  0
ARC
  5
B4A
  8
0
 10
49.094203569604701
 20
86.135024798888935
 30
-5.0
 40
0.838518
 50
64.510844834000721
 51
80.317937969999477
  0
ARC
  5
B4B
  8
0
 10
51.17367860560455
 20
86.810687034888815
 30
-5.0
 40
0.838518
 50
82.510858994999325
 51
98.317972621001545
  0
ARC
  5
B4C
  8
0
 10
48.000958536604571
 20
93.037500762888826
 30
-5.0
 40
6.1999998089999986
 50
294.51710996399839
 51
299.48288971699623
  0
ARC
  5
B4D
  8
0
 10
47.998072662604613
 20
87.294736445888816
 30
0.0
 40
0.7572399059999999
 50
270.21835682199702
 51
313.27078768899793
  0
ARC
  5
B4E
  8
0
 10
53.469533106604672
 20
91.260654843888915
 30
-5.0
 40
0.75
 50
298.51090279900239
 51
38.064332007653
  0
ARC
  5
B4F
  8
0
 10
48.000958536604571
 20
93.037500762888826
 30
-5.0
 40
6.1999998089999986
 50
347.76007115169932
 51
353.4828980500007
  0
ARC
  5
B50
  8
0
 10
48.000958103604603
 20
87.287502038888874
 30
-5.0
 40
0.75
 50
226.51089373799911
 51
313.4891078560014
  0
ARC
  5
B51
  8
0
 10
48.003843534604691
 20
87.294736425888914
 30
0.0
 40
0.757239885
 50
226.7292173200002
 51
269.78167550799691
  0
ARC
  5
B52
  8
0
 10
41.098480294604649
 20
94.130747055888833
 30
-5.0
 40
0.838518
 50
316.51090648800272
 51
323.19898674199737
  0
ARC
  5
B53
  8
0
 10
44.828237602604652
 20
99.264317216888799
 30
0.0
 40
0.838518
 50
315.68148929599818
 51
331.48912884699871
  0
ARC
  5
B54
  8
0
 10
48.000958536604571
 20
93.037500762888826
 30
0.0
 40
6.1999998089999986
 50
96.517174577001285
 51
101.48283138699919
  0
ARC
  5
B55
  8
0
 10
46.9077129726046
 20
99.939979769888865
 30
0.0
 40
0.838518
 50
297.68148196500391
 51
313.48916249699948
  0
ARC
  5
B56
  8
0
 10
46.9077129726046
 20
99.939979769888865
 30
0.0
 40
0.838518
 50
244.51089765399939
 51
260.31852354499938
  0
ARC
  5
B57
  8
0
 10
46.224110527604687
 20
98.506077007888976
 30
0.0
 40
0.75
 50
64.510858494001184
 51
151.48912896099989
  0
ARC
  5
B58
  8
0
 10
48.000958536604571
 20
93.037500762888826
 30
0.0
 40
6.1999998089999986
 50
114.5171819090051
 51
119.4828113969981
  0
ARC
  5
B59
  8
0
 10
48.000958536604571
 20
93.037500762888826
 30
0.0
 40
6.1999998089999986
 50
150.51715558999959
 51
152.999983993998
  0
ARC
  5
B5A
  8
0
 10
41.098480294604649
 20
94.130747055888833
 30
0.0
 40
0.838518
 50
323.19898674199737
 51
332.31839577499852
  0
ARC
  5
B5B
  8
0
 10
41.098480294604649
 20
94.130747055888833
 30
0.0
 40
0.838518
 50
9.6815968939971526
 51
25.489154483003759
  0
ARC
  5
B5C
  8
0
 10
42.532382928604747
 20
94.814349770888839
 30
0.0
 40
0.75
 50
118.5107985249974
 51
205.4891099730022
  0
ARC
  5
B5D
  8
0
 10
41.774143513604599
 20
96.210223126888877
 30
0.0
 40
0.838518
 50
298.51087183600299
 51
314.31837478299917
  0
ARC
  5
B5E
  8
0
 10
48.000958536604571
 20
93.037500762888826
 30
0.0
 40
6.1999998089999986
 50
168.51714925999769
 51
170.99999132599859
  0
ARC
  5
B5F
  8
0
 10
48.000958536604571
 20
93.037500762888826
 30
0.0
 40
6.1999998089999986
 50
152.999983993998
 51
155.48282605999671
  0
ARC
  5
B60
  8
0
 10
48.000958536604571
 20
93.037500762888826
 30
0.0
 40
6.1999998089999986
 50
170.99999132599859
 51
173.4828333910003
  0
ARC
  5
B61
  8
0
 10
41.774143513604599
 20
96.210223126888877
 30
0.0
 40
0.838518
 50
351.68159958100421
 51
7.4891435089955012
  0
ARC
  5
B62
  8
0
 10
43.349110768604639
 20
96.417268002888932
 30
0.0
 40
0.75
 50
100.5109209680015
 51
187.48915386799769
  0
ARC
  5
B63
  8
0
 10
43.059329631604548
 20
97.979131098888843
 30
0.0
 40
0.838518
 50
280.51085767499899
 51
296.31857235799902
  0
ARC
  5
B64
  8
0
 10
48.000958536604571
 20
93.037500762888826
 30
0.0
 40
6.1999998089999986
 50
134.9999903239993
 51
137.48280506799611
  0
ARC
  5
B65
  8
0
 10
43.059329631604548
 20
97.979131098888843
 30
0.0
 40
0.838518
 50
333.68141466499662
 51
349.48914983900107
  0
ARC
  5
B66
  8
0
 10
48.000958536604571
 20
93.037500762888826
 30
0.0
 40
6.1999998089999986
 50
132.51717557900079
 51
134.9999903239993
  0
ARC
  5
B67
  8
0
 10
44.828237602604652
 20
99.264317216888799
 30
0.0
 40
0.838518
 50
262.51085717399621
 51
278.31850355500211
  0
ARC
  5
B68
  8
0
 10
44.62119272660459
 20
97.689349960888876
 30
0.0
 40
0.75
 50
82.510845334997896
 51
169.4890816499971
  0
ARC
  5
B69
  8
0
 10
54.903435913604767
 20
94.130747055888833
 30
-5.0
 40
0.838518
 50
216.8010114369996
 51
223.48909510599839
  0
ARC
  5
B6A
  8
0
 10
51.380723481604598
 20
97.689349960888876
 30
0.0
 40
0.75
 50
10.51091846299812
 51
97.489156485998762
  0
ARC
  5
B6B
  8
0
 10
54.227773694604707
 20
96.210223126888877
 30
0.0
 40
0.838518
 50
172.51085893799939
 51
188.31842250300039
  0
ARC
  5
B6C
  8
0
 10
52.942586576604633
 20
97.979131098888843
 30
0.0
 40
0.838518
 50
243.68155559499931
 51
259.48914733399931
  0
ARC
  5
B6D
  8
0
 10
48.000958536604571
 20
93.037500762888826
 30
0.0
 40
6.1999998089999986
 50
42.517183093005748
 51
45.000011497999211
  0
ARC
  5
B6E
  8
0
 10
48.000958536604571
 20
93.037500762888826
 30
0.0
 40
6.1999998089999986
 50
45.000011497999211
 51
47.482843317001489
  0
ARC
  5
B6F
  8
0
 10
52.652806415604687
 20
96.417267821888814
 30
0.0
 40
0.75
 50
352.51085649100452
 51
79.48915598599767
  0
ARC
  5
B70
  8
0
 10
52.942586576604633
 20
97.979131098888843
 30
0.0
 40
0.838518
 50
190.5108551699968
 51
206.3184759379981
  0
ARC
  5
B71
  8
0
 10
48.000958536604571
 20
93.037500762888826
 30
0.0
 40
6.1999998089999986
 50
27.000010997002821
 51
29.482846231996049
  0
ARC
  5
B72
  8
0
 10
54.227773694604707
 20
96.210223126888877
 30
0.0
 40
0.838518
 50
225.68160290500441
 51
241.48912634300419
  0
ARC
  5
B73
  8
0
 10
53.46953348560475
 20
94.814350202888818
 30
0.0
 40
0.75
 50
334.51084915999581
 51
61.489128163996938
  0
ARC
  5
B74
  8
0
 10
54.903435913604767
 20
94.130747055888833
 30
0.0
 40
0.838518
 50
207.68177315899919
 51
216.8010114369996
  0
ARC
  5
B75
  8
0
 10
54.903435913604767
 20
94.130747055888833
 30
0.0
 40
0.838518
 50
154.51084221599871
 51
170.31824868600049
  0
ARC
  5
B76
  8
0
 10
48.000958536604571
 20
93.037500762888826
 30
0.0
 40
6.1999998089999986
 50
6.517153063000003
 51
9.0000104960006109
  0
ARC
  5
B77
  8
0
 10
48.000958536604571
 20
93.037500762888826
 30
0.0
 40
6.1999998089999986
 50
9.0000104960006109
 51
11.482867929002341
  0
ARC
  5
B78
  8
0
 10
48.000958536604571
 20
93.037500762888826
 30
0.0
 40
6.1999998089999986
 50
24.51717576199778
 51
27.000010997002821
  0
ARC
  5
B79
  8
0
 10
51.17367860560455
 20
99.264317216888799
 30
0.0
 40
0.838518
 50
208.51087616200149
 51
224.3184439960059
  0
ARC
  5
B7A
  8
0
 10
49.094203569604701
 20
99.939979452888906
 30
0.0
 40
0.838518
 50
226.5108083609976
 51
242.31844791200069
  0
ARC
  5
B7B
  8
0
 10
49.094203569604701
 20
99.939979452888906
 30
0.0
 40
0.838518
 50
279.68155659600222
 51
295.48915516599931
  0
ARC
  5
B7C
  8
0
 10
49.777805886604597
 20
98.506076628888877
 30
0.0
 40
0.75
 50
28.51089847399723
 51
115.48908185499791
  0
ARC
  5
B7D
  8
0
 10
48.000958536604571
 20
93.037500762888826
 30
0.0
 40
6.1999998089999986
 50
78.517170434001684
 51
83.482834073999555
  0
ARC
  5
B7E
  8
0
 10
48.000958536604571
 20
93.037500762888826
 30
0.0
 40
6.1999998089999986
 50
63.00001199799987
 51
65.482840403001561
  0
ARC
  5
B7F
  8
0
 10
51.17367860560455
 20
99.264317216888799
 30
0.0
 40
0.838518
 50
261.68157658600018
 51
277.4891410050007
  0
ARC
  5
B80
  8
0
 10
48.000958536604571
 20
93.037500762888826
 30
0.0
 40
6.1999998089999986
 50
60.517176763001281
 51
63.00001199799987
  0
ARC
  5
B81
  8
0
 10
48.000958103604603
 20
98.787502212888967
 30
0.0
 40
0.75
 50
46.510892143998568
 51
133.48910626200089
  0
ARC
  5
B82
  8
0
 10
53.75095769160464
 20
93.037502625888905
 30
-5.0
 40
0.75
 50
316.51089646999662
 51
43.489107171999393
  0
ARC
  5
B83
  8
0
 10
42.250958516604548
 20
93.037502625888905
 30
-5.0
 40
0.75
 50
136.5108912340001
 51
223.4891087659999
  0
LINE
  5
B84
  8
1
 10
98.000958093223986
 20
191.25421174726759
 30
0.0
 11
138.0009580932236
 21
191.25421174726759
 31
0.0
  0
LINE
  5
B85
  8
1
 10
56.000958093223971
 20
126.5375021256222
 30
0.0
 11
40.000958093223971
 21
126.5375021256222
 31
0.0
  0
LINE
  5
B86
  8
1
 10
129.7009580931738
 20
126.5375021256222
 30
0.0
 11
106.3009580931738
 21
126.5375021256222
 31
0.0
  0
LINE
  5
B87
  8
1
 10
118.0009580932239
 20
146.53750212562221
 30
0.0
 11
118.0009580932239
 21
78.537502125622268
 31
0.0
  0
LINE
  5
B88
  8
0
 10
45.000958093223971
 20
140.53750212562221
 30
0.0
 11
45.000958093224092
 21
104.5253148255223
 31
0.0
  0
LINE
  5
B89
  8
0
 10
51.000958093223971
 20
140.53750212562221
 30
0.0
 11
51.000958093223971
 21
104.3004540124478
 31
0.0
  0
ARC
  5
B8A
  8
0
 10
118.00095809327409
 20
126.5375021256222
 30
0.0
 40
16.0
 50
290.00000000000369
 51
330.3534513906701
  0
LINE
  5
B8B
  8
0
 10
103.6860409297078
 20
104.3004540124477
 30
0.0
 11
123.4732803864739
 21
111.5024201930223
 31
0.0
  0
LINE
  5
B8C
  8
1
 10
48.000958093224078
 20
146.53750212562221
 30
0.0
 11
48.000958093223971
 21
78.537502125622154
 31
0.0
  0
ARC
  5
B8D
  8
0
 10
210.12595809327399
 20
112.5375021256223
 30
0.0
 40
107.12500000005021
 50
170.2129530817335
 51
191.2811896628335
  0
ARC
  5
B8E
  8
0
 10
114.8775165049217
 20
93.537502125622268
 30
0.0
 40
10.0
 50
191.2811896628335
 51
270.0
  0
ARC
  5
B8F
  8
0
 10
103.85705100137091
 20
103.830607702055
 30
0.0
 40
0.5
 50
110.0000000000357
 51
184.68393340062451
  0
ARC
  5
B90
  8
0
 10
117.3708200953739
 20
128.53750212562221
 30
0.0
 40
13.0
 50
90.0
 51
170.2129530817335
  0
LINE
  5
B91
  8
0
 10
117.3708200953739
 20
141.53750212562221
 30
0.0
 11
118.6310960910738
 21
141.53750212562221
 31
0.0
  0
ARC
  5
B92
  8
0
 10
118.6310960910738
 20
128.53750212562221
 30
0.0
 40
13.0
 50
9.7870469182665172
 51
90.0
  0
ARC
  5
B93
  8
0
 10
25.875958093173612
 20
112.5375021256223
 30
0.0
 40
107.12500000005021
 50
348.71881033716642
 51
9.7870469182665172
  0
ARC
  5
B94
  8
0
 10
121.124399681526
 20
93.537502125622268
 30
0.0
 40
10.0
 50
270.0
 51
348.71881033716642
  0
LINE
  5
B95
  8
0
 10
121.124399681526
 20
83.537502125622268
 30
0.0
 11
114.8775165049217
 21
83.537502125622268
 31
0.0
  0
LINE
  5
B96
  8
1
 10
138.00095809322369
 20
112.5375021256223
 30
0.0
 11
98.000958093223844
 21
112.5375021256223
 31
0.0
  0
LINE
  5
B97
  8
0
 10
50.000958093223971
 20
141.53750212562221
 30
0.0
 11
46.000958093223971
 21
141.53750212562221
 31
0.0
  0
ARC
  5
B98
  8
0
 10
46.000958093223971
 20
140.53750212562221
 30
0.0
 40
1.0
 50
90.0
 51
180.0
  0
ARC
  5
B99
  8
0
 10
50.000958093223971
 20
140.53750212562221
 30
0.0
 40
1.0
 50
0.0
 51
90.0
  0
ARC
  5
B9A
  8
0
 10
-2.1880715345758972
 20
101.9086942080223
 30
0.0
 40
60.189029627799982
 50
348.5353003597283
 51
1.7909530443571491
  0
ARC
  5
B9B
  8
0
 10
48.959887350766842
 20
91.53656201671788
 30
0.0
 40
8.0
 50
269.12161285192963
 51
348.5465322621526
  0
ARC
  5
B9C
  8
0
 10
27.476878129683939
 20
98.852934522264036
 30
0.0
 40
30.891711132571949
 50
9.1959419712361647
 51
40.403266385062722
  0
ARC
  5
B9D
  8
0
 10
45.905044648091568
 20
93.979654286847222
 30
0.0
 40
11.51031019635176
 50
357.33869695452142
 51
63.722060375385063
  0
ARC
  5
B9E
  8
0
 10
50.096871538356602
 20
93.979654286847222
 30
0.0
 40
11.51031019635176
 50
116.2779396246149
 51
182.66130304547869
  0
ARC
  5
B9F
  8
0
 10
68.525038056765027
 20
98.852934522263922
 30
0.0
 40
30.891711132572759
 50
139.59673361493779
 51
170.80405802876379
  0
ARC
  5
BA0
  8
0
 10
98.189987721024067
 20
101.9086942080223
 30
0.0
 40
60.189029627799982
 50
178.2090469556428
 51
191.4646996402717
  0
ARC
  5
BA1
  8
0
 10
47.042028835681307
 20
91.53656201671788
 30
0.0
 40
8.0
 50
191.45346773785371
 51
270.87838714807032
  0
LINE
  5
BA2
  8
0
 10
48.837246172267101
 20
83.537502125622154
 30
0.0
 11
47.16467001418107
 21
83.537502125622154
 31
0.0
  0
LINE
  5
BA3
  8
0
 10
187.1646700141809
 20
83.537502125622154
 30
0.0
 11
188.83724617226699
 21
83.537502125622154
 31
0.0
  0
ARC
  5
BA4
  8
0
 10
188.95988735076671
 20
91.53656201671788
 30
0.0
 40
8.0
 50
269.12161285192963
 51
348.5465322621526
  0
ARC
  5
BA5
  8
0
 10
137.8119284654241
 20
101.9086942080223
 30
0.0
 40
60.189029627799982
 50
348.5353003597283
 51
1.7909530443571491
  0
ARC
  5
BA6
  8
0
 10
167.47687812968411
 20
98.852934522264491
 30
0.0
 40
30.891711132571601
 50
9.1959419712361647
 51
40.403266385062189
  0
ARC
  5
BA7
  8
0
 10
208.52503805676449
 20
98.852934522263922
 30
0.0
 40
30.891711132572389
 50
139.59673361493719
 51
170.80405802876379
  0
ARC
  5
BA8
  8
0
 10
187.04202883568121
 20
91.53656201671788
 30
0.0
 40
8.0
 50
191.45346773785371
 51
270.87838714807032
  0
ARC
  5
BA9
  8
0
 10
238.18998772102401
 20
101.9086942080223
 30
0.0
 40
60.189029627799982
 50
178.2090469556428
 51
191.4646996402717
  0
ARC
  5
BAA
  8
0
 10
186.000958093224
 20
140.53750212562221
 30
0.0
 40
1.0
 50
90.0
 51
180.0
  0
ARC
  5
BAB
  8
0
 10
190.000958093224
 20
140.53750212562221
 30
0.0
 40
1.0
 50
0.0
 51
90.0
  0
LINE
  5
BAC
  8
0
 10
186.000958093224
 20
141.53750212562221
 30
0.0
 11
190.000958093224
 21
141.53750212562221
 31
0.0
  0
LINE
  5
BAD
  8
1
 10
188.00095809322389
 20
146.53750212562221
 30
0.0
 11
188.00095809322389
 21
78.537502125622154
 31
0.0
  0
LINE
  5
BAE
  8
0
 10
185.00095809322411
 20
140.53750212562221
 30
0.0
 11
185.00095809322411
 21
118.87580840608121
 31
0.0
  0
LINE
  5
BAF
  8
0
 10
191.00095809322411
 20
140.53750212562221
 30
0.0
 11
191.00095809322431
 21
118.87580840608079
 31
0.0
  0
LINE
  5
BB0
  8
1
 10
180.00095809322411
 20
126.5375021256222
 30
0.0
 11
196.00095809322411
 21
126.5375021256222
 31
0.0
  0
ARC
  5
BB1
  8
0
 10
193.7509581132239
 20
93.037411543072267
 30
-5.0
 40
0.75
 50
316.5108912340001
 51
43.489108765999887
  0
ARC
  5
BB2
  8
0
 10
182.2509589382239
 20
93.037411543072267
 30
-5.0
 40
0.75
 50
136.51089282800061
 51
223.4891035300034
  0
ARC
  5
BB3
  8
0
 10
188.00095852622391
 20
98.787411130072314
 30
0.0
 40
0.75
 50
46.510893737999069
 51
133.4891078560014
  0
ARC
  5
BB4
  8
0
 10
188.00095809322389
 20
93.037409680072173
 30
0.0
 40
6.1999998089999986
 50
116.99998800200009
 51
119.4828232369987
  0
ARC
  5
BB5
  8
0
 10
184.82823802422399
 20
99.264226134072146
 30
0.0
 40
0.838518
 50
262.5108589949993
 51
278.31842341399982
  0
ARC
  5
BB6
  8
0
 10
188.00095809322389
 20
93.037409680072173
 30
0.0
 40
6.1999998089999986
 50
114.5171595969984
 51
116.99998800200009
  0
ARC
  5
BB7
  8
0
 10
188.00095809322389
 20
93.037409680072173
 30
0.0
 40
6.1999998089999986
 50
96.517165926000445
 51
101.4828295659983
  0
ARC
  5
BB8
  8
0
 10
186.22411074322389
 20
98.505985546072225
 30
0.0
 40
0.75
 50
64.510918145002051
 51
151.48910152600271
  0
ARC
  5
BB9
  8
0
 10
186.90771306022381
 20
99.939888370072254
 30
0.0
 40
0.838518
 50
244.51084483400081
 51
260.31844340399778
  0
ARC
  5
BBA
  8
0
 10
186.90771306022381
 20
99.939888370072254
 30
0.0
 40
0.838518
 50
297.68155208799931
 51
313.48919163900229
  0
ARC
  5
BBB
  8
0
 10
184.82823802422399
 20
99.264226134072146
 30
0.0
 40
0.838518
 50
315.6815560039941
 51
331.48912383799848
  0
ARC
  5
BBC
  8
0
 10
188.00095809322389
 20
93.037409680072173
 30
0.0
 40
6.1999998089999986
 50
152.99998900299721
 51
155.48282423800219
  0
ARC
  5
BBD
  8
0
 10
188.00095809322389
 20
93.037409680072173
 30
0.0
 40
6.1999998089999986
 50
168.5171320709976
 51
170.99998950399939
  0
ARC
  5
BBE
  8
0
 10
188.00095809322389
 20
93.037409680072173
 30
0.0
 40
6.1999998089999986
 50
170.99998950399939
 51
173.48284693700001
  0
ARC
  5
BBF
  8
0
 10
181.0984807162238
 20
94.13065597307218
 30
0.0
 40
0.838518
 50
9.6817513139994897
 51
25.489157784001272
  0
ARC
  5
BC0
  8
0
 10
181.0984807162238
 20
94.13065597307218
 30
0.0
 40
0.838518
 50
323.1989885630004
 51
332.31822684100081
  0
ARC
  5
BC1
  8
0
 10
182.53238314422379
 20
94.814259120072165
 30
0.0
 40
0.75
 50
118.51087183600301
 51
205.48915084000421
  0
ARC
  5
BC2
  8
0
 10
181.77414293522381
 20
96.210132044072225
 30
0.0
 40
0.838518
 50
298.51087365699578
 51
314.31839709499559
  0
ARC
  5
BC3
  8
0
 10
188.00095809322389
 20
93.037409680072173
 30
0.0
 40
6.1999998089999986
 50
150.51715376800391
 51
152.99998900299721
  0
ARC
  5
BC4
  8
0
 10
183.0593300532239
 20
97.979040016072204
 30
0.0
 40
0.838518
 50
333.68152406200193
 51
349.48914483000323
  0
ARC
  5
BC5
  8
0
 10
183.3491102142238
 20
96.417176739072161
 30
0.0
 40
0.75
 50
100.5108440140023
 51
187.48914350899551
  0
ARC
  5
BC6
  8
0
 10
188.00095809322389
 20
93.037409680072173
 30
0.0
 40
6.1999998089999986
 50
132.51715668299849
 51
134.9999885020008
  0
ARC
  5
BC7
  8
0
 10
188.00095809322389
 20
93.037409680072173
 30
0.0
 40
6.1999998089999986
 50
134.9999885020008
 51
137.4828169069942
  0
ARC
  5
BC8
  8
0
 10
183.0593300532239
 20
97.979040016072204
 30
0.0
 40
0.838518
 50
280.51085266600069
 51
296.31844440500072
  0
ARC
  5
BC9
  8
0
 10
181.77414293522381
 20
96.210132044072225
 30
0.0
 40
0.838518
 50
351.68157749699958
 51
7.4891410620005878
  0
ARC
  5
BCA
  8
0
 10
184.62119314822391
 20
97.689258878072224
 30
0.0
 40
0.75
 50
82.510843514001223
 51
169.48908153700191
  0
ARC
  5
BCB
  8
0
 10
181.0984807162238
 20
94.13065597307218
 30
-5.0
 40
0.838518
 50
316.51090489400161
 51
323.1989885630004
  0
ARC
  5
BCC
  8
0
 10
191.3807239032239
 20
97.689258878072224
 30
0.0
 40
0.75
 50
10.51091835000283
 51
97.489154665002076
  0
ARC
  5
BCD
  8
0
 10
191.1736790272239
 20
99.264226134072146
 30
0.0
 40
0.838518
 50
261.681496444998
 51
277.48914282600379
  0
ARC
  5
BCE
  8
0
 10
188.00095809322389
 20
93.037409680072173
 30
0.0
 40
6.1999998089999986
 50
45.000009676000637
 51
47.482824420999187
  0
ARC
  5
BCF
  8
0
 10
192.94258699822399
 20
97.979040016072204
 30
0.0
 40
0.838518
 50
190.5108501609989
 51
206.31858533500341
  0
ARC
  5
BD0
  8
0
 10
188.00095809322389
 20
93.037409680072173
 30
0.0
 40
6.1999998089999986
 50
42.517194932003292
 51
45.000009676000637
  0
ARC
  5
BD1
  8
0
 10
192.94258699822399
 20
97.979040016072204
 30
0.0
 40
0.838518
 50
243.68142764200101
 51
259.48914232500101
  0
ARC
  5
BD2
  8
0
 10
192.6528058612239
 20
96.417176920072279
 30
0.0
 40
0.75
 50
352.5108461320022
 51
79.489079031998443
  0
ARC
  5
BD3
  8
0
 10
194.22777311622389
 20
96.210132044072225
 30
0.0
 40
0.838518
 50
172.51085649100449
 51
188.31840041900219
  0
ARC
  5
BD4
  8
0
 10
188.00095809322389
 20
93.037409680072173
 30
0.0
 40
6.1999998089999986
 50
6.517166608999732
 51
9.0000086740013998
  0
ARC
  5
BD5
  8
0
 10
188.00095809322389
 20
93.037409680072173
 30
0.0
 40
6.1999998089999986
 50
24.51717394000331
 51
27.000016006001939
  0
ARC
  5
BD6
  8
0
 10
188.00095809322389
 20
93.037409680072173
 30
0.0
 40
6.1999998089999986
 50
9.0000086740013998
 51
11.482850740002229
  0
ARC
  5
BD7
  8
0
 10
194.22777311622389
 20
96.210132044072225
 30
0.0
 40
0.838518
 50
225.68162521700091
 51
241.4891281639969
  0
ARC
  5
BD8
  8
0
 10
193.46953370122381
 20
94.814258688072186
 30
0.0
 40
0.75
 50
334.51089002699791
 51
61.489201475003277
  0
ARC
  5
BD9
  8
0
 10
194.90343633522389
 20
94.13065597307218
 30
0.0
 40
0.838518
 50
154.5108455169962
 51
170.31840310600279
  0
ARC
  5
BDA
  8
0
 10
194.90343633522389
 20
94.13065597307218
 30
0.0
 40
0.838518
 50
207.68160422500111
 51
216.8010132580026
  0
ARC
  5
BDB
  8
0
 10
188.00095809322389
 20
93.037409680072173
 30
0.0
 40
6.1999998089999986
 50
27.000016006001939
 51
29.482844410000329
  0
ARC
  5
BDC
  8
0
 10
188.00095809322389
 20
93.037409680072173
 30
0.0
 40
6.1999998089999986
 50
60.517188603001799
 51
65.48281809099484
  0
ARC
  5
BDD
  8
0
 10
189.77780610222379
 20
98.505985925072324
 30
0.0
 40
0.75
 50
28.510871039000019
 51
115.4891415059988
  0
ARC
  5
BDE
  8
0
 10
189.09420365722389
 20
99.939888687072184
 30
0.0
 40
0.838518
 50
279.68147645500062
 51
295.48910234600072
  0
ARC
  5
BDF
  8
0
 10
189.09420365722389
 20
99.939888687072184
 30
0.0
 40
0.838518
 50
226.51083750300049
 51
242.3185180349962
  0
ARC
  5
BE0
  8
0
 10
188.00095809322389
 20
93.037409680072173
 30
0.0
 40
6.1999998089999986
 50
78.517168613000777
 51
83.482825422998715
  0
ARC
  5
BE1
  8
0
 10
191.1736790272239
 20
99.264226134072146
 30
0.0
 40
0.838518
 50
208.51087115300129
 51
224.31851070400191
  0
ARC
  5
BE2
  8
0
 10
194.90343633522389
 20
94.13065597307218
 30
-5.0
 40
0.838518
 50
216.8010132580026
 51
223.4890935119974
  0
ARC
  5
BE3
  8
0
 10
187.99807309522379
 20
87.294645343072261
 30
0.0
 40
0.757239885
 50
270.21832449200309
 51
313.27078267999968
  0
ARC
  5
BE4
  8
0
 10
188.00095852622391
 20
87.287410956072222
 30
-5.0
 40
0.75
 50
226.5108921439986
 51
313.48910626200092
  0
ARC
  5
BE5
  8
0
 10
188.00095809322389
 20
93.037409680072173
 30
-5.0
 40
6.1999998089999986
 50
186.51710194999939
 51
192.23992884830059
  0
ARC
  5
BE6
  8
0
 10
182.53238352322381
 20
91.260563761072277
 30
-5.0
 40
0.75
 50
141.93566799234699
 51
241.48909720099761
  0
ARC
  5
BE7
  8
0
 10
188.0038439672239
 20
87.294645363072163
 30
0.0
 40
0.7572399059999999
 50
226.72921231100199
 51
269.78164317800298
  0
ARC
  5
BE8
  8
0
 10
188.00095809322389
 20
93.037409680072173
 30
-5.0
 40
6.1999998089999986
 50
240.51711028300369
 51
245.48289003600161
  0
ARC
  5
BE9
  8
0
 10
184.82823802422399
 20
86.810595952072163
 30
-5.0
 40
0.838518
 50
81.682027378998455
 51
97.489141005000661
  0
ARC
  5
BEA
  8
0
 10
186.90771306022381
 20
86.134933716072283
 30
-5.0
 40
0.838518
 50
99.682062030000537
 51
115.48915516599919
  0
ARC
  5
BEB
  8
0
 10
186.90771306022381
 20
86.134933716072283
 30
-5.0
 40
0.838518
 50
46.510808360997643
 51
62.317935648000088
  0
ARC
  5
BEC
  8
0
 10
186.22411074322389
 20
87.568836540072198
 30
-5.0
 40
0.75
 50
208.5108984739972
 51
295.48908185499801
  0
ARC
  5
BED
  8
0
 10
184.82823802422399
 20
86.810595952072163
 30
-5.0
 40
0.838518
 50
28.510876162001459
 51
44.317972713001943
  0
ARC
  5
BEE
  8
0
 10
188.00095809322389
 20
93.037409680072173
 30
-5.0
 40
6.1999998089999986
 50
258.51710395300017
 51
263.4828973670015
  0
ARC
  5
BEF
  8
0
 10
181.77414293522381
 20
89.864691042072195
 30
-5.0
 40
0.838518
 50
45.68189660300262
 51
61.489126343004223
  0
ARC
  5
BF0
  8
0
 10
183.3491102142238
 20
89.657646347072159
 30
-5.0
 40
0.75
 50
172.5108665089999
 51
259.48915917299843
  0
ARC
  5
BF1
  8
0
 10
183.0593300532239
 20
88.095783071072205
 30
-5.0
 40
0.838518
 50
63.68202687800482
 51
79.48914733399927
  0
ARC
  5
BF2
  8
0
 10
188.00095809322389
 20
93.037409680072173
 30
-5.0
 40
6.1999998089999986
 50
222.5171029519945
 51
227.4828827050016
  0
ARC
  5
BF3
  8
0
 10
181.77414293522381
 20
89.864691042072195
 30
-5.0
 40
0.838518
 50
352.51085893799939
 51
8.3180750170021831
  0
ARC
  5
BF4
  8
0
 10
188.00095809322389
 20
93.037409680072173
 30
-5.0
 40
6.1999998089999986
 50
204.51710928099681
 51
209.4828617129981
  0
ARC
  5
BF5
  8
0
 10
183.0593300532239
 20
88.095783071072205
 30
-5.0
 40
0.838518
 50
10.510855169996811
 51
26.317956843992992
  0
ARC
  5
BF6
  8
0
 10
184.6211933302238
 20
88.385563232072172
 30
-5.0
 40
0.75
 50
190.51083650099579
 51
277.48914282600379
  0
ARC
  5
BF7
  8
0
 10
181.09848103322381
 20
91.944166779072248
 30
-5.0
 40
0.838518
 50
27.681904640004571
 51
43.489125842001592
  0
ARC
  5
BF8
  8
0
 10
191.38072372222379
 20
88.385563232072172
 30
-5.0
 40
0.75
 50
249.93567893469111
 51
349.48915763599888
  0
ARC
  5
BF9
  8
0
 10
188.00095809322389
 20
93.037409680072173
 30
-5.0
 40
6.1999998089999986
 50
294.51712544600298
 51
300.23995448525471
  0
ARC
  5
BFA
  8
0
 10
194.22777311622389
 20
89.864691042072195
 30
-5.0
 40
0.838518
 50
118.51087183600301
 51
134.31807425500381
  0
ARC
  5
BFB
  8
0
 10
192.6528058612239
 20
89.657646166072254
 30
-5.0
 40
0.75
 50
280.51092096800153
 51
7.4891538679977208
  0
ARC
  5
BFC
  8
0
 10
192.94258699822399
 20
88.095783071072205
 30
-5.0
 40
0.838518
 50
100.510857674999
 51
116.3180942449995
  0
ARC
  5
BFD
  8
0
 10
188.00095809322389
 20
93.037409680072173
 30
-5.0
 40
6.1999998089999986
 50
312.51713619200558
 51
317.48289203900117
  0
ARC
  5
BFE
  8
0
 10
194.22777311622389
 20
89.864691042072195
 30
-5.0
 40
0.838518
 50
171.68194473300309
 51
187.4891471519997
  0
ARC
  5
BFF
  8
0
 10
188.00095809322389
 20
93.037409680072173
 30
-5.0
 40
6.1999998089999986
 50
330.51713669299829
 51
335.48289424799663
  0
ARC
  5
C00
  8
0
 10
192.94258699822399
 20
88.095783071072205
 30
-5.0
 40
0.838518
 50
153.6819337589977
 51
169.48914983900099
  0
ARC
  5
C01
  8
0
 10
189.77780610222379
 20
87.568836162072216
 30
-5.0
 40
0.75
 50
244.51085849400121
 51
331.48912896100569
  0
ARC
  5
C02
  8
0
 10
189.09420365722389
 20
86.134933399072224
 30
-5.0
 40
0.838518
 50
64.510897653999379
 51
80.318018110996263
  0
ARC
  5
C03
  8
0
 10
189.09420365722389
 20
86.134933399072224
 30
-5.0
 40
0.838518
 50
117.6820010599987
 51
133.48916249699951
  0
ARC
  5
C04
  8
0
 10
188.00095809322389
 20
93.037409680072173
 30
-5.0
 40
6.1999998089999986
 50
276.51711811499968
 51
281.48289103799817
  0
ARC
  5
C05
  8
0
 10
191.1736790272239
 20
86.810595952072163
 30
-5.0
 40
0.838518
 50
135.68195374899679
 51
151.4891288469986
  0
ARC
  5
C06
  8
0
 10
194.9034360182238
 20
91.944166779072248
 30
-5.0
 40
0.838518
 50
189.68177447899529
 51
205.48920912400561
  0
ARC
  5
C07
  8
0
 10
194.9034360182238
 20
91.944166779072248
 30
-5.0
 40
0.838518
 50
136.51087916699879
 51
152.318259170998
  0
ARC
  5
C08
  8
0
 10
188.00095809322389
 20
93.037409680072173
 30
-5.0
 40
6.1999998089999986
 50
348.51716109900121
 51
353.48287511200112
  0
ARC
  5
C09
  8
0
 10
193.46953332322391
 20
91.260564192072252
 30
-5.0
 40
0.75
 50
298.51083267600012
 51
25.489041670997441
  0
LINE
  5
C0A
  8
1
 10
136.2922867090592
 20
93.037502125622254
 30
0.0
 11
99.709629477388376
 21
93.037502125622254
 31
0.0
  0
LINE
  5
C0B
  8
2
 10
107.7360881613946
 20
86.537502038888761
 30
-5.0
 11
128.265828025053
 21
86.537502038888874
 31
-5.0
  0
LINE
  5
C0C
  8
2
 10
103.7926818939596
 20
99.537502212888967
 30
0.0
 11
132.20923429248791
 21
99.537502212888967
 31
0.0
  0
LINE
  5
C0D
  8
2
 10
117.4899368222475
 20
107.9744781290312
 30
0.0
 11
115.69691938986681
 21
104.1293398366965
 31
0.0
  0
LINE
  5
C0E
  8
2
 10
120.2260979688531
 20
100.4569371627439
 30
0.0
 11
116.3809596765184
 21
102.24995459512461
 31
0.0
  0
LINE
  5
C0F
  8
2
 10
133.74326839396539
 20
107.17588264727399
 30
0.0
 11
129.98449791082169
 21
105.8078020739712
 31
0.0
  0
LINE
  5
C10
  8
2
 10
133.34833755065171
 20
108.2609462215238
 30
0.0
 11
129.58956706750811
 21
106.892865648221
 31
0.0
  0
LINE
  5
C11
  8
2
 10
132.55847586402561
 20
110.431073370021
 30
0.0
 11
128.7997053808821
 21
109.0629927967185
 31
0.0
  0
LINE
  5
C12
  8
2
 10
132.16354502071221
 20
111.5161369442713
 30
0.0
 11
128.4047745375685
 21
110.1480563709686
 31
0.0
  0
LINE
  5
C13
  8
2
 10
131.8961050000523
 20
112.1656963221553
 30
0.0
 11
131.02151056156481
 21
112.8995681929201
 31
0.0
  0
LINE
  5
C14
  8
0
 10
133.96604952137019
 20
106.5637965302479
 30
0.0
 11
133.75767170816991
 21
105.3820272266335
 31
0.0
  0
LINE
  5
C15
  8
2
 10
128.4047745375685
 20
110.1480563709686
 30
0.0
 11
129.98449791082169
 21
105.8078020739712
 31
0.0
  0
LINE
  5
C16
  8
2
 10
115.69691938986681
 20
104.1293398366965
 30
0.0
 11
116.3809596765184
 21
102.24995459512461
 31
0.0
  0
LINE
  5
C17
  8
2
 10
131.61990994281251
 20
112.3974514928185
 30
0.0
 11
117.08561139124561
 21
107.1073994441098
 31
0.0
  0
LINE
  5
C18
  8
3
 10
133.89331783549841
 20
106.15131464245439
 30
0.0
 11
132.78559344835531
 21
105.748135937763
 31
0.0
  0
LINE
  5
C19
  8
2
 10
131.02151056156421
 20
112.8995681929208
 30
0.0
 11
117.4899368222476
 21
107.9744781290313
 31
0.0
  0
LINE
  5
C1A
  8
2
 10
117.4899368222477
 20
107.974478129031
 30
0.0
 11
120.2260979688531
 21
100.4569371627439
 31
0.0
  0
LINE
  5
C1B
  8
2
 10
128.4047745375685
 20
110.1480563709686
 30
0.0
 11
127.9417127308335
 21
107.5219023650735
 31
0.0
  0
LINE
  5
C1C
  8
2
 10
129.9844979108214
 20
105.807802073971
 30
0.0
 11
127.9417127308335
 21
107.5219023650735
 31
0.0
  0
LINE
  5
C1D
  8
2
 10
131.02151056156481
 20
112.8995681929201
 30
0.0
 11
132.8941310180534
 21
107.75458577351
 31
0.0
  0
LINE
  5
C1E
  8
2
 10
132.73617444580989
 20
105.0102326287509
 30
0.0
 11
120.2260979688497
 21
100.45693716275331
 31
0.0
  0
LINE
  5
C1F
  8
0
 10
132.95340670733921
 20
109.3460097957712
 30
0.0
 11
133.96604952137019
 21
106.5637965302479
 31
0.0
  0
LINE
  5
C20
  8
1
 10
111.3404764292511
 20
101.4795464993154
 30
0.0
 11
137.65186981127141
 21
111.0561105123919
 31
0.0
  0
CIRCLE
  5
C21
  8
3
 10
188.00095809322389
 20
109.346009795771
 30
0.0
 40
3.3235000000002231
  0
CIRCLE
  5
C22
  8
0
 10
188.00095809322389
 20
109.346009795771
 30
0.0
 40
4.000000000000056
  0
LINE
  5
C23
  8
0
 10
190.00095809159529
 20
108.1913092583307
 30
0.0
 11
190.00095809159529
 21
110.5007103350891
 31
0.0
  0
LINE
  5
C24
  8
0
 10
190.00095809159339
 20
110.50071033321061
 30
0.0
 11
188.00095809159529
 21
111.65541087159011
 31
0.0
  0
LINE
  5
C25
  8
0
 10
188.00095809322329
 20
111.65541087064879
 30
0.0
 11
186.00095809322329
 21
110.5007103322699
 31
0.0
  0
LINE
  5
C26
  8
0
 10
186.00095809485131
 20
110.5007103332094
 30
0.0
 11
186.00095809485131
 21
108.19130925645101
 31
0.0
  0
LINE
  5
C27
  8
0
 10
186.00095809485131
 20
108.191309258331
 30
0.0
 11
188.00095809485131
 21
107.0366087199514
 31
0.0
  0
LINE
  5
C28
  8
0
 10
188.00095809322329
 20
107.0366087208928
 30
0.0
 11
190.0009580932232
 21
108.19130925927161
 31
0.0
  0
LINE
  5
C29
  8
2
 10
132.78559344835531
 20
105.74813593776339
 30
0.0
 11
119.3590192839321
 21
100.8612625937452
 31
0.0
  0
LINE
  5
C2A
  8
0
 10
133.75767170816991
 20
105.3820272266335
 30
0.0
 11
132.73617444580989
 21
105.0102326287509
 31
0.0
  0
LINE
  5
C2B
  8
0
 10
131.94076389330721
 20
112.12822306129669
 30
0.0
 11
131.8961050000523
 21
112.1656963221553
 31
0.0
  0
LINE
  5
C2C
  8
0
 10
132.89413101805329
 20
107.75458577350911
 30
0.0
 11
133.75767170816991
 21
105.3820272266335
 31
0.0
  0
LINE
  5
C2D
  8
0
 10
104.000958093224
 20
181.8522292992042
 30
0.0
 11
130.70890630656851
 21
181.25421174726759
 31
0.0
  0
LINE
  5
C2E
  8
0
 10
133.0009580932236
 20
189.28328035601771
 30
0.0
 11
133.0009580932236
 21
193.2251431385202
 31
0.0
  0
ARC
  5
C2F
  8
0
 10
104.000958093224
 20
189.25421148436001
 30
0.0
 40
1.0
 50
180.0
 51
269.99995765713652
  0
ARC
  5
C30
  8
0
 10
104.0009580932237
 20
193.2542120102766
 30
0.0
 40
1.0
 50
90.000042343067875
 51
180.0
  0
LINE
  5
C31
  8
0
 10
103.000958093224
 20
182.8522292992042
 30
0.0
 11
103.000958093224
 21
199.65619419533141
 31
0.0
  0
ARC
  5
C32
  8
0
 10
105.8077733864327
 20
190.46108286613571
 30
0.0
 40
27.2186794913071
 50
341.75890563871297
 51
357.51993146706587
  0
ARC
  5
C33
  8
0
 10
130.70890630656851
 20
182.25421174726759
 30
0.0
 40
1.0
 50
270.0
 51
341.75890563871269
  0
ARC
  5
C34
  8
0
 10
104.000958093224
 20
182.8522292992042
 30
0.0
 40
1.0
 50
180.0
 51
270.0
  0
ARC
  5
C35
  8
0
 10
104.000958093224
 20
199.65619419533141
 30
0.0
 40
1.0
 50
90.0
 51
180.0
  0
LINE
  5
C36
  8
0
 10
104.000958093224
 20
200.65619419533141
 30
0.0
 11
130.70890630656851
 21
201.25421174726779
 31
0.0
  0
ARC
  5
C37
  8
0
 10
130.70890630656851
 20
200.25421174726759
 30
0.0
 40
1.0
 50
18.241094361287299
 51
90.0
  0
ARC
  5
C38
  8
0
 10
105.8077733864327
 20
192.0473406283995
 30
0.0
 40
27.2186794913071
 50
2.480068532934089
 51
18.24109436128704
  0
LINE
  5
C39
  8
0
 10
104.0009573542015
 20
188.25421148436021
 30
0.0
 11
132.0009580932238
 21
188.25421148436021
 31
0.0
  0
LINE
  5
C3A
  8
0
 10
104.00095735419779
 20
194.2542120102766
 30
0.0
 11
132.00095809322411
 21
194.2542120102764
 31
0.0
  0
ARC
  5
C3B
  8
0
 10
132.00095809322411
 20
193.2542120102766
 30
0.0
 40
1.0
 50
0.0
 51
89.999957656932125
  0
ARC
  5
C3C
  8
0
 10
132.0009580932238
 20
189.25421148436001
 30
0.0
 40
1.0
 50
270.00004234286348
 51
0.0
  0
ARC
  5
C3D
  8
0
 10
105.8077733864327
 20
33.027663622844898
 30
0.0
 40
27.2186794913071
 50
341.75890563871297
 51
357.51993146706587
  0
ARC
  5
C3E
  8
0
 10
130.70890630656851
 20
24.820792503976801
 30
0.0
 40
1.0
 50
270.0
 51
341.75890563871269
  0
LINE
  5
C3F
  8
0
 10
104.000958093224
 20
24.418810055913241
 30
0.0
 11
130.70890630656851
 21
23.820792503976691
 31
0.0
  0
ARC
  5
C40
  8
0
 10
104.000958093224
 20
25.418810055913241
 30
0.0
 40
1.0
 50
180.0
 51
270.0
  0
ARC
  5
C41
  8
0
 10
104.000958093224
 20
42.222774952040361
 30
0.0
 40
1.0
 50
90.0
 51
180.0
  0
ARC
  5
C42
  8
0
 10
130.70890630656851
 20
42.820792503976797
 30
0.0
 40
1.0
 50
18.241094361287299
 51
90.0
  0
ARC
  5
C43
  8
0
 10
105.8077733864327
 20
34.613921385108711
 30
0.0
 40
27.2186794913071
 50
2.480068532934089
 51
18.24109436128704
  0
LINE
  5
C44
  8
0
 10
103.000958093224
 20
42.222774952040361
 30
0.0
 11
103.000958093224
 21
25.418810055913241
 31
0.0
  0
LINE
  5
C45
  8
0
 10
133.0009580932236
 20
35.791723895226937
 30
0.0
 11
133.0009580932236
 21
31.84986111272428
 31
0.0
  0
LINE
  5
C46
  8
0
 10
104.000958093224
 20
43.222774952040361
 30
0.0
 11
130.70890630656851
 21
43.820792503976911
 31
0.0
  0
LINE
  5
C47
  8
1
 10
98.000958093223986
 20
33.820792503976797
 30
0.0
 11
138.0009580932236
 21
33.820792503976797
 31
0.0
  0
ARC
  5
C48
  8
0
 10
156.2341089717049
 20
33.820792715666698
 30
-5.0000000000000027
 40
52.441427077745189
 50
173.07297750768171
 51
186.9270224923182
  0
ARC
  5
C49
  8
0
 10
99.679303845453106
 20
33.820792715667267
 30
-5.0000000000000027
 40
8.0567843159418313
 50
306.6651981515127
 51
53.334801848485952
  0
ARC
  5
C4A
  8
0
 10
104.37394318692451
 20
27.52079292735743
 30
-5.0000000000000027
 40
0.2
 50
187.09433645116539
 51
305.58182231528752
  0
ARC
  5
C4B
  8
0
 10
104.37394318692461
 20
40.120792503976872
 30
0.0
 40
0.2
 50
54.418177684712511
 51
172.9056635488345
  0
LINE
  5
C4C
  8
3
 10
103.8016516599192
 20
32.850898804859071
 30
-5.0
 11
107.67749609841771
 21
32.850898804859071
 31
-5.0
  0
LINE
  5
C4D
  8
3
 10
103.8702467503818
 20
30.969616253792651
 30
-5.0
 11
107.21472462314409
 21
30.969616253792541
 31
-5.0
  0
LINE
  5
C4E
  8
3
 10
103.8311628901086
 20
31.81218227066438
 30
-5.0
 11
107.4816917872201
 21
31.81218227066438
 31
-5.0
  0
LINE
  5
C4F
  8
3
 10
103.92703949470589
 20
30.069292125388191
 30
-5.0
 11
106.80938216442981
 21
30.069292125388191
 31
-5.0
  0
LINE
  5
C50
  8
3
 10
103.97625532561651
 20
29.436729958992029
 30
-5.0
 11
106.4388724159419
 21
29.436729958992029
 31
-5.0
  0
LINE
  5
C51
  8
3
 10
104.08445856593021
 20
28.29655190756046
 30
-5.0
 11
105.5439894301757
 21
28.29655190756046
 31
-5.0
  0
LINE
  5
C52
  8
3
 10
104.15832004133701
 20
27.638925584271082
 30
-5.0
 11
104.84614933214711
 21
27.638925584271082
 31
-5.0
  0
LINE
  5
C53
  8
3
 10
107.7360881613949
 20
33.820792715667153
 30
-5.0000000000000027
 11
103.7926818939598
 21
33.820792715667267
 31
-5.0000000000000027
  0
LINE
  5
C54
  8
3
 10
104.02602932874559
 20
28.879164042357282
 30
-5.0
 11
106.042642557853
 21
28.879164042357282
 31
-5.0
  0
LINE
  5
C55
  8
3
 10
104.15832004133701
 20
40.00265942368253
 30
-5.0
 11
104.84614933214711
 21
40.00265942368253
 31
-5.0
  0
LINE
  5
C56
  8
3
 10
104.02602932874559
 20
38.762420965596341
 30
-5.0
 11
106.042642557853
 21
38.762420965596341
 31
-5.0
  0
LINE
  5
C57
  8
3
 10
104.08445856593021
 20
39.345033100393152
 30
-5.0
 11
105.5439894301757
 21
39.345033100393152
 31
-5.0
  0
LINE
  5
C58
  8
3
 10
103.97625532561651
 20
38.204855048961583
 30
-5.0
 11
106.4388724159419
 21
38.204855048961583
 31
-5.0
  0
LINE
  5
C59
  8
3
 10
103.92703949470589
 20
37.572292882565421
 30
-5.0
 11
106.80938216442981
 21
37.572292882565421
 31
-5.0
  0
LINE
  5
C5A
  8
3
 10
103.8311628901086
 20
35.829402737289229
 30
-5.0
 11
107.4816917872201
 21
35.829402737289229
 31
-5.0
  0
LINE
  5
C5B
  8
3
 10
103.8702467503818
 20
36.671968754160957
 30
-5.0
 11
107.21472462314409
 21
36.671968754161071
 31
-5.0
  0
LINE
  5
C5C
  8
3
 10
103.8016516599192
 20
34.790686203094538
 30
-5.0
 11
107.67749609841771
 21
34.790686203094538
 31
-5.0
  0
LINE
  5
C5D
  8
3
 10
132.2002645265288
 20
34.790686203094538
 30
-5.0
 11
128.32442008803039
 21
34.790686203094538
 31
-5.0
  0
LINE
  5
C5E
  8
3
 10
132.1316694360662
 20
36.671968754160957
 30
-5.0
 11
128.78719156330391
 21
36.671968754161071
 31
-5.0
  0
LINE
  5
C5F
  8
3
 10
132.1707532963394
 20
35.829402737289229
 30
-5.0
 11
128.52022439922791
 21
35.829402737289229
 31
-5.0
  0
LINE
  5
C60
  8
3
 10
132.07487669174211
 20
37.572292882565421
 30
-5.0
 11
129.19253402201821
 21
37.572292882565421
 31
-5.0
  0
LINE
  5
C61
  8
3
 10
132.02566086083149
 20
38.204855048961583
 30
-5.0
 11
129.5630437705062
 21
38.204855048961583
 31
-5.0
  0
LINE
  5
C62
  8
3
 10
131.91745762051781
 20
39.345033100393152
 30
-5.0
 11
130.45792675627229
 21
39.345033100393152
 31
-5.0
  0
LINE
  5
C63
  8
3
 10
131.97588685770239
 20
38.762420965596341
 30
-5.0
 11
129.95927362859501
 21
38.762420965596341
 31
-5.0
  0
LINE
  5
C64
  8
3
 10
131.84359614511101
 20
40.00265942368253
 30
-5.0
 11
131.15576685430091
 21
40.00265942368253
 31
-5.0
  0
LINE
  5
C65
  8
3
 10
131.97588685770239
 20
28.879164042357282
 30
-5.0
 11
129.95927362859501
 21
28.879164042357282
 31
-5.0
  0
LINE
  5
C66
  8
3
 10
128.26582802505311
 20
33.820792715667153
 30
-5.0000000000000027
 11
132.20923429248819
 21
33.820792715667267
 31
-5.0000000000000027
  0
LINE
  5
C67
  8
3
 10
131.84359614511101
 20
27.638925584271082
 30
-5.0
 11
131.15576685430091
 21
27.638925584271082
 31
-5.0
  0
LINE
  5
C68
  8
3
 10
131.91745762051781
 20
28.29655190756046
 30
-5.0
 11
130.45792675627229
 21
28.29655190756046
 31
-5.0
  0
LINE
  5
C69
  8
3
 10
132.02566086083149
 20
29.436729958992029
 30
-5.0
 11
129.5630437705062
 21
29.436729958992029
 31
-5.0
  0
LINE
  5
C6A
  8
3
 10
132.07487669174211
 20
30.069292125388191
 30
-5.0
 11
129.19253402201821
 21
30.069292125388191
 31
-5.0
  0
LINE
  5
C6B
  8
3
 10
132.1707532963394
 20
31.81218227066438
 30
-5.0
 11
128.52022439922791
 21
31.81218227066438
 31
-5.0
  0
LINE
  5
C6C
  8
3
 10
132.1316694360662
 20
30.969616253792651
 30
-5.0
 11
128.78719156330391
 21
30.969616253792541
 31
-5.0
  0
LINE
  5
C6D
  8
3
 10
132.2002645265288
 20
32.850898804859071
 30
-5.0
 11
128.32442008803039
 21
32.850898804859071
 31
-5.0
  0
ARC
  5
C6E
  8
0
 10
131.62797299952339
 20
40.120792503976872
 30
0.0
 40
0.2
 50
7.0943364511654634
 51
125.5818223152875
  0
ARC
  5
C6F
  8
0
 10
131.62797299952351
 20
27.52079292735743
 30
-5.0000000000000027
 40
0.2
 50
234.41817768471259
 51
352.90566354883453
  0
ARC
  5
C70
  8
0
 10
136.32261234099491
 20
33.820792715667267
 30
-5.0000000000000027
 40
8.0567843159418313
 50
126.66519815151401
 51
233.33480184848719
  0
ARC
  5
C71
  8
0
 10
79.767807214743115
 20
33.820792715666698
 30
-5.0000000000000027
 40
52.441427077745189
 50
353.0729775076818
 51
6.9270224923183088
  0
ARC
  5
C72
  8
0
 10
132.3409983870948
 20
118.37580840608111
 30
0.0
 40
0.5
 50
3.1388294320986199
 51
150.3534513906769
  0
LINE
  5
C73
  8
2
 10
131.94076389330721
 20
112.12822306129669
 30
0.0
 11
132.95340670733469
 21
109.3460097957695
 31
0.0
  0
POLYLINE
  5
C74
  8
0
 66
     1
 10
0.0
 20
0.0
 30
0.0
 70
     1
  0
VERTEX
  5
C75
  8
0
 10
192.00095406256139
 20
109.34600979577171
 30
0.0
 42
0.0926181494926468
  0
VERTEX
  5
C76
  8
0
 10
191.69252713314029
 20
110.9967726720873
 30
0.0
 42
0.0958614839466386
  0
VERTEX
  5
C77
  8
0
 10
190.8293823678616
 20
112.37180565295419
 30
0.0
 42
0.1008356099716488
 70
     2
 50
133.06903794644211
  0
VERTEX
  5
C78
  8
0
 10
189.51840280305771
 20
113.3039862197749
 30
0.0
 42
0.1046586639057112
 50
133.06903794644211
  0
VERTEX
  5
C79
  8
0
 10
188.00095809322511
 20
113.6251313339714
 30
0.0
 42
0.1046586639057203
  0
VERTEX
  5
C7A
  8
0
 10
186.48351338339239
 20
113.3039862197749
 30
0.0
 42
0.1008356099716409
  0
VERTEX
  5
C7B
  8
0
 10
185.1725338185887
 20
112.37180565295419
 30
0.0
 42
0.0958614839466564
 70
     2
 50
226.93096205355869
  0
VERTEX
  5
C7C
  8
0
 10
184.3093890533101
 20
110.9967726720872
 30
0.0
 42
0.0926181494926674
 50
226.93096205355869
  0
VERTEX
  5
C7D
  8
0
 10
184.00096212388891
 20
109.34600979577171
 30
0.0
 42
0.0926181494926531
  0
VERTEX
  5
C7E
  8
0
 10
184.30938905331001
 20
107.6952469194562
 30
0.0
 42
0.0958614839466573
  0
VERTEX
  5
C7F
  8
0
 10
185.1725338185887
 20
106.32021393858911
 30
0.0
 42
0.1008356099716287
 70
     2
 50
313.06903794644211
  0
VERTEX
  5
C80
  8
0
 10
186.48351338339239
 20
105.3880333717684
 30
0.0
 42
0.1046586639057133
 50
313.06903794644211
  0
VERTEX
  5
C81
  8
0
 10
188.00095809322519
 20
105.0668882575719
 30
0.0
 42
0.1046586639057203
  0
VERTEX
  5
C82
  8
0
 10
189.51840280305791
 20
105.3880333717684
 30
0.0
 42
0.1008356099716412
  0
VERTEX
  5
C83
  8
0
 10
190.8293823678616
 20
106.32021393858911
 30
0.0
 42
0.0958614839466637
 70
     2
 50
46.930962053558751
  0
VERTEX
  5
C84
  8
0
 10
191.69252713314029
 20
107.69524691945639
 30
0.0
 42
0.0926181494926464
 50
46.930962053558751
  0
SEQEND
  5
C85
  8
0
  0
TEXT
  5
D3A
  8
0
 62
     3
 10
0.0
 20
0.0
 30
0.0
 40
10.0
  1
CC60DC-D
  7
STANDARD1
  0
ENDSEC
  0
EOF
