  0
SECTION
  2
HEADER
  9
$ACADVER
  1
AC1009
  9
$INSBASE
 10
0.0
 20
0.0
 30
0.0
  9
$EXTMIN
 10
0.0
 20
-2.960436562073669
 30
0.0
  9
$EXTMAX
 10
310.2499999999996
 20
199.75
 30
0.0
  9
$LIMMIN
 10
0.0
 20
0.0
  9
$LIMMAX
 10
375.0
 20
270.0
  9
$ORTHOMODE
 70
     0
  9
$REGENMODE
 70
     1
  9
$FILLMODE
 70
     1
  9
$QTEXTMODE
 70
     0
  9
$MIRRTEXT
 70
     0
  9
$DRAGMODE
 70
     2
  9
$LTSCALE
 40
10.0
  9
$OSMODE
 70
    37
  9
$ATTMODE
 70
     1
  9
$TEXTSIZE
 40
0.2
  9
$TRACEWID
 40
0.05
  9
$TEXTSTYLE
  7
STANDARD
  9
$CLAYER
  8
0
  9
$CELTYPE
  6
BYLAYER
  9
$CECOLOR
 62
   256
  9
$DIMSCALE
 40
1.0
  9
$DIMASZ
 40
3.0
  9
$DIMEXO
 40
2.0
  9
$DIMDLI
 40
0.38
  9
$DIMRND
 40
0.0
  9
$DIMDLE
 40
0.0
  9
$DIMEXE
 40
2.0
  9
$DIMTP
 40
0.0
  9
$DIMTM
 40
0.0
  9
$DIMTXT
 40
3.2000000000000002
  9
$DIMCEN
 40
0.0
  9
$DIMTSZ
 40
0.0
  9
$DIMTOL
 70
     0
  9
$DIMLIM
 70
     0
  9
$DIMTIH
 70
     0
  9
$DIMTOH
 70
     0
  9
$DIMSE1
 70
     0
  9
$DIMSE2
 70
     0
  9
$DIMTAD
 70
     1
  9
$DIMZIN
 70
     0
  9
$DIMBLK
  1

  9
$DIMASO
 70
     1
  9
$DIMSHO
 70
     0
  9
$DIMPOST
  1

  9
$DIMAPOST
  1

  9
$DIMALT
 70
     0
  9
$DIMALTD
 70
     2
  9
$DIMALTF
 40
25.399999999999999
  9
$DIMLFAC
 40
1.0
  9
$DIMTOFL
 70
     1
  9
$DIMTVP
 40
1.6000000000000001
  9
$DIMTIX
 70
     1
  9
$DIMSOXD
 70
     0
  9
$DIMSAH
 70
     0
  9
$DIMBLK1
  1

  9
$DIMBLK2
  1

  9
$DIMSTYLE
  2
STANDARD
  9
$DIMCLRD
 70
     0
  9
$DIMCLRE
 70
     0
  9
$DIMCLRT
 70
     0
  9
$DIMTFAC
 40
1.0
  9
$DIMGAP
 40
0.09
  9
$LUNITS
 70
     2
  9
$LUPREC
 70
     4
  9
$SKETCHINC
 40
0.1
  9
$FILLETRAD
 40
0.0
  9
$AUNITS
 70
     0
  9
$AUPREC
 70
     4
  9
$MENU
  1
E:\r13\win\SUPPORT\ACAD
  9
$ELEVATION
 40
0.0
  9
$PELEVATION
 40
0.0
  9
$THICKNESS
 40
0.0
  9
$LIMCHECK
 70
     0
  9
$BLIPMODE
 70
     0
  9
$CHAMFERA
 40
0.0
  9
$CHAMFERB
 40
0.0
  9
$SKPOLY
 70
     0
  9
$TDCREATE
 40
2450521.4818636579
  9
$TDUPDATE
 40
2457266.6998364809
  9
$TDINDWG
 40
0.0949397222
  9
$TDUSRTIMER
 40
0.0949397222
  9
$USRTIMER
 70
     1
  9
$ANGBASE
 50
0.0
  9
$ANGDIR
 70
     0
  9
$PDMODE
 70
     0
  9
$PDSIZE
 40
0.0
  9
$PLINEWID
 40
0.0
  9
$COORDS
 70
     1
  9
$SPLFRAME
 70
     0
  9
$SPLINETYPE
 70
     6
  9
$SPLINESEGS
 70
     8
  9
$ATTDIA
 70
     0
  9
$ATTREQ
 70
     1
  9
$HANDLING
 70
     1
  9
$HANDSEED
  5
AB5
  9
$SURFTAB1
 70
     6
  9
$SURFTAB2
 70
     6
  9
$SURFTYPE
 70
     6
  9
$SURFU
 70
     6
  9
$SURFV
 70
     6
  9
$UCSNAME
  2

  9
$UCSORG
 10
0.0
 20
0.0
 30
0.0
  9
$UCSXDIR
 10
1.0
 20
0.0
 30
0.0
  9
$UCSYDIR
 10
0.0
 20
1.0
 30
0.0
  9
$PUCSNAME
  2

  9
$PUCSORG
 10
0.0
 20
0.0
 30
0.0
  9
$PUCSXDIR
 10
1.0
 20
0.0
 30
0.0
  9
$PUCSYDIR
 10
0.0
 20
1.0
 30
0.0
  9
$USERI1
 70
     0
  9
$USERI2
 70
     1
  9
$USERI3
 70
     1
  9
$USERI4
 70
     0
  9
$USERI5
 70
     0
  9
$USERR1
 40
0.0
  9
$USERR2
 40
0.0
  9
$USERR3
 40
0.0
  9
$USERR4
 40
0.0
  9
$USERR5
 40
0.0
  9
$WORLDVIEW
 70
     1
  9
$SHADEDGE
 70
     3
  9
$SHADEDIF
 70
    70
  9
$TILEMODE
 70
     1
  9
$MAXACTVP
 70
    16
  9
$PLIMCHECK
 70
     0
  9
$PEXTMIN
 10
1.0000000000000000E+020
 20
1.0000000000000000E+020
 30
1.0000000000000000E+020
  9
$PEXTMAX
 10
-1.0000000000000000E+020
 20
-1.0000000000000000E+020
 30
-1.0000000000000000E+020
  9
$PLIMMIN
 10
0.0
 20
0.0
  9
$PLIMMAX
 10
12.0
 20
9.0
  9
$UNITMODE
 70
     0
  9
$VISRETAIN
 70
     0
  9
$PLINEGEN
 70
     1
  9
$PSLTSCALE
 70
     0
  0
ENDSEC
  0
SECTION
  2
TABLES
  0
TABLE
  2
VPORT
 70
     1
  0
VPORT
  2
*ACTIVE
 70
     0
 10
0.0
 20
0.0
 11
1.0
 21
1.0
 12
245.19230769230771
 22
135.0
 13
0.0
 23
0.0
 14
10.0
 24
10.0
 15
10.0
 25
10.0
 16
0.0
 26
0.0
 36
1.0
 17
0.0
 27
0.0
 37
0.0
 40
270.0
 41
1.816239316239316
 42
50.0
 43
0.0
 44
0.0
 50
0.0
 51
0.0
 71
     0
 72
   500
 73
     1
 74
     0
 75
     0
 76
     0
 77
     0
 78
     2
  0
ENDTAB
  0
TABLE
  2
LTYPE
 70
     4
  0
LTYPE
  2
CONTINUOUS
 70
     0
  3
Solid Line
 72
    65
 73
     0
 40
0.0
  0
LTYPE
  2
CENTER
 70
     0
  3
____ _ ____ _ ____ _ ____ _ ____ _ ____ _ ____
 72
    65
 73
     4
 40
2.0
 49
1.25
 49
-0.25
 49
0.25
 49
-0.25
  0
LTYPE
  2
HIDDEN
 70
     0
  3
_ _ _ _ _ _ _ _ _ _ _ _ _ _ _ _ _ _ _ _ _ _ _
 72
    65
 73
     2
 40
0.375
 49
0.25
 49
-0.125
  0
LTYPE
  2
PHANTOM2
 70
     0
  3
___ _ _ ___ _ _ ___ _ _ ___ _ _
 72
    65
 73
     6
 40
1.25
 49
0.625
 49
-0.125
 49
0.125
 49
-0.125
 49
0.125
 49
-0.125
  0
ENDTAB
  0
TABLE
  2
LAYER
 70
     4
  0
LAYER
  2
0
 70
     0
 62
     7
  6
CONTINUOUS
  0
LAYER
  2
1
 70
     0
 62
     1
  6
CENTER
  0
LAYER
  2
2
 70
     0
 62
     2
  6
HIDDEN
  0
LAYER
  2
DEFPOINTS
 70
     0
 62
     7
  6
CONTINUOUS
  0
ENDTAB
  0
TABLE
  2
STYLE
 70
     2
  0
STYLE
  2
STANDARD
 70
     0
 40
0.0
 41
1.0
 50
0.0
 71
     0
 42
0.2
  3
TXT
  4
BIGFONT
  0
STYLE
  2
STANDARD1
 70
     0
 40
0.0
 41
1.0
 50
0.0
 71
     0
 42
3.0
  3
txt
  4

  0
ENDTAB
  0
TABLE
  2
VIEW
 70
     1
  0
VIEW
  2
ALL
 70
     0
 40
270.0
 10
220.99159663865549
 20
135.0
 41
0.0
 11
0.0
 21
0.0
 31
1.0
 12
0.0
 22
0.0
 32
0.0
 42
0.0
 43
0.0
 44
0.0
 50
0.0
 71
     0
  0
ENDTAB
  0
TABLE
  2
UCS
 70
     0
  0
ENDTAB
  0
TABLE
  2
APPID
 70
     4
  0
APPID
  2
ACAD
 70
     0
  0
APPID
  2
ACAD_EXEMPT_FROM_CAD_STANDARDS
 70
     0
  0
APPID
  2
ACAD_MLEADERVER
 70
     0
  0
APPID
  2
ACAD_NAV_VCDISPLAY
 70
     0
  0
ENDTAB
  0
TABLE
  2
DIMSTYLE
 70
     1
  0
DIMSTYLE
  2
STANDARD
 70
     0
  3

  4

  5

  6

  7

 40
1.0
 41
0.18
 42
0.0625
 43
0.38
 44
0.18
 45
0.0
 46
0.0
 47
0.0
 48
0.0
140
0.18
141
0.09
142
0.0
143
25.399999999999999
144
1.0
145
0.0
146
1.0
147
0.09
 71
     0
 72
     0
 73
     1
 74
     1
 75
     0
 76
     0
 77
     0
 78
     0
170
     0
171
     2
172
     0
173
     0
174
     0
175
     0
176
     0
177
     0
178
     0
  0
ENDTAB
  0
ENDSEC
  0
SECTION
  2
BLOCKS
  0
BLOCK
  8
0
  2
$MODEL_SPACE
 70
     0
 10
0.0
 20
0.0
 30
0.0
  3
$MODEL_SPACE
  1

  0
ENDBLK
  5
226
  8
0
  0
BLOCK
 67
     1
  8
0
  2
$PAPER_SPACE
 70
     0
 10
0.0
 20
0.0
 30
0.0
  3
$PAPER_SPACE
  1

  0
ENDBLK
  5
224
 67
     1
  8
0
  0
ENDSEC
  0
SECTION
  2
ENTITIES
  0
TEXT
  5
64E
  8
0
 62
     3
 10
0.0
 20
0.0
 30
0.0
 40
10.0
  1
CCH60520
  7
STANDARD1
  0
LINE
  5
7B2
  8
1
 10
221.25000000000179
 20
88.999999999999886
 30
0.0
 11
212.75000000000159
 21
88.999999999999886
 31
0.0
  0
LINE
  5
7B3
  8
2
 10
218.25000000000071
 20
82.999999999999886
 30
0.0
 11
215.75000000000051
 21
82.999999999999886
 31
0.0
  0
LINE
  5
7B4
  8
2
 10
218.25000000000071
 20
94.999999999999886
 30
0.0
 11
215.75000000000051
 21
94.999999999999886
 31
0.0
  0
LINE
  5
7B5
  8
1
 10
221.25000000000179
 20
130.99999999999989
 30
0.0
 11
212.75000000000159
 21
130.99999999999989
 31
0.0
  0
LINE
  5
7B6
  8
2
 10
218.25000000000071
 20
124.9999999999999
 30
0.0
 11
215.75000000000051
 21
124.9999999999999
 31
0.0
  0
LINE
  5
7B7
  8
2
 10
218.25000000000071
 20
136.99999999999989
 30
0.0
 11
215.75000000000051
 21
136.99999999999989
 31
0.0
  0
LINE
  5
7B8
  8
1
 10
210.7500000000006
 20
109.9999999999999
 30
0.0
 11
240.25000000000051
 21
110.0
 31
0.0
  0
LINE
  5
7B9
  8
2
 10
232.49999999999889
 20
91.999999999999829
 30
0.0
 11
232.49999999999889
 21
79.999999999999659
 31
0.0
  0
LINE
  5
7BA
  8
2
 10
232.49999999999901
 20
139.9999999999998
 30
0.0
 11
232.49999999999841
 21
127.5000000000001
 31
0.0
  0
LINE
  5
7BB
  8
2
 10
232.49999999999841
 20
127.5000000000001
 30
0.0
 11
232.49999999999841
 21
92.499999999999758
 31
0.0
  0
LINE
  5
7BC
  8
2
 10
227.5000000000006
 20
91.999999999999829
 30
0.0
 11
227.5000000000006
 21
79.999999999999659
 31
0.0
  0
LINE
  5
7BD
  8
2
 10
227.50000000000111
 20
127.5000000000001
 30
0.0
 11
227.50000000000111
 21
92.499999999999758
 31
0.0
  0
LINE
  5
7BE
  8
2
 10
227.50000000000051
 20
139.9999999999998
 30
0.0
 11
227.50000000000111
 21
127.5000000000001
 31
0.0
  0
LINE
  5
7BF
  8
0
 10
224.7500000000006
 20
80.0
 30
0.0
 11
224.7500000000006
 21
91.999999999999829
 31
0.0
  0
LINE
  5
7C0
  8
0
 10
224.7500000000006
 20
139.99999999999969
 30
0.0
 11
224.7500000000006
 21
127.9999999999999
 31
0.0
  0
LINE
  5
7C1
  8
0
 10
225.25000000000099
 20
92.499999999999716
 30
0.0
 11
225.25000000000099
 21
91.999999999999886
 31
0.0
  0
LINE
  5
7C2
  8
0
 10
220.25000000000151
 20
92.499999999999758
 30
0.0
 11
220.2500000000019
 21
79.999999999999659
 31
0.0
  0
LINE
  5
7C3
  8
1
 10
109.2500000000022
 20
110.0
 30
0.0
 11
79.749999999999432
 21
110.0
 31
0.0
  0
LINE
  5
7C4
  8
0
 10
215.7500000000019
 20
139.99999999999989
 30
0.0
 11
218.25000000000219
 21
139.99999999999989
 31
0.0
  0
LINE
  5
7C5
  8
0
 10
215.74999999999909
 20
79.999999999999659
 30
0.0
 11
218.24999999999909
 21
79.999999999999659
 31
0.0
  0
LINE
  5
7C6
  8
0
 10
215.7500000000019
 20
140.0
 30
0.0
 11
215.74999999999909
 21
79.999999999999773
 31
0.0
  0
LINE
  5
7C7
  8
0
 10
218.2499999999998
 20
92.499999999999758
 30
0.0
 11
235.25000000000051
 21
92.499999999999758
 31
0.0
  0
LINE
  5
7C8
  8
0
 10
218.25000000000151
 20
127.4999999999996
 30
0.0
 11
235.2500000000004
 21
127.5000000000005
 31
0.0
  0
LINE
  5
7C9
  8
0
 10
224.7500000000006
 20
127.9999999999999
 30
0.0
 11
235.25000000000031
 21
127.9999999999999
 31
0.0
  0
LINE
  5
7CA
  8
0
 10
224.7500000000006
 20
91.999999999999829
 30
0.0
 11
235.2500000000004
 21
91.999999999999929
 31
0.0
  0
LINE
  5
7CB
  8
0
 10
235.2500000000004
 20
140.0
 30
0.0
 11
235.2500000000004
 21
127.9999999999999
 31
0.0
  0
LINE
  5
7CC
  8
0
 10
220.2500000000019
 20
79.999999999999659
 30
0.0
 11
235.25000000000051
 21
79.999999999999716
 31
0.0
  0
LINE
  5
7CD
  8
0
 10
220.24999999999969
 20
139.99999999999969
 30
0.0
 11
235.2500000000004
 21
140.0
 31
0.0
  0
LINE
  5
7CE
  8
0
 10
220.24999999999969
 20
139.99999999999969
 30
0.0
 11
220.25000000000011
 21
127.4999999999997
 31
0.0
  0
LINE
  5
7CF
  8
0
 10
225.24999999999989
 20
127.9999999999999
 30
0.0
 11
225.24999999999989
 21
127.4999999999999
 31
0.0
  0
LINE
  5
7D0
  8
0
 10
235.25000000000051
 20
91.999999999999886
 30
0.0
 11
235.25000000000051
 21
79.999999999999716
 31
0.0
  0
LINE
  5
7D1
  8
0
 10
235.2500000000004
 20
127.5
 30
0.0
 11
235.25000000000051
 21
92.499999999999716
 31
0.0
  0
LINE
  5
7D3
  8
1
 10
230.00000000000051
 20
66.999999999999886
 30
0.0
 11
229.9999999999994
 21
154.31003985025421
 31
0.0
  0
LINE
  5
7D4
  8
0
 10
227.50000000000031
 20
73.999999999999886
 30
0.0
 11
227.50000000000051
 21
75.999999999999886
 31
0.0
  0
LINE
  5
7D5
  8
0
 10
232.49999999999969
 20
80.000000000000227
 30
0.0
 11
232.49999999999969
 21
77.499999999999886
 31
0.0
  0
LINE
  5
7D6
  8
0
 10
228.6547005383803
 20
71.999999999999886
 30
0.0
 11
231.3452994616205
 21
71.999999999999886
 31
0.0
  0
LINE
  5
7D7
  8
0
 10
227.50000000000051
 20
75.999999999999886
 30
0.0
 11
232.49999999999969
 21
75.999999999999886
 31
0.0
  0
LINE
  5
7D8
  8
0
 10
227.50000000000051
 20
77.499999999999886
 30
0.0
 11
232.49999999999969
 21
77.499999999999886
 31
0.0
  0
LINE
  5
7D9
  8
0
 10
231.99999999999969
 20
77.499999999999886
 30
0.0
 11
231.99999999999969
 21
75.999999999999886
 31
0.0
  0
LINE
  5
7DA
  8
0
 10
228.00000000000051
 20
75.999999999999886
 30
0.0
 11
228.00000000000051
 21
77.499999999999886
 31
0.0
  0
LINE
  5
7DB
  8
0
 10
232.49999999999969
 20
75.999999999999886
 30
0.0
 11
232.4999999999998
 21
73.999999999999886
 31
0.0
  0
LINE
  5
7DC
  8
0
 10
227.50000000000031
 20
73.999999999999886
 30
0.0
 11
232.4999999999998
 21
73.999999999999886
 31
0.0
  0
LINE
  5
7DD
  8
0
 10
232.4999999999998
 20
73.999999999999886
 30
0.0
 11
231.3452994616205
 21
71.999999999999886
 31
0.0
  0
LINE
  5
7DE
  8
0
 10
227.50000000000099
 20
73.999999999999886
 30
0.0
 11
228.6547005383803
 21
71.999999999999886
 31
0.0
  0
LINE
  5
7DF
  8
0
 10
227.50000000000051
 20
77.499999999999886
 30
0.0
 11
227.50000000000031
 21
79.999999999999659
 31
0.0
  0
LINE
  5
7E0
  8
0
 10
227.5000000000006
 20
91.999999999999929
 30
0.0
 11
227.5000000000006
 21
92.499999999999716
 31
0.0
  0
LINE
  5
7E1
  8
0
 10
232.4999999999998
 20
128.0000000000008
 30
0.0
 11
232.4999999999998
 21
127.5000000000007
 31
0.0
  0
LINE
  5
7E2
  8
0
 10
232.4999999999998
 20
92.000000000000455
 30
0.0
 11
232.4999999999998
 21
92.500000000000455
 31
0.0
  0
LINE
  5
7E3
  8
0
 10
227.49999999999989
 20
128.0000000000008
 30
0.0
 11
227.49999999999989
 21
127.5000000000007
 31
0.0
  0
LINE
  5
7E4
  8
0
 10
218.25000000000219
 20
139.99999999999989
 30
0.0
 11
218.24999999999909
 21
79.999999999999659
 31
0.0
  0
LINE
  5
7E5
  8
0
 10
101.750000000003
 20
92.499999999999943
 30
0.0
 11
101.75000000000369
 21
79.999999999999773
 31
0.0
  0
LINE
  5
7E6
  8
0
 10
92.500000000000114
 20
128.00000000000091
 30
0.0
 11
92.500000000000114
 21
127.5000000000008
 31
0.0
  0
LINE
  5
7E7
  8
0
 10
87.500000000000114
 20
92.000000000000568
 30
0.0
 11
87.500000000000114
 21
92.500000000000554
 31
0.0
  0
LINE
  5
7E8
  8
0
 10
87.500000000000114
 20
128.00000000000091
 30
0.0
 11
87.500000000000114
 21
127.5000000000008
 31
0.0
  0
LINE
  5
7E9
  8
0
 10
92.499999999999432
 20
92.000000000000057
 30
0.0
 11
92.499999999999432
 21
92.499999999999844
 31
0.0
  0
LINE
  5
7EA
  8
0
 10
92.499999999999545
 20
77.5
 30
0.0
 11
92.499999999999659
 21
79.999999999999773
 31
0.0
  0
LINE
  5
7EB
  8
0
 10
92.499999999998977
 20
74.0
 30
0.0
 11
91.345299461619675
 21
71.999999999999972
 31
0.0
  0
LINE
  5
7EC
  8
0
 10
87.500000000000114
 20
74.0
 30
0.0
 11
88.654700538379416
 21
71.999999999999972
 31
0.0
  0
LINE
  5
7ED
  8
0
 10
92.499999999999659
 20
74.0
 30
0.0
 11
87.500000000000114
 21
74.0
 31
0.0
  0
LINE
  5
7EE
  8
0
 10
87.500000000000227
 20
76.0
 30
0.0
 11
87.500000000000114
 21
74.0
 31
0.0
  0
LINE
  5
7EF
  8
0
 10
91.999999999999545
 20
76.0
 30
0.0
 11
91.999999999999545
 21
77.5
 31
0.0
  0
LINE
  5
7F0
  8
0
 10
88.000000000000227
 20
77.5
 30
0.0
 11
88.000000000000227
 21
76.0
 31
0.0
  0
LINE
  5
7F1
  8
0
 10
92.499999999999545
 20
77.5
 30
0.0
 11
87.500000000000227
 21
77.5
 31
0.0
  0
LINE
  5
7F2
  8
0
 10
92.499999999999545
 20
76.0
 30
0.0
 11
87.500000000000227
 21
76.0
 31
0.0
  0
LINE
  5
7F3
  8
0
 10
91.345299461619675
 20
71.999999999999972
 30
0.0
 11
88.654700538379416
 21
71.999999999999972
 31
0.0
  0
LINE
  5
7F4
  8
0
 10
87.500000000000227
 20
80.000000000000327
 30
0.0
 11
87.500000000000227
 21
77.5
 31
0.0
  0
LINE
  5
7F5
  8
0
 10
92.499999999999659
 20
74.0
 30
0.0
 11
92.499999999999545
 21
76.0
 31
0.0
  0
LINE
  5
7F6
  8
1
 10
89.999999999999432
 20
66.999999999999972
 30
0.0
 11
90.000000000000526
 21
154.31003985025421
 31
0.0
  0
LINE
  5
7F8
  8
0
 10
84.749999999999545
 20
127.5000000000001
 30
0.0
 11
84.749999999999417
 21
92.499999999999844
 31
0.0
  0
LINE
  5
7F9
  8
0
 10
84.749999999999417
 20
92.0
 30
0.0
 11
84.749999999999417
 21
79.999999999999829
 31
0.0
  0
LINE
  5
7FA
  8
0
 10
94.749999999999091
 20
92.499999999999886
 30
0.0
 11
84.749999999999417
 21
92.499999999999844
 31
0.0
  0
LINE
  5
7FB
  8
0
 10
94.750000000000213
 20
127.4999999999999
 30
0.0
 11
84.749999999999417
 21
127.5000000000001
 31
0.0
  0
LINE
  5
7FC
  8
0
 10
94.750000000000114
 20
128.0
 30
0.0
 11
94.749999999998977
 21
92.0
 31
0.0
  0
LINE
  5
7FD
  8
0
 10
99.750000000000355
 20
139.9999999999998
 30
0.0
 11
99.749999999998067
 21
79.999999999999773
 31
0.0
  0
LINE
  5
7FE
  8
0
 10
99.750000000000355
 20
139.9999999999998
 30
0.0
 11
84.749999999999545
 21
140.00000000000011
 31
0.0
  0
LINE
  5
7FF
  8
0
 10
99.749999999998067
 20
79.999999999999773
 30
0.0
 11
84.749999999999417
 21
79.999999999999829
 31
0.0
  0
LINE
  5
800
  8
0
 10
84.749999999999545
 20
140.00000000000011
 30
0.0
 11
84.749999999999545
 21
128.0
 31
0.0
  0
LINE
  5
801
  8
0
 10
94.749999999998977
 20
92.0
 30
0.0
 11
84.749999999999545
 21
92.000000000000057
 31
0.0
  0
LINE
  5
802
  8
0
 10
94.750000000000114
 20
128.0
 30
0.0
 11
84.749999999999645
 21
128.0
 31
0.0
  0
LINE
  5
803
  8
0
 10
104.25000000000151
 20
127.4999999999997
 30
0.0
 11
99.749999999999886
 21
127.4999999999998
 31
0.0
  0
LINE
  5
804
  8
0
 10
104.250000000003
 20
92.499999999999886
 30
0.0
 11
99.749999999998636
 21
92.499999999999886
 31
0.0
  0
LINE
  5
805
  8
0
 10
104.2500000000009
 20
140.00000000000011
 30
0.0
 11
104.25000000000369
 21
79.999999999999886
 31
0.0
  0
LINE
  5
806
  8
0
 10
104.25000000000369
 20
79.999999999999773
 30
0.0
 11
101.75000000000369
 21
79.999999999999773
 31
0.0
  0
LINE
  5
807
  8
0
 10
104.2500000000009
 20
140.0
 30
0.0
 11
101.7500000000009
 21
140.0
 31
0.0
  0
LINE
  5
808
  8
0
 10
101.7500000000009
 20
140.0
 30
0.0
 11
101.75000000000119
 21
127.4999999999998
 31
0.0
  0
LINE
  5
809
  8
0
 10
147.0000000000004
 20
77.5
 30
0.0
 11
147.0000000000004
 21
139.99999999999989
 31
0.0
  0
LINE
  5
80A
  8
0
 10
154.74999999999989
 20
92.499999999999758
 30
0.0
 11
154.7499999999994
 21
127.5000000000001
 31
0.0
  0
LINE
  5
80B
  8
0
 10
151.99999999999969
 20
91.999999999999773
 30
0.0
 11
151.99999999999969
 21
92.499999999999758
 31
0.0
  0
LINE
  5
80C
  8
0
 10
151.99999999999969
 20
128.00000000000011
 30
0.0
 11
151.99999999999969
 21
127.5
 31
0.0
  0
LINE
  5
80D
  8
1
 10
182.50000000000071
 20
109.9999999999994
 30
0.0
 11
139.7500000000004
 21
110.0
 31
0.0
  0
LINE
  5
80E
  8
0
 10
154.7500000000004
 20
139.99999999999989
 30
0.0
 11
154.7500000000004
 21
127.9999999999998
 31
0.0
  0
LINE
  5
80F
  8
0
 10
154.7500000000004
 20
80.000000000000114
 30
0.0
 11
154.7500000000004
 21
92.000000000000114
 31
0.0
  0
LINE
  5
810
  8
0
 10
147.0000000000004
 20
92.499999999999886
 30
0.0
 11
166.7500000000006
 21
92.499999999999659
 31
0.0
  0
LINE
  5
811
  8
0
 10
147.0000000000004
 20
127.5
 30
0.0
 11
166.7500000000006
 21
127.5000000000003
 31
0.0
  0
LINE
  5
812
  8
0
 10
147.0000000000004
 20
92.0
 30
0.0
 11
154.7500000000004
 21
92.000000000000114
 31
0.0
  0
LINE
  5
813
  8
0
 10
147.0000000000004
 20
128.00000000000011
 30
0.0
 11
154.7500000000004
 21
128.00000000000011
 31
0.0
  0
LINE
  5
814
  8
0
 10
144.25000000000131
 20
79.999999999999886
 30
0.0
 11
154.7500000000004
 21
80.0
 31
0.0
  0
LINE
  5
815
  8
0
 10
144.2500000000004
 20
80.0
 30
0.0
 11
144.2500000000004
 21
139.99999999999989
 31
0.0
  0
LINE
  5
816
  8
0
 10
144.2500000000004
 20
139.99999999999989
 30
0.0
 11
154.7500000000004
 21
140.00000000000011
 31
0.0
  0
LINE
  5
817
  8
0
 10
147.00000000000099
 20
74.0
 30
0.0
 11
148.1547005383803
 21
72.0
 31
0.0
  0
LINE
  5
818
  8
0
 10
151.9999999999998
 20
74.0
 30
0.0
 11
150.8452994616205
 21
72.0
 31
0.0
  0
LINE
  5
819
  8
0
 10
147.00000000000031
 20
74.0
 30
0.0
 11
151.9999999999998
 21
74.0
 31
0.0
  0
LINE
  5
81A
  8
0
 10
151.99999999999969
 20
76.0
 30
0.0
 11
151.9999999999998
 21
74.0
 31
0.0
  0
LINE
  5
81B
  8
0
 10
147.5000000000004
 20
76.0
 30
0.0
 11
147.5000000000004
 21
77.5
 31
0.0
  0
LINE
  5
81C
  8
0
 10
151.49999999999969
 20
77.5
 30
0.0
 11
151.49999999999969
 21
76.0
 31
0.0
  0
LINE
  5
81D
  8
0
 10
147.0000000000004
 20
77.5
 30
0.0
 11
151.99999999999969
 21
77.5
 31
0.0
  0
LINE
  5
81E
  8
0
 10
147.0000000000004
 20
76.0
 30
0.0
 11
151.99999999999969
 21
76.0
 31
0.0
  0
LINE
  5
81F
  8
0
 10
148.1547005383803
 20
72.0
 30
0.0
 11
150.8452994616205
 21
72.0
 31
0.0
  0
LINE
  5
820
  8
0
 10
151.99999999999969
 20
80.000000000000327
 30
0.0
 11
151.99999999999969
 21
77.5
 31
0.0
  0
LINE
  5
821
  8
0
 10
147.00000000000031
 20
74.0
 30
0.0
 11
147.0000000000004
 21
76.0
 31
0.0
  0
LINE
  5
822
  8
1
 10
153.57649525193659
 20
145.31259204458991
 30
0.0
 11
166.2444436971696
 21
148.7069586002491
 31
0.0
  0
LINE
  5
823
  8
1
 10
149.50000000000051
 20
67.0
 30
0.0
 11
149.4999999999996
 21
140.0
 31
0.0
  0
LINE
  5
824
  8
0
 10
162.2500000000002
 20
79.999999999999886
 30
0.0
 11
176.74999999999929
 21
80.0
 31
0.0
  0
LINE
  5
825
  8
0
 10
162.2500000000029
 20
139.99999999999989
 30
0.0
 11
176.75000000000219
 21
140.00000000000031
 31
0.0
  0
LINE
  5
826
  8
0
 10
176.75000000000219
 20
140.00000000000031
 30
0.0
 11
176.74999999999929
 21
80.0
 31
0.0
  0
LINE
  5
827
  8
0
 10
162.2500000000029
 20
139.99999999999989
 30
0.0
 11
162.2500000000002
 21
79.999999999999886
 31
0.0
  0
LINE
  5
828
  8
0
 10
167.5000000000019
 20
128.25000106208299
 30
0.0
 11
167.5000000000019
 21
133.75000106208299
 31
0.0
  0
LINE
  5
829
  8
0
 10
174.00000000000171
 20
128.2500000637493
 30
0.0
 11
174.00000000000171
 21
133.7500000637493
 31
0.0
  0
ARC
  5
82A
  8
0
 10
170.75000000000171
 20
128.24999999999949
 30
0.0
 40
3.2500000000000031
 50
179.99998127603041
 51
0.0000011238755098
  0
ARC
  5
82B
  8
0
 10
170.75000000000171
 20
133.74999999999949
 30
0.0
 40
3.25
 50
0.0000011238755098
 51
179.99998127603041
  0
LINE
  5
82C
  8
1
 10
177.00000000000171
 20
133.74999999999949
 30
0.0
 11
164.50000000000171
 21
133.74999999999949
 31
0.0
  0
LINE
  5
82D
  8
1
 10
170.75000000000171
 20
139.99999999999949
 30
0.0
 11
170.75000000000171
 21
121.9999999999995
 31
0.0
  0
LINE
  5
82E
  8
1
 10
177.00000000000171
 20
128.24999999999949
 30
0.0
 11
164.50000000000171
 21
128.24999999999949
 31
0.0
  0
LINE
  5
82F
  8
1
 10
177.00000000000171
 20
91.749999999999545
 30
0.0
 11
164.50000000000171
 21
91.749999999999545
 31
0.0
  0
LINE
  5
830
  8
1
 10
170.75000000000171
 20
79.999999999999545
 30
0.0
 11
170.75000000000171
 21
97.999999999999545
 31
0.0
  0
LINE
  5
831
  8
1
 10
177.00000000000171
 20
86.249999999999545
 30
0.0
 11
164.50000000000171
 21
86.249999999999545
 31
0.0
  0
ARC
  5
832
  8
0
 10
170.75000000000171
 20
86.249999999999545
 30
0.0
 40
3.25
 50
180.00001872396959
 51
359.99999887612449
  0
ARC
  5
833
  8
0
 10
170.75000000000171
 20
91.749999999999545
 30
0.0
 40
3.2500000000000031
 50
359.99999887612449
 51
180.00001872396959
  0
LINE
  5
834
  8
0
 10
174.00000000000171
 20
91.749999936249765
 30
0.0
 11
174.00000000000171
 21
86.249999936249765
 31
0.0
  0
LINE
  5
835
  8
0
 10
167.5000000000019
 20
91.749998937916075
 30
0.0
 11
167.5000000000019
 21
86.249998937916075
 31
0.0
  0
LINE
  5
836
  8
0
 10
282.49999999999818
 20
91.749998937916914
 30
0.0
 11
282.49999999999818
 21
86.249998937916928
 31
0.0
  0
LINE
  5
837
  8
0
 10
275.99999999999829
 20
91.749999936250617
 30
0.0
 11
275.99999999999829
 21
86.249999936250617
 31
0.0
  0
ARC
  5
838
  8
0
 10
279.24999999999829
 20
91.750000000000384
 30
0.0
 40
3.2500000000000031
 50
359.99998127603038
 51
180.00000112387551
  0
ARC
  5
839
  8
0
 10
279.24999999999829
 20
86.250000000000398
 30
0.0
 40
3.25
 50
180.00000112387551
 51
359.99998127603038
  0
LINE
  5
83A
  8
1
 10
272.99999999999829
 20
86.250000000000398
 30
0.0
 11
285.49999999999829
 21
86.250000000000398
 31
0.0
  0
LINE
  5
83B
  8
1
 10
279.24999999999829
 20
80.000000000000398
 30
0.0
 11
279.24999999999829
 21
98.000000000000384
 31
0.0
  0
LINE
  5
83C
  8
1
 10
272.99999999999829
 20
91.750000000000384
 30
0.0
 11
285.49999999999829
 21
91.750000000000384
 31
0.0
  0
LINE
  5
83D
  8
1
 10
272.99999999999829
 20
128.2500000000004
 30
0.0
 11
285.49999999999829
 21
128.2500000000004
 31
0.0
  0
LINE
  5
83E
  8
1
 10
279.24999999999829
 20
140.0000000000004
 30
0.0
 11
279.24999999999829
 21
122.0000000000004
 31
0.0
  0
LINE
  5
83F
  8
1
 10
272.99999999999829
 20
133.7500000000004
 30
0.0
 11
285.49999999999829
 21
133.7500000000004
 31
0.0
  0
ARC
  5
840
  8
0
 10
279.24999999999829
 20
133.7500000000004
 30
0.0
 40
3.25
 50
0.0000187239695813
 51
179.99999887612449
  0
ARC
  5
841
  8
0
 10
279.24999999999829
 20
128.2500000000004
 30
0.0
 40
3.2500000000000031
 50
179.99999887612449
 51
0.0000187239695813
  0
LINE
  5
842
  8
0
 10
275.99999999999829
 20
128.25000006375021
 30
0.0
 11
275.99999999999829
 21
133.75000006375009
 31
0.0
  0
LINE
  5
843
  8
0
 10
282.49999999999812
 20
128.25000106208381
 30
0.0
 11
282.49999999999812
 21
133.7500010620839
 31
0.0
  0
LINE
  5
844
  8
0
 10
287.74999999999932
 20
92.500000000000398
 30
0.0
 11
287.74999999999989
 21
80.000000000000739
 31
0.0
  0
LINE
  5
845
  8
0
 10
287.74999999999682
 20
140.00000000000071
 30
0.0
 11
287.7499999999975
 21
127.50000000000119
 31
0.0
  0
LINE
  5
846
  8
0
 10
273.2499999999979
 20
140.00000000000119
 30
0.0
 11
273.25000000000068
 21
80.000000000000853
 31
0.0
  0
LINE
  5
847
  8
0
 10
287.74999999999682
 20
140.00000000000071
 30
0.0
 11
273.2499999999979
 21
140.00000000000119
 31
0.0
  0
LINE
  5
848
  8
0
 10
287.74999999999989
 20
80.000000000000739
 30
0.0
 11
273.25000000000068
 21
80.000000000000853
 31
0.0
  0
LINE
  5
849
  8
0
 10
302.99999999999898
 20
80.000000000001194
 30
0.0
 11
302.99999999999898
 21
77.500000000000853
 31
0.0
  0
LINE
  5
84A
  8
1
 10
300.49999999999949
 20
67.000000000000853
 30
0.0
 11
300.50000000000028
 21
140.0000000000008
 31
0.0
  0
LINE
  5
84B
  8
1
 10
296.42350474806341
 20
145.3125920445907
 30
0.0
 11
283.75555630283031
 21
148.70695860025
 31
0.0
  0
LINE
  5
84C
  8
0
 10
302.99999999999977
 20
74.000000000000853
 30
0.0
 11
302.99999999999972
 21
76.000000000000853
 31
0.0
  0
LINE
  5
84D
  8
0
 10
298.00000000000028
 20
80.000000000001194
 30
0.0
 11
298.00000000000028
 21
77.500000000000853
 31
0.0
  0
LINE
  5
84E
  8
0
 10
301.84529946161979
 20
72.000000000000853
 30
0.0
 11
299.15470053837947
 21
72.000000000000853
 31
0.0
  0
LINE
  5
84F
  8
0
 10
302.99999999999972
 20
76.000000000000853
 30
0.0
 11
298.00000000000028
 21
76.000000000000853
 31
0.0
  0
LINE
  5
850
  8
0
 10
302.99999999999972
 20
77.500000000000853
 30
0.0
 11
298.00000000000028
 21
77.500000000000853
 31
0.0
  0
LINE
  5
851
  8
0
 10
298.50000000000028
 20
77.500000000000853
 30
0.0
 11
298.50000000000028
 21
76.000000000000853
 31
0.0
  0
LINE
  5
852
  8
0
 10
302.49999999999972
 20
76.000000000000853
 30
0.0
 11
302.49999999999972
 21
77.500000000000853
 31
0.0
  0
LINE
  5
853
  8
0
 10
298.00000000000028
 20
76.000000000000853
 30
0.0
 11
298.00000000000023
 21
74.000000000000853
 31
0.0
  0
LINE
  5
854
  8
0
 10
302.99999999999977
 20
74.000000000000853
 30
0.0
 11
298.00000000000023
 21
74.000000000000853
 31
0.0
  0
LINE
  5
855
  8
0
 10
298.00000000000023
 20
74.000000000000853
 30
0.0
 11
299.15470053837947
 21
72.000000000000853
 31
0.0
  0
LINE
  5
856
  8
0
 10
302.99999999999909
 20
74.000000000000853
 30
0.0
 11
301.84529946161979
 21
72.000000000000853
 31
0.0
  0
LINE
  5
857
  8
2
 10
302.99999999999972
 20
92.500000000000512
 30
0.0
 11
302.99999999999949
 21
127.5000000000008
 31
0.0
  0
LINE
  5
858
  8
2
 10
298.00000000000028
 20
92.500000000000284
 30
0.0
 11
298.00000000000023
 21
127.5000000000008
 31
0.0
  0
LINE
  5
859
  8
2
 10
302.99999999999949
 20
128.0000000000006
 30
0.0
 11
302.99999999999949
 21
140.0000000000008
 31
0.0
  0
LINE
  5
85A
  8
2
 10
298.00000000000023
 20
128.0000000000004
 30
0.0
 11
298.00000000000023
 21
140.0000000000008
 31
0.0
  0
LINE
  5
85B
  8
2
 10
298.00000000000028
 20
92.000000000001194
 30
0.0
 11
298.00000000000028
 21
80.000000000000853
 31
0.0
  0
LINE
  5
85C
  8
2
 10
302.99999999999972
 20
92.000000000001066
 30
0.0
 11
302.99999999999972
 21
80.000000000000853
 31
0.0
  0
LINE
  5
85D
  8
0
 10
302.99999999999949
 20
127.5000000000008
 30
0.0
 11
302.99999999999949
 21
128.0000000000008
 31
0.0
  0
LINE
  5
85E
  8
0
 10
305.7499999999996
 20
140.00000000000071
 30
0.0
 11
295.2499999999996
 21
140.00000000000091
 31
0.0
  0
LINE
  5
85F
  8
0
 10
305.7499999999996
 20
80.000000000000853
 30
0.0
 11
305.7499999999996
 21
140.00000000000071
 31
0.0
  0
LINE
  5
860
  8
0
 10
302.99999999999972
 20
92.000000000000867
 30
0.0
 11
302.99999999999972
 21
92.500000000000739
 31
0.0
  0
LINE
  5
861
  8
2
 10
285.7499999999996
 20
92.50000000000108
 30
0.0
 11
285.7499999999996
 21
127.50000000000109
 31
0.0
  0
LINE
  5
862
  8
0
 10
283.2499999999996
 20
92.500000000000398
 30
0.0
 11
283.2499999999996
 21
127.50000000000119
 31
0.0
  0
LINE
  5
863
  8
0
 10
305.74999999999881
 20
80.000000000000739
 30
0.0
 11
295.24999999999972
 21
80.000000000000853
 31
0.0
  0
LINE
  5
864
  8
0
 10
305.7499999999996
 20
128.0000000000008
 30
0.0
 11
295.2499999999996
 21
128.00000000000099
 31
0.0
  0
LINE
  5
865
  8
0
 10
305.7499999999996
 20
92.000000000000725
 30
0.0
 11
295.24999999999972
 21
92.000000000000966
 31
0.0
  0
LINE
  5
866
  8
0
 10
305.7499999999996
 20
127.5000000000008
 30
0.0
 11
283.24999999999937
 21
127.50000000000119
 31
0.0
  0
LINE
  5
867
  8
0
 10
305.7499999999996
 20
92.500000000000739
 30
0.0
 11
283.24999999999937
 21
92.500000000000512
 31
0.0
  0
LINE
  5
868
  8
0
 10
295.24999999999972
 20
80.000000000000966
 30
0.0
 11
295.24999999999972
 21
92.000000000000966
 31
0.0
  0
LINE
  5
869
  8
0
 10
295.2499999999996
 20
140.00000000000071
 30
0.0
 11
295.2499999999996
 21
128.0000000000006
 31
0.0
  0
LINE
  5
86A
  8
1
 10
267.49999999999937
 20
110.0000000000003
 30
0.0
 11
310.2499999999996
 21
110.0000000000008
 31
0.0
  0
LINE
  5
86B
  8
0
 10
298.00000000000023
 20
128.00000000000099
 30
0.0
 11
298.00000000000023
 21
127.5000000000008
 31
0.0
  0
LINE
  5
86C
  8
0
 10
298.00000000000028
 20
92.000000000000625
 30
0.0
 11
298.00000000000028
 21
92.500000000000625
 31
0.0
  0
LINE
  5
86D
  8
1
 10
149.5
 20
199.75
 30
0.0
 11
149.5
 21
183.25
 31
0.0
  0
LINE
  5
86E
  8
1
 10
164.99999999999909
 20
191.5
 30
0.0
 11
141.25000000000011
 21
191.5
 31
0.0
  0
LINE
  5
86F
  8
0
 10
176.75
 20
179.75
 30
0.0
 11
162.2500000000002
 21
179.74999999999989
 31
0.0
  0
LINE
  5
870
  8
0
 10
162.25000000000011
 20
179.75
 30
0.0
 11
162.2499999999998
 21
177.25
 31
0.0
  0
LINE
  5
871
  8
0
 10
176.75
 20
177.25
 30
0.0
 11
162.2499999999998
 21
177.24999999999989
 31
0.0
  0
LINE
  5
872
  8
0
 10
176.75
 20
179.75000000000011
 30
0.0
 11
176.75
 21
177.25
 31
0.0
  0
LINE
  5
873
  8
2
 10
147.00000000000031
 20
186.74999999999989
 30
0.0
 11
144.2500000000002
 21
186.75
 31
0.0
  0
ARC
  5
874
  8
2
 10
149.5
 20
191.5
 30
0.0
 40
5.25
 50
180.00000000000159
 51
241.5631098511447
  0
ARC
  5
875
  8
0
 10
149.5
 20
191.5
 30
0.0
 40
2.75
 50
204.6199773286593
 51
241.56310985114391
  0
ARC
  5
876
  8
2
 10
149.5
 20
191.5
 30
0.0
 40
2.75
 50
241.56310985114391
 51
31.588135505107061
  0
LINE
  5
877
  8
2
 10
151.8425474049736
 20
192.94047619045489
 30
0.0
 11
153.9721359550158
 21
194.25
 31
0.0
  0
LINE
  5
878
  8
0
 10
153.97213595498991
 20
194.25
 30
0.0
 11
162.7845962238739
 21
194.24999999999969
 31
0.0
  0
ARC
  5
879
  8
2
 10
149.5
 20
191.5
 30
0.0
 40
2.75
 50
90.0
 51
204.6199773286593
  0
LINE
  5
87A
  8
2
 10
153.97213595498991
 20
194.25
 30
0.0
 11
149.5
 21
194.25
 31
0.0
  0
LINE
  5
87B
  8
0
 10
147.0
 20
186.88345367184519
 30
0.0
 11
148.3095238095124
 21
189.30164460561949
 31
0.0
  0
LINE
  5
87C
  8
0
 10
147.0
 20
191.5
 30
0.0
 11
147.0
 21
181.75
 31
0.0
  0
LINE
  5
87D
  8
0
 10
144.24999999999989
 20
191.5
 30
0.0
 11
144.24999999999989
 21
181.75
 31
0.0
  0
LINE
  5
87E
  8
0
 10
147.0
 20
181.74999999999989
 30
0.0
 11
144.24999999999989
 21
181.75
 31
0.0
  0
LINE
  5
87F
  8
0
 10
162.7845962238739
 20
196.75
 30
0.0
 11
149.5
 21
196.75
 31
0.0
  0
ARC
  5
880
  8
0
 10
149.5
 20
191.5
 30
0.0
 40
5.25
 50
241.5631098511447
 51
331.5631098511443
  0
ARC
  5
881
  8
0
 10
149.5
 20
191.5
 30
0.0
 40
2.5
 50
90.0
 51
270.0
  0
ARC
  5
882
  8
2
 10
149.5
 20
191.5
 30
0.0
 40
2.5
 50
270.0
 51
90.0
  0
ARC
  5
883
  8
0
 10
149.5
 20
191.5
 30
0.0
 40
5.25
 50
28.436890148855699
 51
180.00000000000159
  0
ARC
  5
884
  8
2
 10
149.5
 20
191.5
 30
0.0
 40
5.2499999999999929
 50
331.5631098511443
 51
28.436890148855699
  0
ARC
  5
885
  8
0
 10
166.2500000000029
 20
181.24999999999989
 30
0.0
 40
4.0
 50
170.79660761244469
 51
202.02431283704209
  0
LINE
  5
886
  8
0
 10
164.26528657914011
 20
192.5100915344934
 30
0.0
 11
162.3014923859597
 21
181.88975590801689
 31
0.0
  0
LINE
  5
887
  8
0
 10
166.73310383791721
 20
192.11024409198311
 30
0.0
 11
164.76930964473669
 21
181.48990846550629
 31
0.0
  0
ARC
  5
888
  8
0
 10
162.7845962238739
 20
192.7499999999998
 30
0.0
 40
1.5
 50
350.79664575244777
 51
89.999999999998366
  0
ARC
  5
889
  8
0
 10
166.2500000000029
 20
181.24999999999989
 30
0.0
 40
1.5
 50
170.7966457524478
 51
270.0000000000008
  0
ARC
  5
88A
  8
0
 10
162.7845962238739
 20
192.75
 30
0.0
 40
4.0
 50
350.79664575244777
 51
90.0
  0
ARC
  5
88B
  8
2
 10
166.2500000000029
 20
181.24999999999989
 30
0.0
 40
4.0000000000000151
 50
202.02431283704209
 51
270.0000273207566
  0
ARC
  5
895
  8
1
 10
294.99999999999949
 20
140.0000000000008
 30
0.0
 40
5.5
 50
0.0
 51
74.999999999998849
  0
ARC
  5
896
  8
0
 10
295.00000000000023
 20
139.99999999999989
 30
0.0
 40
3.0
 50
0.0
 51
74.999999999998849
  0
ARC
  5
897
  8
0
 10
295.00000000000023
 20
139.99999999999989
 30
0.0
 40
8.0
 50
0.0
 51
74.999999999998849
  0
LINE
  5
898
  8
0
 10
291.16408469961192
 20
149.31003985025359
 30
0.0
 11
297.07055236082039
 21
147.72740661031261
 31
0.0
  0
LINE
  5
899
  8
0
 10
291.16408469961192
 20
149.3100398502533
 30
0.0
 11
288.93337455631098
 21
148.7123228688078
 31
0.0
  0
LINE
  5
89A
  8
0
 10
289.86998947409961
 20
144.480410718809
 30
0.0
 11
288.23699631224412
 21
146.11340388066449
 31
0.0
  0
LINE
  5
89B
  8
0
 10
291.16408469961209
 20
149.3100398502539
 30
0.0
 11
289.86998947409961
 21
144.480410718809
 31
0.0
  0
LINE
  5
89C
  8
0
 10
288.93337455631098
 20
148.7123228688078
 30
0.0
 11
288.23699631224412
 21
146.11340388066449
 31
0.0
  0
LINE
  5
89D
  8
0
 10
295.77645713530791
 20
142.89777747886779
 30
0.0
 11
289.86998947409961
 21
144.4804107188092
 31
0.0
  0
ARC
  5
89E
  8
1
 10
155.00000000000119
 20
140.0
 30
0.0
 40
5.5
 50
105.00000000000109
 51
180.0
  0
ARC
  5
89F
  8
0
 10
155.00000000000119
 20
140.0000000000002
 30
0.0
 40
3.0
 50
105.00000000000109
 51
179.99999999999841
  0
ARC
  5
8A0
  8
0
 10
155.00000000000119
 20
140.0000000000002
 30
0.0
 40
8.0
 50
105.00000000000109
 51
180.0
  0
LINE
  5
8A1
  8
0
 10
158.83591530038939
 20
149.31003985025399
 30
0.0
 11
152.92944763918101
 21
147.72740661031281
 31
0.0
  0
LINE
  5
8A2
  8
0
 10
158.83591530038959
 20
149.31003985025359
 30
0.0
 11
161.06662544369041
 21
148.71232286880809
 31
0.0
  0
LINE
  5
8A3
  8
0
 10
160.13001052590189
 20
144.48041071880931
 30
0.0
 11
161.7630036877573
 21
146.11340388066481
 31
0.0
  0
LINE
  5
8A4
  8
0
 10
158.83591530038939
 20
149.31003985025421
 30
0.0
 11
160.13001052590189
 21
144.48041071880931
 31
0.0
  0
LINE
  5
8A5
  8
0
 10
161.06662544369041
 20
148.71232286880809
 30
0.0
 11
161.7630036877573
 21
146.11340388066481
 31
0.0
  0
LINE
  5
8A6
  8
0
 10
154.2235428646934
 20
142.89777747886799
 30
0.0
 11
160.13001052590181
 21
144.4804107188094
 31
0.0
  0
LINE
  5
8B0
  8
0
 10
159.48296291314591
 20
194.0
 30
0.0
 11
149.5
 21
194.0
 31
0.0
  0
LINE
  5
8B1
  8
0
 10
149.5
 20
189.0
 30
0.0
 11
159.48296291314591
 21
189.0
 31
0.0
  0
POLYLINE
  5
8B2
  8
0
 66
     1
 10
0.0
 20
0.0
 30
0.0
 70
     1
  0
VERTEX
  5
8B3
  8
0
 10
161.06662544369041
 20
191.5
 30
0.0
 42
0.0267059595217567
  0
VERTEX
  5
8B4
  8
0
 10
161.09620870344699
 20
190.9465250217485
 30
0.0
 42
0.0366321501544364
  0
VERTEX
  5
8B5
  8
0
 10
161.16860767639861
 20
190.54872962796179
 30
0.0
 42
0.076454920189815
 70
     2
 50
284.51081869907
  0
VERTEX
  5
8B6
  8
0
 10
161.31389586713971
 20
190.21064186788271
 30
0.0
 42
0.2586223613555513
 50
284.51081869907
  0
VERTEX
  5
8B7
  8
0
 10
161.4148145657239
 20
190.1547005383799
 30
0.0
 42
0.2586223613556662
  0
VERTEX
  5
8B8
  8
0
 10
161.51573326430801
 20
190.2106418678828
 30
0.0
 42
0.0764549201898302
  0
VERTEX
  5
8B9
  8
0
 10
161.66102145504911
 20
190.54872962796179
 30
0.0
 42
0.0366321501544302
 70
     2
 50
75.489181300930014
  0
VERTEX
  5
8BA
  8
0
 10
161.73342042800061
 20
190.94652502174819
 30
0.0
 42
0.0267059595217916
 50
75.489181300930014
  0
VERTEX
  5
8BB
  8
0
 10
161.7630036877573
 20
191.5
 30
0.0
 42
0.0267059595218035
  0
VERTEX
  5
8BC
  8
0
 10
161.73342042800061
 20
192.0534749782521
 30
0.0
 42
0.0366321501544011
  0
VERTEX
  5
8BD
  8
0
 10
161.66102145504911
 20
192.45127037203821
 30
0.0
 42
0.0764549201898666
 70
     2
 50
104.5108186990699
  0
VERTEX
  5
8BE
  8
0
 10
161.51573326430801
 20
192.7893581321172
 30
0.0
 42
0.2586223613557299
 50
104.5108186990699
  0
VERTEX
  5
8BF
  8
0
 10
161.4148145657239
 20
192.84529946162019
 30
0.0
 42
0.2586223613554363
  0
VERTEX
  5
8C0
  8
0
 10
161.31389586713971
 20
192.78935813211729
 30
0.0
 42
0.0764549201897995
  0
VERTEX
  5
8C1
  8
0
 10
161.16860767639861
 20
192.45127037203821
 30
0.0
 42
0.0366321501544176
 70
     2
 50
255.48918130093
  0
VERTEX
  5
8C2
  8
0
 10
161.09620870344699
 20
192.05347497825181
 30
0.0
 42
0.0267059595217888
 50
255.48918130093
  0
SEQEND
  5
8C3
  8
0
  0
POLYLINE
  5
8C4
  8
0
 66
     1
 10
0.0
 20
0.0
 30
0.0
  0
VERTEX
  5
8C5
  8
0
 10
159.48296291314591
 20
194.0
 30
0.0
 42
0.2586223613556137
  0
VERTEX
  5
8C6
  8
0
 10
159.2954234443078
 20
193.89604297946499
 30
0.0
 42
0.0764549201898447
  0
VERTEX
  5
8C7
  8
0
 10
159.0254311584153
 20
193.26776695296641
 30
0.0
 42
0.0366321501544131
 70
     2
 50
255.48918130092889
  0
VERTEX
  5
8C8
  8
0
 10
158.89089053192839
 20
192.5285348988121
 30
0.0
 42
0.0267059595217693
 50
255.48918130092889
  0
VERTEX
  5
8C9
  8
0
 10
158.83591530038959
 20
191.5
 30
0.0
 42
0.0267059595217787
  0
VERTEX
  5
8CA
  8
0
 10
158.89089053192839
 20
190.4714651011877
 30
0.0
 42
0.0366321501544112
  0
VERTEX
  5
8CB
  8
0
 10
159.0254311584153
 20
189.7322330470337
 30
0.0
 42
0.0764549201898614
 70
     2
 50
284.51081869907108
  0
VERTEX
  5
8CC
  8
0
 10
159.2954234443078
 20
189.10395702053501
 30
0.0
 42
0.2586223613557374
 50
284.51081869907108
  0
VERTEX
  5
8CD
  8
0
 10
159.48296291314591
 20
189.0
 30
0.0
 42
0.2586223613555518
  0
SEQEND
  5
8CE
  8
0
  0
LINE
  5
8CF
  8
0
 10
159.48296291314591
 20
194.0
 30
0.0
 11
161.4148145657239
 21
192.84529946162019
 31
0.0
  0
LINE
  5
8D0
  8
0
 10
161.4148145657239
 20
190.1547005383799
 30
0.0
 11
159.48296291314591
 21
189.0
 31
0.0
  0
LINE
  5
9DE
  8
0
 10
87.500000000000227
 20
146.8766933258232
 30
0.0
 11
87.500000000000227
 21
140.00000000000011
 31
0.0
  0
LINE
  5
9DF
  8
0
 10
92.499999999999602
 20
146.87669332592051
 30
0.0
 11
92.499999999999602
 21
140.0
 31
0.0
  0
LINE
  5
9E0
  8
0
 10
227.49999999999949
 20
146.89522528453199
 30
0.0
 11
227.49999999999949
 21
140.0
 31
0.0
  0
LINE
  5
9E1
  8
0
 10
232.49999999999889
 20
146.89522528453199
 30
0.0
 11
232.49999999999889
 21
139.99999999999989
 31
0.0
  0
POLYLINE
  5
9E2
  8
0
 66
     1
 10
0.0
 20
0.0
 30
0.0
 70
   128
  0
VERTEX
  5
A7D
  8
0
 10
229.99999999999949
 20
144.48041071880829
 30
0.0
  0
VERTEX
  5
A7E
  8
0
 10
230.5197792270439
 20
144.53318021085229
 30
0.0
  0
VERTEX
  5
A7F
  8
0
 10
231.01684160768889
 20
144.68918240696581
 30
0.0
  0
VERTEX
  5
A80
  8
0
 10
231.46946313073079
 20
144.94159926259721
 30
0.0
  0
VERTEX
  5
A81
  8
0
 10
231.85786206369289
 20
145.27939894992471
 30
0.0
  0
VERTEX
  5
A82
  8
0
 10
232.16506350946059
 20
145.6878180016696
 30
0.0
  0
VERTEX
  5
A83
  8
0
 10
232.37764129073739
 20
146.14900654545849
 30
0.0
  0
VERTEX
  5
A84
  8
0
 10
232.48630473842019
 20
146.6428084288996
 30
0.0
  0
VERTEX
  5
A85
  8
0
 10
232.48630473842019
 20
147.1476421401623
 30
0.0
  0
VERTEX
  5
A86
  8
0
 10
232.37764129073739
 20
147.64144402360341
 30
0.0
  0
VERTEX
  5
A87
  8
0
 10
232.16506350946059
 20
148.10263256739231
 30
0.0
  0
VERTEX
  5
A88
  8
0
 10
231.85786206369289
 20
148.51105161913711
 30
0.0
  0
VERTEX
  5
A89
  8
0
 10
231.46946313073059
 20
148.84885130646481
 30
0.0
  0
VERTEX
  5
A8A
  8
0
 10
231.01684160768889
 20
149.10126816209609
 30
0.0
  0
VERTEX
  5
A8B
  8
0
 10
230.5197792270439
 20
149.25727035820961
 30
0.0
  0
VERTEX
  5
A8C
  8
0
 10
229.99999999999949
 20
149.31003985025359
 30
0.0
  0
VERTEX
  5
A8D
  8
0
 10
229.48022077295511
 20
149.25727035820961
 30
0.0
  0
VERTEX
  5
A8E
  8
0
 10
228.98315839230989
 20
149.10126816209609
 30
0.0
  0
VERTEX
  5
A8F
  8
0
 10
228.53053686926819
 20
148.8488513064647
 30
0.0
  0
VERTEX
  5
A90
  8
0
 10
228.14213793630589
 20
148.51105161913711
 30
0.0
  0
VERTEX
  5
A91
  8
0
 10
227.83493649053841
 20
148.10263256739231
 30
0.0
  0
VERTEX
  5
A92
  8
0
 10
227.62235870926159
 20
147.64144402360341
 30
0.0
  0
VERTEX
  5
A93
  8
0
 10
227.51369526157879
 20
147.1476421401623
 30
0.0
  0
VERTEX
  5
A94
  8
0
 10
227.51369526157879
 20
146.6428084288996
 30
0.0
  0
VERTEX
  5
A95
  8
0
 10
227.62235870926159
 20
146.14900654545841
 30
0.0
  0
VERTEX
  5
A96
  8
0
 10
227.83493649053841
 20
145.6878180016696
 30
0.0
  0
VERTEX
  5
A97
  8
0
 10
228.142137936306
 20
145.27939894992471
 30
0.0
  0
VERTEX
  5
A98
  8
0
 10
228.53053686926839
 20
144.94159926259721
 30
0.0
  0
VERTEX
  5
A99
  8
0
 10
228.98315839231
 20
144.68918240696581
 30
0.0
  0
VERTEX
  5
A9A
  8
0
 10
229.48022077295519
 20
144.53318021085229
 30
0.0
  0
VERTEX
  5
A9B
  8
0
 10
229.99999999999949
 20
144.48041071880829
 30
0.0
  0
SEQEND
  5
A9C
  8
0
  0
POLYLINE
  5
9E3
  8
0
 66
     1
 10
0.0
 20
0.0
 30
0.0
 70
   128
  0
VERTEX
  5
A9D
  8
0
 10
229.99999999999949
 20
148.71232338884269
 30
0.0
  0
VERTEX
  5
A9E
  8
0
 10
230.37901480871821
 20
148.6596861277643
 30
0.0
  0
VERTEX
  5
A9F
  8
0
 10
230.72732409172249
 20
148.5060387023762
 30
0.0
  0
VERTEX
  5
AA0
  8
0
 10
231.0167099023783
 20
148.26382871330651
 30
0.0
  0
VERTEX
  5
AA1
  8
0
 10
231.22372792334991
 20
147.95267857339161
 30
0.0
  0
VERTEX
  5
AA2
  8
0
 10
231.33160678576189
 20
147.59779581648621
 30
0.0
  0
VERTEX
  5
AA3
  8
0
 10
231.33160678576189
 20
147.22793093298591
 30
0.0
  0
VERTEX
  5
AA4
  8
0
 10
231.22372792334991
 20
146.87304817608049
 30
0.0
  0
VERTEX
  5
AA5
  8
0
 10
231.0167099023783
 20
146.56189803616559
 30
0.0
  0
VERTEX
  5
AA6
  8
0
 10
230.72732409172249
 20
146.31968804709589
 30
0.0
  0
VERTEX
  5
AA7
  8
0
 10
230.37901480871821
 20
146.16604062170771
 30
0.0
  0
VERTEX
  5
AA8
  8
0
 10
229.99999999999949
 20
146.11340336062929
 30
0.0
  0
VERTEX
  5
AA9
  8
0
 10
229.62098519128071
 20
146.16604062170771
 30
0.0
  0
VERTEX
  5
AAA
  8
0
 10
229.2726759082764
 20
146.31968804709589
 30
0.0
  0
VERTEX
  5
AAB
  8
0
 10
228.98329009762071
 20
146.56189803616559
 30
0.0
  0
VERTEX
  5
AAC
  8
0
 10
228.77627207664901
 20
146.87304817608049
 30
0.0
  0
VERTEX
  5
AAD
  8
0
 10
228.668393214237
 20
147.22793093298591
 30
0.0
  0
VERTEX
  5
AAE
  8
0
 10
228.668393214237
 20
147.59779581648621
 30
0.0
  0
VERTEX
  5
AAF
  8
0
 10
228.77627207664901
 20
147.95267857339161
 30
0.0
  0
VERTEX
  5
AB0
  8
0
 10
228.98329009762071
 20
148.26382871330651
 30
0.0
  0
VERTEX
  5
AB1
  8
0
 10
229.2726759082764
 20
148.5060387023762
 30
0.0
  0
VERTEX
  5
AB2
  8
0
 10
229.62098519128071
 20
148.6596861277643
 30
0.0
  0
VERTEX
  5
AB3
  8
0
 10
229.99999999999949
 20
148.71232338884269
 30
0.0
  0
SEQEND
  5
AB4
  8
0
  0
ARC
  5
9E4
  8
0
 10
90.000000000001222
 20
146.80912697455531
 30
0.0
 40
2.5009128756973218
 50
1.548129844611551
 51
178.4518701553819
  0
LINE
  5
9E5
  8
0
 10
227.51369526157879
 20
147.1476421401623
 30
0.0
 11
227.49999999999949
 21
146.89522528453199
 31
0.0
  0
LINE
  5
9E6
  8
0
 10
232.48630473842019
 20
147.1476421401623
 30
0.0
 11
232.49999999999889
 21
146.89522528453199
 31
0.0
  0
ENDSEC
  0
EOF
