  0
SECTION
  2
HEADER
  9
$ACADVER
  1
AC1009
  9
$INSBASE
 10
0.0
 20
0.0
 30
0.0
  9
$EXTMIN
 10
-0.0005
 20
-2.960436562073669
 30
0.0
  9
$EXTMAX
 10
160.5
 20
123.0
 30
0.0
  9
$LIMMIN
 10
0.0
 20
0.0
  9
$LIMMAX
 10
187.5
 20
135.0
  9
$ORTHOMODE
 70
     0
  9
$REGENMODE
 70
     1
  9
$FILLMODE
 70
     1
  9
$QTEXTMODE
 70
     0
  9
$MIRRTEXT
 70
     0
  9
$DRAGMODE
 70
     2
  9
$LTSCALE
 40
5.0
  9
$OSMODE
 70
  3071
  9
$ATTMODE
 70
     1
  9
$TEXTSIZE
 40
0.2
  9
$TRACEWID
 40
0.05
  9
$TEXTSTYLE
  7
STANDARD
  9
$CLAYER
  8
0
  9
$CELTYPE
  6
BYLAYER
  9
$CECOLOR
 62
   256
  9
$DIMSCALE
 40
0.5
  9
$DIMASZ
 40
3.0
  9
$DIMEXO
 40
2.0
  9
$DIMDLI
 40
0.38
  9
$DIMRND
 40
0.0
  9
$DIMDLE
 40
0.0
  9
$DIMEXE
 40
2.0
  9
$DIMTP
 40
0.0
  9
$DIMTM
 40
0.0
  9
$DIMTXT
 40
3.0
  9
$DIMCEN
 40
0.0
  9
$DIMTSZ
 40
0.0
  9
$DIMTOL
 70
     0
  9
$DIMLIM
 70
     0
  9
$DIMTIH
 70
     0
  9
$DIMTOH
 70
     0
  9
$DIMSE1
 70
     0
  9
$DIMSE2
 70
     0
  9
$DIMTAD
 70
     1
  9
$DIMZIN
 70
     0
  9
$DIMBLK
  1

  9
$DIMASO
 70
     1
  9
$DIMSHO
 70
     0
  9
$DIMPOST
  1

  9
$DIMAPOST
  1

  9
$DIMALT
 70
     0
  9
$DIMALTD
 70
     2
  9
$DIMALTF
 40
25.399999999999999
  9
$DIMLFAC
 40
1.0
  9
$DIMTOFL
 70
     1
  9
$DIMTVP
 40
1.6000000000000001
  9
$DIMTIX
 70
     1
  9
$DIMSOXD
 70
     0
  9
$DIMSAH
 70
     0
  9
$DIMBLK1
  1

  9
$DIMBLK2
  1

  9
$DIMSTYLE
  2
STANDARD
  9
$DIMCLRD
 70
     0
  9
$DIMCLRE
 70
     0
  9
$DIMCLRT
 70
     0
  9
$DIMTFAC
 40
1.0
  9
$DIMGAP
 40
0.09
  9
$LUNITS
 70
     2
  9
$LUPREC
 70
     4
  9
$SKETCHINC
 40
0.1
  9
$FILLETRAD
 40
0.0
  9
$AUNITS
 70
     0
  9
$AUPREC
 70
     4
  9
$MENU
  1
E:\r13\win\SUPPORT\ACAD
  9
$ELEVATION
 40
0.0
  9
$PELEVATION
 40
0.0
  9
$THICKNESS
 40
0.0
  9
$LIMCHECK
 70
     0
  9
$BLIPMODE
 70
     0
  9
$CHAMFERA
 40
0.0
  9
$CHAMFERB
 40
0.0
  9
$SKPOLY
 70
     0
  9
$TDCREATE
 40
2449839.7946412042
  9
$TDUPDATE
 40
2456598.5875955322
  9
$TDINDWG
 40
0.0153339815
  9
$TDUSRTIMER
 40
0.0153339815
  9
$USRTIMER
 70
     1
  9
$ANGBASE
 50
0.0
  9
$ANGDIR
 70
     0
  9
$PDMODE
 70
     0
  9
$PDSIZE
 40
0.0
  9
$PLINEWID
 40
0.0
  9
$COORDS
 70
     1
  9
$SPLFRAME
 70
     0
  9
$SPLINETYPE
 70
     6
  9
$SPLINESEGS
 70
     8
  9
$ATTDIA
 70
     0
  9
$ATTREQ
 70
     1
  9
$HANDLING
 70
     1
  9
$HANDSEED
  5
2B2
  9
$SURFTAB1
 70
     6
  9
$SURFTAB2
 70
     6
  9
$SURFTYPE
 70
     6
  9
$SURFU
 70
     6
  9
$SURFV
 70
     6
  9
$UCSNAME
  2

  9
$UCSORG
 10
0.0
 20
0.0
 30
0.0
  9
$UCSXDIR
 10
1.0
 20
0.0
 30
0.0
  9
$UCSYDIR
 10
0.0
 20
1.0
 30
0.0
  9
$PUCSNAME
  2

  9
$PUCSORG
 10
0.0
 20
0.0
 30
0.0
  9
$PUCSXDIR
 10
1.0
 20
0.0
 30
0.0
  9
$PUCSYDIR
 10
0.0
 20
1.0
 30
0.0
  9
$USERI1
 70
     0
  9
$USERI2
 70
     1
  9
$USERI3
 70
     1
  9
$USERI4
 70
     0
  9
$USERI5
 70
     0
  9
$USERR1
 40
0.0
  9
$USERR2
 40
0.0
  9
$USERR3
 40
0.0
  9
$USERR4
 40
0.0
  9
$USERR5
 40
0.0
  9
$WORLDVIEW
 70
     1
  9
$SHADEDGE
 70
     3
  9
$SHADEDIF
 70
    70
  9
$TILEMODE
 70
     1
  9
$MAXACTVP
 70
    16
  9
$PLIMCHECK
 70
     0
  9
$PEXTMIN
 10
1.0000000000000000E+020
 20
1.0000000000000000E+020
 30
1.0000000000000000E+020
  9
$PEXTMAX
 10
-1.0000000000000000E+020
 20
-1.0000000000000000E+020
 30
-1.0000000000000000E+020
  9
$PLIMMIN
 10
0.0
 20
0.0
  9
$PLIMMAX
 10
12.0
 20
9.0
  9
$UNITMODE
 70
     0
  9
$VISRETAIN
 70
     0
  9
$PLINEGEN
 70
     0
  9
$PSLTSCALE
 70
     0
  0
ENDSEC
  0
SECTION
  2
TABLES
  0
TABLE
  2
VPORT
 70
     1
  0
VPORT
  2
*ACTIVE
 70
     0
 10
0.0
 20
0.0
 11
1.0
 21
1.0
 12
97.569629527584027
 22
66.019680281628425
 13
0.0
 23
0.0
 14
5.0
 24
5.0
 15
5.0
 25
5.0
 16
0.0
 26
0.0
 36
1.0
 17
0.0
 27
0.0
 37
0.0
 40
139.19795458864209
 41
1.831871345029239
 42
50.0
 43
0.0
 44
0.0
 50
0.0
 51
0.0
 71
     0
 72
   500
 73
     1
 74
     0
 75
     0
 76
     0
 77
     0
 78
     2
  0
ENDTAB
  0
TABLE
  2
LTYPE
 70
     4
  0
LTYPE
  2
CONTINUOUS
 70
     0
  3
Solid Line
 72
    65
 73
     0
 40
0.0
  0
LTYPE
  2
CENTER
 70
     0
  3
____ _ ____ _ ____ _ ____ _ ____ _ ____ _ ____
 72
    65
 73
     4
 40
2.0
 49
1.25
 49
-0.25
 49
0.25
 49
-0.25
  0
LTYPE
  2
HIDDEN
 70
     0
  3
_ _ _ _ _ _ _ _ _ _ _ _ _ _ _ _ _ _ _ _ _ _ _
 72
    65
 73
     2
 40
0.375
 49
0.25
 49
-0.125
  0
LTYPE
  2
PHANTOM2
 70
     0
  3
___ _ _ ___ _ _ ___ _ _ ___ _ _
 72
    65
 73
     6
 40
1.25
 49
0.625
 49
-0.125
 49
0.125
 49
-0.125
 49
0.125
 49
-0.125
  0
ENDTAB
  0
TABLE
  2
LAYER
 70
     5
  0
LAYER
  2
0
 70
     0
 62
     7
  6
CONTINUOUS
  0
LAYER
  2
1
 70
     0
 62
     1
  6
CENTER
  0
LAYER
  2
2
 70
     0
 62
     2
  6
HIDDEN
  0
LAYER
  2
3
 70
     0
 62
     3
  6
CONTINUOUS
  0
LAYER
  2
ITTEN
 70
     0
 62
     1
  6
CENTER
  0
ENDTAB
  0
TABLE
  2
STYLE
 70
     2
  0
STYLE
  2
STANDARD
 70
     0
 40
0.0
 41
1.0
 50
0.0
 71
     0
 42
0.2
  3
TXT
  4
BIGFONT
  0
STYLE
  2
STANDARD1
 70
     0
 40
0.0
 41
1.0
 50
0.0
 71
     0
 42
3.0
  3
txt
  4

  0
ENDTAB
  0
TABLE
  2
VIEW
 70
     1
  0
VIEW
  2
ALL
 70
     0
 40
135.0
 10
110.4957983193277
 20
67.5
 41
0.0
 11
0.0
 21
0.0
 31
1.0
 12
0.0
 22
0.0
 32
0.0
 42
0.0
 43
0.0
 44
0.0
 50
0.0
 71
     0
  0
ENDTAB
  0
TABLE
  2
UCS
 70
     0
  0
ENDTAB
  0
TABLE
  2
APPID
 70
     3
  0
APPID
  2
ACAD
 70
     0
  0
APPID
  2
ACAD_MLEADERVER
 70
     0
  0
APPID
  2
ACAD_NAV_VCDISPLAY
 70
     0
  0
ENDTAB
  0
TABLE
  2
DIMSTYLE
 70
     1
  0
DIMSTYLE
  2
STANDARD
 70
     0
  3

  4

  5

  6

  7

 40
1.0
 41
0.18
 42
0.0625
 43
0.38
 44
0.18
 45
0.0
 46
0.0
 47
0.0
 48
0.0
140
0.18
141
0.09
142
0.0
143
25.399999999999999
144
1.0
145
0.0
146
1.0
147
0.09
 71
     0
 72
     0
 73
     1
 74
     1
 75
     0
 76
     0
 77
     0
 78
     0
170
     0
171
     2
172
     0
173
     0
174
     0
175
     0
176
     0
177
     0
178
     0
  0
ENDTAB
  0
ENDSEC
  0
SECTION
  2
BLOCKS
  0
BLOCK
  8
0
  2
$MODEL_SPACE
 70
     0
 10
0.0
 20
0.0
 30
0.0
  3
$MODEL_SPACE
  1

  0
ENDBLK
  5
FF
  8
0
  0
BLOCK
 67
     1
  8
0
  2
$PAPER_SPACE
 70
     0
 10
0.0
 20
0.0
 30
0.0
  3
$PAPER_SPACE
  1

  0
ENDBLK
  5
FD
 67
     1
  8
0
  0
BLOCK
  8
0
  2
BATU
 70
     0
 10
0.0
 20
0.0
 30
0.0
  3
BATU
  1

  0
LINE
  5
10A
  8
ITTEN
 10
0.5
 20
0.0
 30
0.0
 11
-0.5
 21
0.0
 31
0.0
  0
LINE
  5
10B
  8
ITTEN
 10
0.0
 20
0.5
 30
0.0
 11
0.0
 21
-0.5
 31
0.0
  0
ENDBLK
  5
10D
  8
0
  0
ENDSEC
  0
SECTION
  2
ENTITIES
  0
CIRCLE
  5
3F
  8
0
 10
145.0
 20
70.0
 30
0.0
 40
7.4999999999999707
  0
CIRCLE
  5
40
  8
0
 10
145.0
 20
70.0
 30
0.0
 40
7.9999999999997442
  0
CIRCLE
  5
41
  8
3
 10
145.0
 20
70.0
 30
0.0
 40
9.3154999999999841
  0
CIRCLE
  5
42
  8
0
 10
145.0
 20
70.0
 30
0.0
 40
10.47749999999999
  0
CIRCLE
  5
43
  8
0
 10
145.0
 20
70.0
 30
0.0
 40
13.0
  0
LINE
  5
44
  8
0
 10
95.750000000000057
 20
83.0
 30
0.0
 11
95.750000000000057
 21
56.999999999999943
 31
0.0
  0
LINE
  5
45
  8
0
 10
95.750000000000014
 20
16.999999999999972
 30
0.0
 11
95.750000000000014
 21
43.000000000000028
 31
0.0
  0
LINE
  5
46
  8
0
 10
103.75
 20
79.315499999999957
 30
0.0
 11
104.75
 21
79.315499999999957
 31
0.0
  0
LINE
  5
47
  8
0
 10
103.75
 20
60.684499999999979
 30
0.0
 11
104.75
 21
60.684499999999979
 31
0.0
  0
LINE
  5
48
  8
0
 10
103.75
 20
59.522499999999951
 30
0.0
 11
103.75
 21
80.477499999999978
 31
0.0
  0
LINE
  5
49
  8
0
 10
92.749999999999986
 20
82.999999999999929
 30
0.0
 11
95.750000000000057
 21
82.999999999999915
 31
0.0
  0
LINE
  5
4A
  8
0
 10
92.749999999999986
 20
56.999999999999922
 30
0.0
 11
95.750000000000057
 21
56.999999999999922
 31
0.0
  0
LINE
  5
4B
  8
0
 10
92.75
 20
56.999999999999922
 30
0.0
 11
92.75
 21
82.999999999999915
 31
0.0
  0
LINE
  5
4C
  8
0
 10
94.25
 20
56.999999999999922
 30
0.0
 11
94.25
 21
82.999999999999915
 31
0.0
  0
LINE
  5
4D
  8
0
 10
95.750000000000057
 20
59.522499999999951
 30
0.0
 11
103.75
 21
59.522499999999951
 31
0.0
  0
LINE
  5
4E
  8
3
 10
95.750000000000057
 20
60.684499999999929
 30
0.0
 11
103.75
 21
60.684500000000021
 31
0.0
  0
LINE
  5
4F
  8
0
 10
95.750000000000057
 20
80.477499999999978
 30
0.0
 11
103.75
 21
80.477499999999978
 31
0.0
  0
LINE
  5
50
  8
3
 10
95.750000000000057
 20
79.315499999999986
 30
0.0
 11
103.75
 21
79.315499999999943
 31
0.0
  0
LINE
  5
51
  8
0
 10
104.75
 20
60.684499999999979
 30
0.0
 11
104.75
 21
79.315499999999957
 31
0.0
  0
LINE
  5
52
  8
0
 10
88.701705917005711
 20
57.298294082994119
 30
0.0
 11
92.75
 21
57.298294082994147
 31
0.0
  0
LINE
  5
53
  8
0
 10
88.701705917005711
 20
63.649147044081559
 30
0.0
 11
92.75
 21
63.649147044081559
 31
0.0
  0
LINE
  5
54
  8
0
 10
88.701705917005654
 20
76.350852955918313
 30
0.0
 11
92.75
 21
76.350852955918313
 31
0.0
  0
LINE
  5
55
  8
0
 10
88.701705917005654
 20
82.701705917005754
 30
0.0
 11
92.75
 21
82.701705917005754
 31
0.0
  0
LINE
  5
56
  8
0
 10
87.75
 20
58.249999999999943
 30
0.0
 11
87.75
 21
81.749999999999972
 31
0.0
  0
LINE
  5
57
  8
0
 10
87.75
 20
81.75
 30
0.0
 11
88.701705917005654
 21
82.701705917005711
 31
0.0
  0
LINE
  5
58
  8
0
 10
87.75
 20
77.460940466726356
 30
0.0
 11
88.701705917005654
 21
76.350852955918313
 31
0.0
  0
LINE
  5
59
  8
0
 10
87.75
 20
74.130677934308352
 30
0.0
 11
88.701705917005711
 21
76.350852955918356
 31
0.0
  0
LINE
  5
5A
  8
0
 10
87.75
 20
65.869322065691591
 30
0.0
 11
88.701705917005711
 21
63.649147044081587
 31
0.0
  0
LINE
  5
5B
  8
0
 10
87.75
 20
62.53905953327358
 30
0.0
 11
88.701705917005654
 21
63.649147044081609
 31
0.0
  0
LINE
  5
5C
  8
0
 10
87.75
 20
58.249999999999943
 30
0.0
 11
88.701705917005654
 21
57.298294082994232
 31
0.0
  0
ARC
  5
5D
  8
0
 10
87.75
 20
70.0
 30
0.0
 40
9.5
 50
89.999999999999986
 51
270.0
  0
LINE
  5
5E
  8
1
 10
75.25
 20
70.0
 30
0.0
 11
107.25
 21
70.0
 31
0.0
  0
LINE
  5
5F
  8
0
 10
103.75
 20
20.684500000000039
 30
0.0
 11
104.75
 21
20.684500000000039
 31
0.0
  0
LINE
  5
60
  8
0
 10
103.75
 20
39.315500000000007
 30
0.0
 11
104.75
 21
39.315500000000007
 31
0.0
  0
LINE
  5
61
  8
0
 10
103.75
 20
40.477500000000049
 30
0.0
 11
103.75
 21
19.522500000000012
 31
0.0
  0
LINE
  5
62
  8
0
 10
95.750000000000014
 20
40.477500000000049
 30
0.0
 11
103.75
 21
40.477500000000049
 31
0.0
  0
LINE
  5
63
  8
3
 10
95.750000000000014
 20
39.315500000000071
 30
0.0
 11
103.75
 21
39.3155
 31
0.0
  0
LINE
  5
64
  8
0
 10
95.750000000000014
 20
19.522500000000012
 30
0.0
 11
103.75
 21
19.522500000000012
 31
0.0
  0
LINE
  5
65
  8
3
 10
95.750000000000014
 20
20.684499999999989
 30
0.0
 11
103.75
 21
20.684500000000071
 31
0.0
  0
LINE
  5
66
  8
0
 10
104.75
 20
39.315500000000007
 30
0.0
 11
104.75
 21
20.684500000000039
 31
0.0
  0
LINE
  5
67
  8
1
 10
75.25
 20
30.0
 30
0.0
 11
107.25
 21
30.0
 31
0.0
  0
CIRCLE
  5
68
  8
2
 10
37.02637889688237
 20
70.000000000000028
 30
0.0
 40
7.5
  0
ARC
  5
69
  8
0
 10
87.249999999999986
 20
30.0
 30
0.0
 40
9.5
 50
90.0
 51
270.0
  0
LINE
  5
6A
  8
0
 10
87.250000000000057
 20
39.077272021488852
 30
0.0
 11
88.201705911828583
 21
40.999999991046877
 31
0.0
  0
LINE
  5
6B
  8
0
 10
87.249999999999986
 20
31.922727969552561
 30
0.0
 11
88.201705911828583
 21
30.0
 31
0.0
  0
LINE
  5
6C
  8
0
 10
87.249999999999986
 20
28.077272030447489
 30
0.0
 11
88.201705911828583
 21
30.00000000000005
 31
0.0
  0
LINE
  5
6D
  8
0
 10
87.250000000000057
 20
20.922727978511212
 30
0.0
 11
88.201705911828583
 21
19.00000000895318
 31
0.0
  0
ARC
  5
6E
  8
0
 10
37.026378896882392
 20
70.000000000000028
 30
0.0
 40
11.75
 50
200.58196933573339
 51
219.41803066431709
  0
ARC
  5
6F
  8
0
 10
37.02637889688237
 20
70.0
 30
0.0
 40
11.75
 50
140.58196933573331
 51
159.41803066431709
  0
ARC
  5
70
  8
0
 10
37.02637889688237
 20
70.000000000000028
 30
0.0
 40
11.75
 50
80.581969335733433
 51
99.418030664317115
  0
ARC
  5
71
  8
0
 10
37.02637889688237
 20
70.000000000000028
 30
0.0
 40
11.75
 50
20.581969335733401
 51
39.418030664317087
  0
ARC
  5
72
  8
0
 10
37.02637889688237
 20
70.000000000000028
 30
0.0
 40
11.75
 50
320.5819693357335
 51
339.4180306643172
  0
ARC
  5
73
  8
0
 10
37.02637889688237
 20
70.000000000000028
 30
0.0
 40
11.75
 50
260.58196933573339
 51
279.4180306643172
  0
LINE
  5
74
  8
0
 10
87.250000000000057
 20
19.000000008953212
 30
0.0
 11
87.249999999999986
 21
40.99999999104525
 31
0.0
  0
LINE
  5
75
  8
0
 10
92.249999999999986
 20
17.000000000000028
 30
0.0
 11
95.750000000000014
 21
17.000000000000028
 31
0.0
  0
LINE
  5
76
  8
0
 10
92.249999999999986
 20
43.000000000000028
 30
0.0
 11
95.750000000000014
 21
43.000000000000028
 31
0.0
  0
LINE
  5
77
  8
0
 10
94.25
 20
43.000000000000028
 30
0.0
 11
94.25
 21
17.000000000000028
 31
0.0
  0
LINE
  5
78
  8
0
 10
88.201705911828583
 20
30.000000000000028
 30
0.0
 11
92.249999999999986
 21
30.000000000000028
 31
0.0
  0
LINE
  5
79
  8
0
 10
87.249999999999986
 20
40.99999999104525
 30
0.0
 11
92.249999999999986
 21
40.99999999104525
 31
0.0
  0
LINE
  5
7A
  8
0
 10
92.249999999999986
 20
19.000000008953212
 30
0.0
 11
87.250000000000057
 21
19.000000008953212
 31
0.0
  0
LINE
  5
7B
  8
0
 10
92.249999999999986
 20
16.999999999999972
 30
0.0
 11
92.249999999999986
 21
43.000000000000028
 31
0.0
  0
CIRCLE
  5
7C
  8
0
 10
37.02637889688237
 20
70.000000000000028
 30
0.0
 40
9.5
  0
LINE
  5
7D
  8
0
 10
37.026378896881617
 20
82.701705911829464
 30
0.0
 11
48.026378896881617
 21
76.350852950745804
 31
0.0
  0
LINE
  5
7E
  8
0
 10
26.0263789058356
 20
76.350852955919351
 30
0.0
 11
37.0263789058356
 21
82.701705917006763
 31
0.0
  0
LINE
  5
7F
  8
0
 10
26.0263789058356
 20
63.649147044087869
 30
0.0
 11
26.0263789058356
 21
76.350852966258941
 31
0.0
  0
LINE
  5
80
  8
0
 10
37.026378896881617
 20
57.298294088171502
 30
0.0
 11
26.026378896881631
 21
63.649147049255163
 31
0.0
  0
LINE
  5
81
  8
0
 10
48.026378887917637
 20
63.649147044081609
 30
0.0
 11
37.026378887927649
 21
57.298294082994197
 31
0.0
  0
LINE
  5
82
  8
0
 10
48.026378887927649
 20
76.350852955920601
 30
0.0
 11
48.026378887927649
 21
63.649147033749529
 31
0.0
  0
CIRCLE
  5
83
  8
0
 10
37.02637889688237
 20
70.000000000000028
 30
0.0
 40
13.0
  0
LINE
  5
84
  8
1
 10
52.526378896882363
 20
70.000000000000028
 30
0.0
 11
21.52637889688236
 21
70.000000000000028
 31
0.0
  0
LINE
  5
85
  8
1
 10
37.02637889688237
 20
85.500000000000014
 30
0.0
 11
37.02637889688237
 21
54.500000000000021
 31
0.0
  0
LINE
  5
86
  8
1
 10
160.5
 20
70.0
 30
0.0
 11
129.5
 21
70.0
 31
0.0
  0
LINE
  5
87
  8
1
 10
145.0
 20
85.5
 30
0.0
 11
145.0
 21
54.5
 31
0.0
  0
LINE
  5
88
  8
0
 10
92.249999999999986
 20
96.999999999999972
 30
0.0
 11
92.249999999999986
 21
123.0
 31
0.0
  0
LINE
  5
89
  8
0
 10
92.249999999999986
 20
99.000000008953208
 30
0.0
 11
87.250000000000057
 21
99.000000008953208
 31
0.0
  0
LINE
  5
8A
  8
0
 10
87.249999999999986
 20
120.9999999910452
 30
0.0
 11
92.249999999999986
 21
120.9999999910452
 31
0.0
  0
LINE
  5
8B
  8
0
 10
88.201705911828583
 20
110.0
 30
0.0
 11
92.249999999999986
 21
110.0
 31
0.0
  0
LINE
  5
8C
  8
0
 10
94.25
 20
123.0
 30
0.0
 11
94.25
 21
97.000000000000014
 31
0.0
  0
LINE
  5
8D
  8
0
 10
92.249999999999986
 20
123.0
 30
0.0
 11
95.750000000000014
 21
123.0
 31
0.0
  0
LINE
  5
8E
  8
0
 10
92.249999999999986
 20
97.000000000000014
 30
0.0
 11
95.750000000000014
 21
97.000000000000014
 31
0.0
  0
LINE
  5
8F
  8
0
 10
87.250000000000057
 20
99.000000008953208
 30
0.0
 11
87.249999999999986
 21
120.9999999910452
 31
0.0
  0
LINE
  5
90
  8
0
 10
87.250000000000057
 20
100.9227279785112
 30
0.0
 11
88.201705911828583
 21
99.000000008953165
 31
0.0
  0
LINE
  5
91
  8
0
 10
87.249999999999986
 20
108.0772720304475
 30
0.0
 11
88.201705911828583
 21
110.0
 31
0.0
  0
LINE
  5
92
  8
0
 10
87.249999999999986
 20
111.9227279695525
 30
0.0
 11
88.201705911828583
 21
110.0
 31
0.0
  0
LINE
  5
93
  8
0
 10
87.250000000000057
 20
119.0772720214888
 30
0.0
 11
88.201705911828583
 21
120.99999999104681
 31
0.0
  0
ARC
  5
94
  8
0
 10
87.249999999999986
 20
110.0
 30
0.0
 40
9.5
 50
90.0
 51
270.0
  0
LINE
  5
95
  8
1
 10
75.25
 20
110.0
 30
0.0
 11
107.25
 21
110.0
 31
0.0
  0
LINE
  5
96
  8
0
 10
104.75
 20
119.3155
 30
0.0
 11
104.75
 21
100.6845
 31
0.0
  0
LINE
  5
97
  8
3
 10
95.750000000000014
 20
100.6844999999999
 30
0.0
 11
103.75
 21
100.6845
 31
0.0
  0
LINE
  5
98
  8
0
 10
95.750000000000014
 20
99.522500000000008
 30
0.0
 11
103.75
 21
99.522500000000008
 31
0.0
  0
LINE
  5
99
  8
3
 10
95.750000000000014
 20
119.3155
 30
0.0
 11
103.75
 21
119.3154999999999
 31
0.0
  0
LINE
  5
9A
  8
0
 10
95.750000000000014
 20
120.47750000000001
 30
0.0
 11
103.75
 21
120.47750000000001
 31
0.0
  0
LINE
  5
9B
  8
0
 10
103.75
 20
120.47750000000001
 30
0.0
 11
103.75
 21
99.522500000000008
 31
0.0
  0
LINE
  5
9C
  8
0
 10
103.75
 20
119.3155
 30
0.0
 11
104.75
 21
119.3155
 31
0.0
  0
LINE
  5
9D
  8
0
 10
103.75
 20
100.6845
 30
0.0
 11
104.75
 21
100.6845
 31
0.0
  0
LINE
  5
9E
  8
0
 10
95.750000000000014
 20
96.999999999999972
 30
0.0
 11
95.750000000000014
 21
123.0
 31
0.0
  0
INSERT
  5
10E
  8
0
  2
BATU
 10
0.0
 20
0.0
 30
0.0
 41
0.001
 42
0.001
 43
0.001
  0
TEXT
  5
223
  8
0
 62
     3
 10
0.0
 20
0.0
 30
0.0
 40
10.0
  1
CD-15
  7
STANDARD1
  0
ENDSEC
  0
EOF
