  0
SECTION
  2
HEADER
  9
$ACADVER
  1
AC1009
  9
$INSBASE
 10
0.0
 20
0.0
 30
0.0
  9
$EXTMIN
 10
0.0
 20
-2.960436562073669
 30
0.0
  9
$EXTMAX
 10
286.56108344285798
 20
225.92716255787471
 30
0.0
  9
$LIMMIN
 10
0.0
 20
0.0
  9
$LIMMAX
 10
375.0
 20
270.0
  9
$ORTHOMODE
 70
     1
  9
$REGENMODE
 70
     1
  9
$FILLMODE
 70
     1
  9
$QTEXTMODE
 70
     0
  9
$MIRRTEXT
 70
     0
  9
$DRAGMODE
 70
     2
  9
$LTSCALE
 40
10.0
  9
$OSMODE
 70
  3071
  9
$ATTMODE
 70
     1
  9
$TEXTSIZE
 40
0.2
  9
$TRACEWID
 40
0.05
  9
$TEXTSTYLE
  7
STANDARD
  9
$CLAYER
  8
0
  9
$CELTYPE
  6
BYLAYER
  9
$CECOLOR
 62
   256
  9
$DIMSCALE
 40
1.0
  9
$DIMASZ
 40
3.0
  9
$DIMEXO
 40
2.0
  9
$DIMDLI
 40
0.38
  9
$DIMRND
 40
0.0
  9
$DIMDLE
 40
0.0
  9
$DIMEXE
 40
2.0
  9
$DIMTP
 40
0.0
  9
$DIMTM
 40
0.0
  9
$DIMTXT
 40
3.2000000000000002
  9
$DIMCEN
 40
0.0
  9
$DIMTSZ
 40
0.0
  9
$DIMTOL
 70
     0
  9
$DIMLIM
 70
     0
  9
$DIMTIH
 70
     0
  9
$DIMTOH
 70
     0
  9
$DIMSE1
 70
     0
  9
$DIMSE2
 70
     0
  9
$DIMTAD
 70
     1
  9
$DIMZIN
 70
     0
  9
$DIMBLK
  1

  9
$DIMASO
 70
     0
  9
$DIMSHO
 70
     0
  9
$DIMPOST
  1

  9
$DIMAPOST
  1

  9
$DIMALT
 70
     0
  9
$DIMALTD
 70
     2
  9
$DIMALTF
 40
25.399999999999999
  9
$DIMLFAC
 40
1.0
  9
$DIMTOFL
 70
     1
  9
$DIMTVP
 40
1.6000000000000001
  9
$DIMTIX
 70
     1
  9
$DIMSOXD
 70
     0
  9
$DIMSAH
 70
     0
  9
$DIMBLK1
  1

  9
$DIMBLK2
  1

  9
$DIMSTYLE
  2
STANDARD
  9
$DIMCLRD
 70
     0
  9
$DIMCLRE
 70
     0
  9
$DIMCLRT
 70
     0
  9
$DIMTFAC
 40
1.0
  9
$DIMGAP
 40
0.09
  9
$LUNITS
 70
     2
  9
$LUPREC
 70
     4
  9
$SKETCHINC
 40
0.1
  9
$FILLETRAD
 40
0.0
  9
$AUNITS
 70
     0
  9
$AUPREC
 70
     4
  9
$MENU
  1
E:\r13\win\SUPPORT\ACAD
  9
$ELEVATION
 40
0.0
  9
$PELEVATION
 40
0.0
  9
$THICKNESS
 40
0.0
  9
$LIMCHECK
 70
     0
  9
$BLIPMODE
 70
     0
  9
$CHAMFERA
 40
0.0
  9
$CHAMFERB
 40
0.0
  9
$SKPOLY
 70
     0
  9
$TDCREATE
 40
2449840.6499189818
  9
$TDUPDATE
 40
2456598.5880583571
  9
$TDINDWG
 40
0.0001026389
  9
$TDUSRTIMER
 40
0.0001026389
  9
$USRTIMER
 70
     1
  9
$ANGBASE
 50
0.0
  9
$ANGDIR
 70
     0
  9
$PDMODE
 70
     0
  9
$PDSIZE
 40
0.0
  9
$PLINEWID
 40
0.0
  9
$COORDS
 70
     1
  9
$SPLFRAME
 70
     0
  9
$SPLINETYPE
 70
     6
  9
$SPLINESEGS
 70
     8
  9
$ATTDIA
 70
     0
  9
$ATTREQ
 70
     1
  9
$HANDLING
 70
     1
  9
$HANDSEED
  5
225
  9
$SURFTAB1
 70
     6
  9
$SURFTAB2
 70
     6
  9
$SURFTYPE
 70
     6
  9
$SURFU
 70
     6
  9
$SURFV
 70
     6
  9
$UCSNAME
  2

  9
$UCSORG
 10
0.0
 20
0.0
 30
0.0
  9
$UCSXDIR
 10
1.0
 20
0.0
 30
0.0
  9
$UCSYDIR
 10
0.0
 20
1.0
 30
0.0
  9
$PUCSNAME
  2

  9
$PUCSORG
 10
0.0
 20
0.0
 30
0.0
  9
$PUCSXDIR
 10
1.0
 20
0.0
 30
0.0
  9
$PUCSYDIR
 10
0.0
 20
1.0
 30
0.0
  9
$USERI1
 70
     0
  9
$USERI2
 70
     1
  9
$USERI3
 70
     0
  9
$USERI4
 70
     0
  9
$USERI5
 70
     0
  9
$USERR1
 40
0.0
  9
$USERR2
 40
0.0
  9
$USERR3
 40
0.0
  9
$USERR4
 40
0.0
  9
$USERR5
 40
0.0
  9
$WORLDVIEW
 70
     1
  9
$SHADEDGE
 70
     3
  9
$SHADEDIF
 70
    70
  9
$TILEMODE
 70
     1
  9
$MAXACTVP
 70
    16
  9
$PLIMCHECK
 70
     0
  9
$PEXTMIN
 10
1.0000000000000000E+020
 20
1.0000000000000000E+020
 30
1.0000000000000000E+020
  9
$PEXTMAX
 10
-1.0000000000000000E+020
 20
-1.0000000000000000E+020
 30
-1.0000000000000000E+020
  9
$PLIMMIN
 10
0.0
 20
0.0
  9
$PLIMMAX
 10
12.0
 20
9.0
  9
$UNITMODE
 70
     0
  9
$VISRETAIN
 70
     0
  9
$PLINEGEN
 70
     0
  9
$PSLTSCALE
 70
     0
  0
ENDSEC
  0
SECTION
  2
TABLES
  0
TABLE
  2
VPORT
 70
     1
  0
VPORT
  2
*ACTIVE
 70
     0
 10
0.0
 20
0.0
 11
1.0
 21
1.0
 12
195.0581083320873
 22
133.5127261426681
 13
0.0
 23
0.0
 14
10.0
 24
10.0
 15
10.0
 25
10.0
 16
0.0
 26
0.0
 36
1.0
 17
0.0
 27
0.0
 37
0.0
 40
275.42274993631997
 41
1.831871345029239
 42
50.0
 43
0.0
 44
0.0
 50
0.0
 51
0.0
 71
     0
 72
   500
 73
     1
 74
     0
 75
     0
 76
     0
 77
     0
 78
     2
  0
ENDTAB
  0
TABLE
  2
LTYPE
 70
     3
  0
LTYPE
  2
CONTINUOUS
 70
     0
  3
Solid Line
 72
    65
 73
     0
 40
0.0
  0
LTYPE
  2
CENTER
 70
     0
  3
____ _ ____ _ ____ _ ____ _ ____ _ ____ _ ____
 72
    65
 73
     4
 40
2.0
 49
1.25
 49
-0.25
 49
0.25
 49
-0.25
  0
LTYPE
  2
PHANTOM2
 70
     0
  3
___ _ _ ___ _ _ ___ _ _ ___ _ _
 72
    65
 73
     6
 40
1.25
 49
0.625
 49
-0.125
 49
0.125
 49
-0.125
 49
0.125
 49
-0.125
  0
ENDTAB
  0
TABLE
  2
LAYER
 70
     2
  0
LAYER
  2
0
 70
     0
 62
     7
  6
CONTINUOUS
  0
LAYER
  2
1
 70
     0
 62
     1
  6
CENTER
  0
ENDTAB
  0
TABLE
  2
STYLE
 70
     2
  0
STYLE
  2
STANDARD
 70
     0
 40
0.0
 41
1.0
 50
0.0
 71
     0
 42
0.2
  3
TXT
  4
BIGFONT
  0
STYLE
  2
STANDARD1
 70
     0
 40
0.0
 41
1.0
 50
0.0
 71
     0
 42
3.0
  3
txt
  4

  0
ENDTAB
  0
TABLE
  2
VIEW
 70
     1
  0
VIEW
  2
ALL
 70
     0
 40
270.0
 10
220.99159663865549
 20
135.0
 41
0.0
 11
0.0
 21
0.0
 31
1.0
 12
0.0
 22
0.0
 32
0.0
 42
0.0
 43
0.0
 44
0.0
 50
0.0
 71
     0
  0
ENDTAB
  0
TABLE
  2
UCS
 70
     0
  0
ENDTAB
  0
TABLE
  2
APPID
 70
     3
  0
APPID
  2
ACAD
 70
     0
  0
APPID
  2
ACAD_MLEADERVER
 70
     0
  0
APPID
  2
ACAD_NAV_VCDISPLAY
 70
     0
  0
ENDTAB
  0
TABLE
  2
DIMSTYLE
 70
     1
  0
DIMSTYLE
  2
STANDARD
 70
     0
  3

  4

  5

  6

  7

 40
1.0
 41
0.18
 42
0.0625
 43
0.38
 44
0.18
 45
0.0
 46
0.0
 47
0.0
 48
0.0
140
0.18
141
0.09
142
0.0
143
25.399999999999999
144
1.0
145
0.0
146
1.0
147
0.09
 71
     0
 72
     0
 73
     1
 74
     1
 75
     0
 76
     0
 77
     0
 78
     0
170
     0
171
     2
172
     0
173
     0
174
     0
175
     0
176
     0
177
     0
178
     0
  0
ENDTAB
  0
ENDSEC
  0
SECTION
  2
BLOCKS
  0
BLOCK
  8
0
  2
$MODEL_SPACE
 70
     0
 10
0.0
 20
0.0
 30
0.0
  3
$MODEL_SPACE
  1

  0
ENDBLK
  5
DD
  8
0
  0
BLOCK
 67
     1
  8
0
  2
$PAPER_SPACE
 70
     0
 10
0.0
 20
0.0
 30
0.0
  3
$PAPER_SPACE
  1

  0
ENDBLK
  5
DB
 67
     1
  8
0
  0
ENDSEC
  0
SECTION
  2
ENTITIES
  0
LINE
  5
3C
  8
0
 10
121.56108344285801
 20
124.0008949960821
 30
0.0
 11
121.56108344285801
 21
125.5008949960821
 31
0.0
  0
LINE
  5
3D
  8
0
 10
121.56108344285801
 20
125.5008949960821
 30
0.0
 11
201.56108344285809
 21
125.5008949960821
 31
0.0
  0
LINE
  5
3E
  8
0
 10
201.56108344285809
 20
125.5008949960821
 30
0.0
 11
201.56108344285809
 21
124.0008949960821
 31
0.0
  0
LINE
  5
3F
  8
0
 10
199.06108344285801
 20
121.5008949960821
 30
0.0
 11
124.06108344285801
 21
121.5008949960821
 31
0.0
  0
LINE
  5
40
  8
0
 10
197.56108344285801
 20
175.92716255787471
 30
0.0
 11
125.56108344285801
 21
175.92716255787471
 31
0.0
  0
LINE
  5
41
  8
0
 10
121.56108344285801
 20
179.92716255787471
 30
0.0
 11
121.56108344285801
 21
211.92716255787471
 31
0.0
  0
LINE
  5
42
  8
0
 10
125.56108344285801
 20
215.92716255787471
 30
0.0
 11
197.56108344285801
 21
215.92716255787471
 31
0.0
  0
LINE
  5
43
  8
0
 10
201.56108344285809
 20
211.92716255787471
 30
0.0
 11
201.56108344285809
 21
179.92716255787471
 31
0.0
  0
LINE
  5
44
  8
0
 10
199.56108344285801
 20
213.92716255787471
 30
0.0
 11
199.56108344285801
 21
177.92716255787471
 31
0.0
  0
LINE
  5
45
  8
0
 10
199.56108344285801
 20
177.92716255787471
 30
0.0
 11
123.56108344285801
 21
177.92716255787471
 31
0.0
  0
LINE
  5
46
  8
0
 10
123.56108344285801
 20
177.92716255787471
 30
0.0
 11
123.56108344285801
 21
213.92716255787471
 31
0.0
  0
LINE
  5
47
  8
0
 10
123.56108344285801
 20
213.92716255787471
 30
0.0
 11
199.56108344285801
 21
213.92716255787471
 31
0.0
  0
LINE
  5
48
  8
0
 10
246.56108344285801
 20
124.0008949960821
 30
0.0
 11
246.56108344285801
 21
125.5008949960821
 31
0.0
  0
LINE
  5
49
  8
0
 10
246.56108344285801
 20
125.5008949960821
 30
0.0
 11
286.56108344285798
 21
125.5008949960821
 31
0.0
  0
LINE
  5
4A
  8
0
 10
286.56108344285798
 20
125.5008949960821
 30
0.0
 11
286.56108344285798
 21
124.000894996082
 31
0.0
  0
LINE
  5
4B
  8
0
 10
284.06108344285798
 20
121.5008949960821
 30
0.0
 11
249.06108344285801
 21
121.5008949960821
 31
0.0
  0
ARC
  5
4C
  8
0
 10
125.56108344285801
 20
179.92716255787471
 30
0.0
 40
4.0
 50
180.0
 51
269.99999999999989
  0
ARC
  5
4D
  8
0
 10
125.56108344285801
 20
211.92716255787471
 30
0.0
 40
4.0
 50
90.0
 51
179.99999999999989
  0
ARC
  5
4E
  8
0
 10
197.56108344285801
 20
211.92716255787471
 30
0.0
 40
4.0
 50
0.0
 51
90.0
  0
ARC
  5
4F
  8
0
 10
197.56108344285801
 20
179.92716255787471
 30
0.0
 40
4.0
 50
270.0
 51
0.0
  0
LINE
  5
50
  8
1
 10
161.56108344285801
 20
225.92716255787471
 30
0.0
 11
161.56108344285801
 21
165.9271625578746
 31
0.0
  0
LINE
  5
51
  8
1
 10
211.56108344285801
 20
195.92716255787471
 30
0.0
 11
111.56108344285801
 21
195.92716255787471
 31
0.0
  0
LINE
  5
52
  8
1
 10
161.56108344285801
 20
143.14828917835601
 30
0.0
 11
161.56108344285801
 21
111.5008949960821
 31
0.0
  0
LINE
  5
53
  8
1
 10
266.56108344285798
 20
143.14828917835601
 30
0.0
 11
266.56108344285798
 21
111.5008949960821
 31
0.0
  0
LINE
  5
54
  8
0
 10
127.06108344285801
 20
203.5271625578747
 30
0.0
 11
127.06108344285801
 21
188.32716255787469
 31
0.0
  0
LINE
  5
55
  8
0
 10
127.06108344285801
 20
188.32716255787469
 30
0.0
 11
131.06108344285801
 21
188.32716255787469
 31
0.0
  0
LINE
  5
56
  8
0
 10
131.06108344285801
 20
188.32716255787469
 30
0.0
 11
131.06108344285801
 21
203.5271625578747
 31
0.0
  0
LINE
  5
57
  8
0
 10
131.06108344285801
 20
203.5271625578747
 30
0.0
 11
127.06108344285801
 21
203.5271625578747
 31
0.0
  0
LINE
  5
58
  8
0
 10
189.161083442858
 20
209.42716255787471
 30
0.0
 11
173.96108344285801
 21
209.42716255787471
 31
0.0
  0
LINE
  5
59
  8
0
 10
173.96108344285801
 20
209.42716255787471
 30
0.0
 11
173.96108344285801
 21
211.42716255787471
 31
0.0
  0
LINE
  5
5A
  8
0
 10
185.61108344285799
 20
213.42716255787471
 30
0.0
 11
177.51108344285799
 21
213.42716255787471
 31
0.0
  0
LINE
  5
5B
  8
0
 10
177.51108344285799
 20
213.42716255787471
 30
0.0
 11
177.51108344285799
 21
211.42716255787471
 31
0.0
  0
LINE
  5
5C
  8
0
 10
177.51108344285799
 20
211.42716255787471
 30
0.0
 11
173.96108344285801
 21
211.42716255787471
 31
0.0
  0
LINE
  5
5D
  8
0
 10
189.161083442858
 20
209.42716255787471
 30
0.0
 11
189.161083442858
 21
211.42716255787471
 31
0.0
  0
LINE
  5
5E
  8
0
 10
185.61108344285799
 20
211.42716255787471
 30
0.0
 11
189.161083442858
 21
211.42716255787471
 31
0.0
  0
LINE
  5
5F
  8
0
 10
185.61108344285799
 20
213.42716255787471
 30
0.0
 11
185.61108344285799
 21
211.42716255787471
 31
0.0
  0
LINE
  5
60
  8
0
 10
133.96108344285801
 20
209.42716255787471
 30
0.0
 11
133.96108344285801
 21
211.42716255787471
 31
0.0
  0
LINE
  5
61
  8
0
 10
137.51108344285799
 20
211.42716255787471
 30
0.0
 11
133.96108344285801
 21
211.42716255787471
 31
0.0
  0
LINE
  5
62
  8
0
 10
133.96108344285801
 20
209.42716255787471
 30
0.0
 11
149.161083442858
 21
209.42716255787471
 31
0.0
  0
LINE
  5
63
  8
0
 10
137.51108344285799
 20
213.42716255787471
 30
0.0
 11
145.61108344285799
 21
213.42716255787471
 31
0.0
  0
LINE
  5
64
  8
0
 10
145.61108344285799
 20
213.42716255787471
 30
0.0
 11
145.61108344285799
 21
211.42716255787471
 31
0.0
  0
LINE
  5
65
  8
0
 10
145.61108344285799
 20
211.42716255787471
 30
0.0
 11
149.161083442858
 21
211.42716255787471
 31
0.0
  0
LINE
  5
66
  8
0
 10
149.161083442858
 20
209.42716255787471
 30
0.0
 11
149.161083442858
 21
211.42716255787471
 31
0.0
  0
LINE
  5
67
  8
0
 10
137.51108344285799
 20
213.42716255787471
 30
0.0
 11
137.51108344285799
 21
211.42716255787471
 31
0.0
  0
LINE
  5
68
  8
0
 10
137.51108344285799
 20
178.4271625578746
 30
0.0
 11
137.51108344285799
 21
180.4271625578746
 31
0.0
  0
LINE
  5
69
  8
0
 10
149.161083442858
 20
182.42716255787471
 30
0.0
 11
149.161083442858
 21
180.4271625578746
 31
0.0
  0
LINE
  5
6A
  8
0
 10
145.61108344285799
 20
180.4271625578746
 30
0.0
 11
149.161083442858
 21
180.4271625578746
 31
0.0
  0
LINE
  5
6B
  8
0
 10
145.61108344285799
 20
178.4271625578746
 30
0.0
 11
145.61108344285799
 21
180.4271625578746
 31
0.0
  0
LINE
  5
6C
  8
0
 10
137.51108344285799
 20
178.4271625578746
 30
0.0
 11
145.61108344285799
 21
178.4271625578746
 31
0.0
  0
LINE
  5
6D
  8
0
 10
133.96108344285801
 20
182.42716255787471
 30
0.0
 11
149.161083442858
 21
182.42716255787471
 31
0.0
  0
LINE
  5
6E
  8
0
 10
137.51108344285799
 20
180.4271625578746
 30
0.0
 11
133.96108344285801
 21
180.4271625578746
 31
0.0
  0
LINE
  5
6F
  8
0
 10
133.96108344285801
 20
182.42716255787471
 30
0.0
 11
133.96108344285801
 21
180.4271625578746
 31
0.0
  0
LINE
  5
70
  8
0
 10
189.161083442858
 20
182.42716255787471
 30
0.0
 11
189.161083442858
 21
180.4271625578746
 31
0.0
  0
LINE
  5
71
  8
0
 10
185.61108344285799
 20
180.4271625578746
 30
0.0
 11
189.161083442858
 21
180.4271625578746
 31
0.0
  0
LINE
  5
72
  8
0
 10
189.161083442858
 20
182.42716255787471
 30
0.0
 11
173.96108344285801
 21
182.42716255787471
 31
0.0
  0
LINE
  5
73
  8
0
 10
185.61108344285799
 20
178.4271625578746
 30
0.0
 11
177.51108344285799
 21
178.4271625578746
 31
0.0
  0
LINE
  5
74
  8
0
 10
177.51108344285799
 20
178.4271625578746
 30
0.0
 11
177.51108344285799
 21
180.4271625578746
 31
0.0
  0
LINE
  5
75
  8
0
 10
177.51108344285799
 20
180.4271625578746
 30
0.0
 11
173.96108344285801
 21
180.4271625578746
 31
0.0
  0
LINE
  5
76
  8
0
 10
173.96108344285801
 20
182.42716255787471
 30
0.0
 11
173.96108344285801
 21
180.4271625578746
 31
0.0
  0
LINE
  5
77
  8
0
 10
185.61108344285799
 20
178.4271625578746
 30
0.0
 11
185.61108344285799
 21
180.4271625578746
 31
0.0
  0
LINE
  5
78
  8
0
 10
196.06108344285801
 20
203.5271625578747
 30
0.0
 11
196.06108344285801
 21
188.32716255787469
 31
0.0
  0
LINE
  5
79
  8
0
 10
196.06108344285801
 20
188.32716255787469
 30
0.0
 11
192.06108344285801
 21
188.32716255787469
 31
0.0
  0
LINE
  5
7A
  8
0
 10
192.06108344285801
 20
188.32716255787469
 30
0.0
 11
192.06108344285801
 21
203.5271625578747
 31
0.0
  0
LINE
  5
7B
  8
0
 10
192.06108344285801
 20
203.5271625578747
 30
0.0
 11
196.06108344285801
 21
203.5271625578747
 31
0.0
  0
LINE
  5
7C
  8
0
 10
127.06108344285801
 20
125.5008949960821
 30
0.0
 11
127.06108344285801
 21
134.50089499608211
 31
0.0
  0
LINE
  5
7D
  8
0
 10
127.06108344285801
 20
134.50089499608211
 30
0.0
 11
131.06108344285801
 21
134.50089499608211
 31
0.0
  0
LINE
  5
7E
  8
0
 10
131.06108344285801
 20
134.50089499608211
 30
0.0
 11
131.06108344285801
 21
125.5008949960821
 31
0.0
  0
LINE
  5
7F
  8
0
 10
133.96108344285801
 20
125.5008949960821
 30
0.0
 11
133.96108344285801
 21
134.50089499608211
 31
0.0
  0
LINE
  5
80
  8
0
 10
133.96108344285801
 20
134.50089499608211
 30
0.0
 11
149.161083442858
 21
134.50089499608211
 31
0.0
  0
LINE
  5
81
  8
0
 10
149.161083442858
 20
134.50089499608211
 30
0.0
 11
149.161083442858
 21
125.5008949960821
 31
0.0
  0
LINE
  5
82
  8
0
 10
137.51108344285799
 20
125.5008949960821
 30
0.0
 11
137.51108344285799
 21
134.50089499608211
 31
0.0
  0
LINE
  5
83
  8
0
 10
145.61108344285799
 20
125.5008949960821
 30
0.0
 11
145.61108344285799
 21
134.50089499608211
 31
0.0
  0
LINE
  5
84
  8
0
 10
196.06108344285801
 20
125.5008949960821
 30
0.0
 11
196.06108344285801
 21
134.50089499608211
 31
0.0
  0
LINE
  5
85
  8
0
 10
196.06108344285801
 20
134.50089499608211
 30
0.0
 11
192.06108344285801
 21
134.50089499608211
 31
0.0
  0
LINE
  5
86
  8
0
 10
192.06108344285801
 20
134.50089499608211
 30
0.0
 11
192.06108344285801
 21
125.5008949960821
 31
0.0
  0
LINE
  5
87
  8
0
 10
189.161083442858
 20
125.5008949960821
 30
0.0
 11
189.161083442858
 21
134.50089499608211
 31
0.0
  0
LINE
  5
88
  8
0
 10
189.161083442858
 20
134.50089499608211
 30
0.0
 11
173.96108344285801
 21
134.50089499608211
 31
0.0
  0
LINE
  5
89
  8
0
 10
173.96108344285801
 20
134.50089499608211
 30
0.0
 11
173.96108344285801
 21
125.5008949960821
 31
0.0
  0
LINE
  5
8A
  8
0
 10
185.61108344285799
 20
125.5008949960821
 30
0.0
 11
185.61108344285799
 21
134.50089499608211
 31
0.0
  0
LINE
  5
8B
  8
0
 10
177.51108344285799
 20
125.5008949960821
 30
0.0
 11
177.51108344285799
 21
134.50089499608211
 31
0.0
  0
LINE
  5
8C
  8
1
 10
141.56108344285801
 20
170.72991943300261
 30
0.0
 11
141.56108344285801
 21
221.1244056827467
 31
0.0
  0
LINE
  5
8D
  8
1
 10
181.56108344285801
 20
170.72991943300261
 30
0.0
 11
181.56108344285801
 21
221.1244056827467
 31
0.0
  0
LINE
  5
8E
  8
1
 10
141.56108344285801
 20
140.14109921824499
 30
0.0
 11
141.56108344285801
 21
116.38429853336881
 31
0.0
  0
LINE
  5
8F
  8
1
 10
181.56108344285801
 20
140.14109921824499
 30
0.0
 11
181.56108344285801
 21
116.38429853336881
 31
0.0
  0
LINE
  5
90
  8
0
 10
249.06108344285801
 20
125.5008949960821
 30
0.0
 11
249.06108344285801
 21
134.50089499608211
 31
0.0
  0
LINE
  5
91
  8
0
 10
249.06108344285801
 20
134.50089499608211
 30
0.0
 11
253.06108344285801
 21
134.50089499608211
 31
0.0
  0
LINE
  5
92
  8
0
 10
253.06108344285801
 20
134.50089499608211
 30
0.0
 11
253.06108344285801
 21
125.5008949960821
 31
0.0
  0
LINE
  5
93
  8
0
 10
251.06108344285801
 20
134.50089499608211
 30
0.0
 11
251.06108344285801
 21
125.5008949960821
 31
0.0
  0
LINE
  5
94
  8
0
 10
258.9610834428579
 20
125.5008949960821
 30
0.0
 11
258.96108344285778
 21
134.50089499608211
 31
0.0
  0
LINE
  5
95
  8
0
 10
258.96108344285778
 20
134.50089499608211
 30
0.0
 11
274.16108344285811
 21
134.50089499608211
 31
0.0
  0
LINE
  5
96
  8
0
 10
274.16108344285811
 20
134.50089499608211
 30
0.0
 11
274.16108344285811
 21
125.5008949960821
 31
0.0
  0
LINE
  5
97
  8
0
 10
284.06108344285809
 20
125.5008949960821
 30
0.0
 11
284.06108344285798
 21
134.50089499608211
 31
0.0
  0
LINE
  5
98
  8
0
 10
284.06108344285798
 20
134.50089499608211
 30
0.0
 11
280.06108344285798
 21
134.50089499608211
 31
0.0
  0
LINE
  5
99
  8
0
 10
280.06108344285798
 20
134.50089499608211
 30
0.0
 11
280.06108344285798
 21
125.5008949960821
 31
0.0
  0
LINE
  5
9A
  8
0
 10
282.06108344285798
 20
134.50089499608211
 30
0.0
 11
282.06108344285809
 21
125.5008949960821
 31
0.0
  0
ARC
  5
9B
  8
0
 10
249.06108344285801
 20
124.0008949960821
 30
0.0
 40
2.5
 50
180.0
 51
269.99999999999989
  0
ARC
  5
9C
  8
0
 10
284.06108344285798
 20
124.0008949960821
 30
0.0
 40
2.5
 50
270.0
 51
359.99999999999801
  0
ARC
  5
9D
  8
0
 10
124.06108344285801
 20
124.0008949960821
 30
0.0
 40
2.5
 50
180.0
 51
269.99999999999989
  0
ARC
  5
9E
  8
0
 10
199.06108344285801
 20
124.0008949960821
 30
0.0
 40
2.5
 50
270.0
 51
0.0
  0
CIRCLE
  5
9F
  8
0
 10
128.06108344286019
 20
42.304856115110219
 30
0.0
 40
4.1500000000000004
  0
CIRCLE
  5
A0
  8
0
 10
195.06108344285801
 20
42.304856115110219
 30
0.0
 40
4.1500000000000004
  0
CIRCLE
  5
A1
  8
0
 10
195.06108344285801
 20
69.30485611511466
 30
0.0
 40
4.1500000000000004
  0
CIRCLE
  5
A2
  8
0
 10
128.06108344286019
 20
69.30485611511466
 30
0.0
 40
4.1500000000000004
  0
LINE
  5
A3
  8
1
 10
211.56108344285801
 20
55.804856115107953
 30
0.0
 11
111.56108344285801
 21
55.804856115107953
 31
0.0
  0
LINE
  5
A4
  8
1
 10
161.56108344285801
 20
85.804856115107953
 30
0.0
 11
161.56108344285801
 21
25.804856115107949
 31
0.0
  0
ARC
  5
A5
  8
0
 10
197.56108344285801
 20
39.804856115107953
 30
0.0
 40
4.0
 50
270.0
 51
0.0
  0
ARC
  5
A6
  8
0
 10
197.56108344285801
 20
71.804856115107953
 30
0.0
 40
4.0
 50
0.0
 51
90.000000000000014
  0
ARC
  5
A7
  8
0
 10
125.56108344285801
 20
71.804856115107953
 30
0.0
 40
4.0
 50
90.000000000000014
 51
179.99999999999989
  0
ARC
  5
A8
  8
0
 10
125.56108344285801
 20
39.804856115107953
 30
0.0
 40
4.0
 50
180.0
 51
269.99999999999989
  0
LINE
  5
A9
  8
0
 10
201.56108344285809
 20
71.804856115107953
 30
0.0
 11
201.56108344285809
 21
39.804856115107953
 31
0.0
  0
LINE
  5
AA
  8
0
 10
125.56108344285801
 20
75.804856115107953
 30
0.0
 11
197.56108344285801
 21
75.804856115107953
 31
0.0
  0
LINE
  5
AB
  8
0
 10
121.56108344285801
 20
39.804856115107953
 30
0.0
 11
121.56108344285801
 21
71.804856115107953
 31
0.0
  0
LINE
  5
AC
  8
0
 10
197.56108344285801
 20
35.804856115107953
 30
0.0
 11
125.56108344285801
 21
35.804856115107953
 31
0.0
  0
TEXT
  5
194
  8
0
 62
     3
 10
0.0
 20
0.0
 30
0.0
 40
10.0
  1
CEC8040
  7
STANDARD1
  0
ENDSEC
  0
EOF
