  0
SECTION
  2
HEADER
  9
$ACADVER
  1
AC1009
  9
$INSBASE
 10
0.0
 20
0.0
 30
0.0
  9
$EXTMIN
 10
0.0
 20
-2.960436562073669
 30
0.0
  9
$EXTMAX
 10
342.59804745459559
 20
192.09101447788339
 30
0.0
  9
$LIMMIN
 10
0.0
 20
0.0
  9
$LIMMAX
 10
375.0
 20
270.0
  9
$ORTHOMODE
 70
     1
  9
$REGENMODE
 70
     1
  9
$FILLMODE
 70
     1
  9
$QTEXTMODE
 70
     0
  9
$MIRRTEXT
 70
     0
  9
$DRAGMODE
 70
     2
  9
$LTSCALE
 40
10.0
  9
$OSMODE
 70
  3071
  9
$ATTMODE
 70
     1
  9
$TEXTSIZE
 40
0.2
  9
$TRACEWID
 40
0.05
  9
$TEXTSTYLE
  7
STANDARD
  9
$CLAYER
  8
0
  9
$CELTYPE
  6
BYLAYER
  9
$CECOLOR
 62
   256
  9
$DIMSCALE
 40
1.0
  9
$DIMASZ
 40
3.0
  9
$DIMEXO
 40
2.0
  9
$DIMDLI
 40
0.38
  9
$DIMRND
 40
0.0
  9
$DIMDLE
 40
0.0
  9
$DIMEXE
 40
2.0
  9
$DIMTP
 40
0.0
  9
$DIMTM
 40
0.0
  9
$DIMTXT
 40
3.2000000000000002
  9
$DIMCEN
 40
0.0
  9
$DIMTSZ
 40
0.0
  9
$DIMTOL
 70
     0
  9
$DIMLIM
 70
     0
  9
$DIMTIH
 70
     0
  9
$DIMTOH
 70
     0
  9
$DIMSE1
 70
     0
  9
$DIMSE2
 70
     0
  9
$DIMTAD
 70
     1
  9
$DIMZIN
 70
     0
  9
$DIMBLK
  1

  9
$DIMASO
 70
     0
  9
$DIMSHO
 70
     0
  9
$DIMPOST
  1

  9
$DIMAPOST
  1

  9
$DIMALT
 70
     0
  9
$DIMALTD
 70
     2
  9
$DIMALTF
 40
25.399999999999999
  9
$DIMLFAC
 40
1.0
  9
$DIMTOFL
 70
     1
  9
$DIMTVP
 40
1.6000000000000001
  9
$DIMTIX
 70
     1
  9
$DIMSOXD
 70
     0
  9
$DIMSAH
 70
     0
  9
$DIMBLK1
  1

  9
$DIMBLK2
  1

  9
$DIMSTYLE
  2
STANDARD
  9
$DIMCLRD
 70
     0
  9
$DIMCLRE
 70
     0
  9
$DIMCLRT
 70
     0
  9
$DIMTFAC
 40
1.0
  9
$DIMGAP
 40
0.09
  9
$LUNITS
 70
     2
  9
$LUPREC
 70
     4
  9
$SKETCHINC
 40
0.1
  9
$FILLETRAD
 40
0.0
  9
$AUNITS
 70
     0
  9
$AUPREC
 70
     4
  9
$MENU
  1
E:\r13\win\SUPPORT\ACAD
  9
$ELEVATION
 40
0.0
  9
$PELEVATION
 40
0.0
  9
$THICKNESS
 40
0.0
  9
$LIMCHECK
 70
     0
  9
$BLIPMODE
 70
     0
  9
$CHAMFERA
 40
0.0
  9
$CHAMFERB
 40
0.0
  9
$SKPOLY
 70
     0
  9
$TDCREATE
 40
2449840.6499421299
  9
$TDUPDATE
 40
2456598.5880906251
  9
$TDINDWG
 40
0.0001031597
  9
$TDUSRTIMER
 40
0.0001031597
  9
$USRTIMER
 70
     1
  9
$ANGBASE
 50
0.0
  9
$ANGDIR
 70
     0
  9
$PDMODE
 70
     0
  9
$PDSIZE
 40
0.0
  9
$PLINEWID
 40
0.0
  9
$COORDS
 70
     1
  9
$SPLFRAME
 70
     0
  9
$SPLINETYPE
 70
     6
  9
$SPLINESEGS
 70
     8
  9
$ATTDIA
 70
     0
  9
$ATTREQ
 70
     1
  9
$HANDLING
 70
     1
  9
$HANDSEED
  5
215
  9
$SURFTAB1
 70
     6
  9
$SURFTAB2
 70
     6
  9
$SURFTYPE
 70
     6
  9
$SURFU
 70
     6
  9
$SURFV
 70
     6
  9
$UCSNAME
  2

  9
$UCSORG
 10
0.0
 20
0.0
 30
0.0
  9
$UCSXDIR
 10
1.0
 20
0.0
 30
0.0
  9
$UCSYDIR
 10
0.0
 20
1.0
 30
0.0
  9
$PUCSNAME
  2

  9
$PUCSORG
 10
0.0
 20
0.0
 30
0.0
  9
$PUCSXDIR
 10
1.0
 20
0.0
 30
0.0
  9
$PUCSYDIR
 10
0.0
 20
1.0
 30
0.0
  9
$USERI1
 70
     0
  9
$USERI2
 70
     1
  9
$USERI3
 70
     0
  9
$USERI4
 70
     0
  9
$USERI5
 70
     0
  9
$USERR1
 40
0.0
  9
$USERR2
 40
0.0
  9
$USERR3
 40
0.0
  9
$USERR4
 40
0.0
  9
$USERR5
 40
0.0
  9
$WORLDVIEW
 70
     1
  9
$SHADEDGE
 70
     3
  9
$SHADEDIF
 70
    70
  9
$TILEMODE
 70
     1
  9
$MAXACTVP
 70
    16
  9
$PLIMCHECK
 70
     0
  9
$PEXTMIN
 10
1.0000000000000000E+020
 20
1.0000000000000000E+020
 30
1.0000000000000000E+020
  9
$PEXTMAX
 10
-1.0000000000000000E+020
 20
-1.0000000000000000E+020
 30
-1.0000000000000000E+020
  9
$PLIMMIN
 10
0.0
 20
0.0
  9
$PLIMMAX
 10
12.0
 20
9.0
  9
$UNITMODE
 70
     0
  9
$VISRETAIN
 70
     0
  9
$PLINEGEN
 70
     0
  9
$PSLTSCALE
 70
     0
  0
ENDSEC
  0
SECTION
  2
TABLES
  0
TABLE
  2
VPORT
 70
     1
  0
VPORT
  2
*ACTIVE
 70
     0
 10
0.0
 20
0.0
 11
1.0
 21
1.0
 12
195.0581083320873
 22
133.5127261426681
 13
0.0
 23
0.0
 14
10.0
 24
10.0
 15
10.0
 25
10.0
 16
0.0
 26
0.0
 36
1.0
 17
0.0
 27
0.0
 37
0.0
 40
275.42274993631997
 41
1.831871345029239
 42
50.0
 43
0.0
 44
0.0
 50
0.0
 51
0.0
 71
     0
 72
   500
 73
     1
 74
     0
 75
     0
 76
     0
 77
     0
 78
     2
  0
ENDTAB
  0
TABLE
  2
LTYPE
 70
     3
  0
LTYPE
  2
CONTINUOUS
 70
     0
  3
Solid Line
 72
    65
 73
     0
 40
0.0
  0
LTYPE
  2
CENTER
 70
     0
  3
____ _ ____ _ ____ _ ____ _ ____ _ ____ _ ____
 72
    65
 73
     4
 40
2.0
 49
1.25
 49
-0.25
 49
0.25
 49
-0.25
  0
LTYPE
  2
PHANTOM2
 70
     0
  3
___ _ _ ___ _ _ ___ _ _ ___ _ _
 72
    65
 73
     6
 40
1.25
 49
0.625
 49
-0.125
 49
0.125
 49
-0.125
 49
0.125
 49
-0.125
  0
ENDTAB
  0
TABLE
  2
LAYER
 70
     2
  0
LAYER
  2
0
 70
     0
 62
     7
  6
CONTINUOUS
  0
LAYER
  2
1
 70
     0
 62
     1
  6
CENTER
  0
ENDTAB
  0
TABLE
  2
STYLE
 70
     2
  0
STYLE
  2
STANDARD
 70
     0
 40
0.0
 41
1.0
 50
0.0
 71
     0
 42
0.2
  3
TXT
  4
BIGFONT
  0
STYLE
  2
STANDARD1
 70
     0
 40
0.0
 41
1.0
 50
0.0
 71
     0
 42
3.0
  3
txt
  4

  0
ENDTAB
  0
TABLE
  2
VIEW
 70
     1
  0
VIEW
  2
ALL
 70
     0
 40
270.0
 10
220.99159663865549
 20
135.0
 41
0.0
 11
0.0
 21
0.0
 31
1.0
 12
0.0
 22
0.0
 32
0.0
 42
0.0
 43
0.0
 44
0.0
 50
0.0
 71
     0
  0
ENDTAB
  0
TABLE
  2
UCS
 70
     0
  0
ENDTAB
  0
TABLE
  2
APPID
 70
     3
  0
APPID
  2
ACAD
 70
     0
  0
APPID
  2
ACAD_MLEADERVER
 70
     0
  0
APPID
  2
ACAD_NAV_VCDISPLAY
 70
     0
  0
ENDTAB
  0
TABLE
  2
DIMSTYLE
 70
     1
  0
DIMSTYLE
  2
STANDARD
 70
     0
  3

  4

  5

  6

  7

 40
1.0
 41
0.18
 42
0.0625
 43
0.38
 44
0.18
 45
0.0
 46
0.0
 47
0.0
 48
0.0
140
0.18
141
0.09
142
0.0
143
25.399999999999999
144
1.0
145
0.0
146
1.0
147
0.09
 71
     0
 72
     0
 73
     1
 74
     1
 75
     0
 76
     0
 77
     0
 78
     0
170
     0
171
     2
172
     0
173
     0
174
     0
175
     0
176
     0
177
     0
178
     0
  0
ENDTAB
  0
ENDSEC
  0
SECTION
  2
BLOCKS
  0
BLOCK
  8
0
  2
$MODEL_SPACE
 70
     0
 10
0.0
 20
0.0
 30
0.0
  3
$MODEL_SPACE
  1

  0
ENDBLK
  5
CD
  8
0
  0
BLOCK
 67
     1
  8
0
  2
$PAPER_SPACE
 70
     0
 10
0.0
 20
0.0
 30
0.0
  3
$PAPER_SPACE
  1

  0
ENDBLK
  5
CB
 67
     1
  8
0
  0
ENDSEC
  0
SECTION
  2
ENTITIES
  0
ARC
  5
3C
  8
0
 10
126.3569320101807
 20
178.09101447788339
 30
0.0
 40
4.0
 50
360.0
 51
90.0
  0
ARC
  5
3D
  8
0
 10
54.356932010180721
 20
178.09101447788339
 30
0.0
 40
4.0
 50
90.0
 51
180.0
  0
ARC
  5
3E
  8
0
 10
54.356932010180678
 20
106.09101447788341
 30
0.0
 40
4.0
 50
180.0
 51
269.99999999999989
  0
ARC
  5
3F
  8
0
 10
126.3569320101807
 20
106.09101447788341
 30
0.0
 40
4.0
 50
270.0
 51
360.0
  0
LINE
  5
40
  8
0
 10
52.356932010180692
 20
104.09101447788341
 30
0.0
 11
52.356932010180742
 21
180.09101447788339
 31
0.0
  0
LINE
  5
41
  8
0
 10
128.35693201018071
 20
104.09101447788331
 30
0.0
 11
52.356932010180692
 21
104.09101447788341
 31
0.0
  0
LINE
  5
42
  8
0
 10
128.35693201018071
 20
180.09101447788331
 30
0.0
 11
128.35693201018071
 21
104.09101447788331
 31
0.0
  0
LINE
  5
43
  8
0
 10
52.356932010180742
 20
180.09101447788339
 30
0.0
 11
128.35693201018071
 21
180.09101447788331
 31
0.0
  0
LINE
  5
44
  8
0
 10
54.356932010180721
 20
182.09101447788339
 30
0.0
 11
126.3569320101807
 21
182.09101447788339
 31
0.0
  0
LINE
  5
45
  8
0
 10
50.356932010180692
 20
106.09101447788341
 30
0.0
 11
50.356932010180707
 21
178.09101447788339
 31
0.0
  0
LINE
  5
46
  8
0
 10
126.3569320101807
 20
102.09101447788341
 30
0.0
 11
54.356932010180678
 21
102.09101447788341
 31
0.0
  0
LINE
  5
47
  8
0
 10
130.35693201018071
 20
178.09101447788339
 30
0.0
 11
130.35693201018071
 21
106.09101447788341
 31
0.0
  0
LINE
  5
48
  8
0
 10
196.0273988923187
 20
182.09101447788339
 30
0.0
 11
196.0273988923187
 21
102.09101447788341
 31
0.0
  0
LINE
  5
49
  8
0
 10
197.5273988923187
 20
182.09101447788339
 30
0.0
 11
196.0273988923187
 21
182.09101447788339
 31
0.0
  0
LINE
  5
4A
  8
0
 10
200.0273988923187
 20
104.59101447788341
 30
0.0
 11
200.0273988923187
 21
179.59101447788339
 31
0.0
  0
LINE
  5
4B
  8
0
 10
196.0273988923187
 20
102.09101447788341
 30
0.0
 11
197.5273988923187
 21
102.09101447788341
 31
0.0
  0
LINE
  5
4C
  8
1
 10
90.356932010180685
 20
192.09101447788339
 30
0.0
 11
90.356932010180685
 21
92.091014477883363
 31
0.0
  0
LINE
  5
4D
  8
1
 10
40.356932010180692
 20
142.09101447788339
 30
0.0
 11
140.35693201018071
 21
142.09101447788339
 31
0.0
  0
LINE
  5
4E
  8
1
 10
210.0273988923187
 20
142.09101447788339
 30
0.0
 11
179.78679888115221
 21
142.09101447788339
 31
0.0
  0
ARC
  5
4F
  8
0
 10
197.5273988923187
 20
179.59101447788339
 30
0.0
 40
2.5
 50
0.0
 51
90.0
  0
ARC
  5
50
  8
0
 10
197.5273988923187
 20
104.59101447788341
 30
0.0
 40
2.5
 50
270.0
 51
0.0
  0
LINE
  5
51
  8
0
 10
56.856932010180742
 20
169.6910144778833
 30
0.0
 11
56.856932010180742
 21
154.4910144778834
 31
0.0
  0
LINE
  5
52
  8
0
 10
52.856932010180742
 20
166.1410144778834
 30
0.0
 11
52.856932010180742
 21
158.04101447788341
 31
0.0
  0
LINE
  5
53
  8
0
 10
54.856932010180742
 20
158.04101447788341
 30
0.0
 11
54.856932010180742
 21
154.49101447788351
 31
0.0
  0
LINE
  5
54
  8
0
 10
54.85693201018077
 20
166.1410144778834
 30
0.0
 11
54.856932010180742
 21
169.6910144778833
 31
0.0
  0
LINE
  5
55
  8
1
 10
62.967517082210833
 20
162.09101447788339
 30
0.0
 11
44.454325336359233
 21
162.09101447788339
 31
0.0
  0
LINE
  5
56
  8
0
 10
97.956932010180708
 20
179.59101447788339
 30
0.0
 11
82.756932010180705
 21
179.59101447788339
 31
0.0
  0
LINE
  5
57
  8
0
 10
82.756932010180705
 20
179.59101447788339
 30
0.0
 11
82.756932010180705
 21
175.59101447788339
 31
0.0
  0
LINE
  5
58
  8
0
 10
82.756932010180705
 20
175.59101447788339
 30
0.0
 11
97.956932010180708
 21
175.59101447788339
 31
0.0
  0
LINE
  5
59
  8
0
 10
97.956932010180708
 20
175.59101447788339
 30
0.0
 11
97.956932010180708
 21
179.59101447788339
 31
0.0
  0
LINE
  5
5A
  8
0
 10
97.956932010180708
 20
104.59101447788341
 30
0.0
 11
82.756932010180705
 21
104.59101447788341
 31
0.0
  0
LINE
  5
5B
  8
0
 10
82.756932010180705
 20
104.59101447788341
 30
0.0
 11
82.756932010180705
 21
108.59101447788341
 31
0.0
  0
LINE
  5
5C
  8
0
 10
82.756932010180705
 20
108.59101447788341
 30
0.0
 11
97.956932010180708
 21
108.59101447788341
 31
0.0
  0
LINE
  5
5D
  8
0
 10
97.956932010180708
 20
108.59101447788341
 30
0.0
 11
97.956932010180708
 21
104.59101447788341
 31
0.0
  0
LINE
  5
5E
  8
0
 10
196.0273988923187
 20
104.59101447788341
 30
0.0
 11
187.02739889231859
 21
104.59101447788331
 31
0.0
  0
LINE
  5
5F
  8
0
 10
187.02739889231859
 20
104.59101447788331
 30
0.0
 11
187.02739889231859
 21
108.59101447788341
 31
0.0
  0
LINE
  5
60
  8
0
 10
187.02739889231859
 20
108.59101447788341
 30
0.0
 11
196.02739889231881
 21
108.59101447788341
 31
0.0
  0
LINE
  5
61
  8
0
 10
187.02739889231859
 20
175.59101447788339
 30
0.0
 11
196.02739889231881
 21
175.59101447788339
 31
0.0
  0
LINE
  5
62
  8
0
 10
187.02739889231859
 20
179.59101447788339
 30
0.0
 11
187.02739889231859
 21
175.59101447788339
 31
0.0
  0
LINE
  5
63
  8
0
 10
196.0273988923187
 20
179.59101447788339
 30
0.0
 11
187.02739889231859
 21
179.59101447788339
 31
0.0
  0
LINE
  5
64
  8
0
 10
52.856932010180742
 20
158.04101447788341
 30
0.0
 11
54.856932010180742
 21
158.04101447788341
 31
0.0
  0
LINE
  5
65
  8
0
 10
52.856932010180742
 20
166.1410144778834
 30
0.0
 11
54.85693201018077
 21
166.1410144778834
 31
0.0
  0
LINE
  5
66
  8
1
 10
182.39854336150859
 20
162.0847635010156
 30
0.0
 11
203.2924992043593
 21
162.0847635010156
 31
0.0
  0
LINE
  5
67
  8
0
 10
187.02739889231859
 20
169.67851252414781
 30
0.0
 11
187.02739889231859
 21
154.49101447788351
 31
0.0
  0
LINE
  5
68
  8
0
 10
56.856932010180742
 20
154.49101447788351
 30
0.0
 11
54.856932010180742
 21
154.49101447788351
 31
0.0
  0
LINE
  5
69
  8
0
 10
56.856932010180742
 20
169.6910144778833
 30
0.0
 11
54.856932010180742
 21
169.6910144778833
 31
0.0
  0
LINE
  5
6A
  8
0
 10
123.8569320101807
 20
169.6910144778833
 30
0.0
 11
125.8569320101806
 21
169.6910144778833
 31
0.0
  0
LINE
  5
6B
  8
0
 10
123.8569320101807
 20
154.49101447788351
 30
0.0
 11
125.8569320101806
 21
154.49101447788351
 31
0.0
  0
LINE
  5
6C
  8
0
 10
127.8569320101806
 20
166.1410144778834
 30
0.0
 11
125.8569320101806
 21
166.1410144778834
 31
0.0
  0
LINE
  5
6D
  8
0
 10
127.8569320101806
 20
158.04101447788341
 30
0.0
 11
125.8569320101806
 21
158.04101447788341
 31
0.0
  0
LINE
  5
6E
  8
0
 10
125.8569320101806
 20
166.1410144778834
 30
0.0
 11
125.8569320101806
 21
169.6910144778833
 31
0.0
  0
LINE
  5
6F
  8
0
 10
125.8569320101806
 20
158.04101447788341
 30
0.0
 11
125.8569320101806
 21
154.49101447788351
 31
0.0
  0
LINE
  5
70
  8
0
 10
127.8569320101806
 20
166.1410144778834
 30
0.0
 11
127.8569320101806
 21
158.04101447788341
 31
0.0
  0
LINE
  5
71
  8
0
 10
123.8569320101806
 20
169.6910144778833
 30
0.0
 11
123.8569320101806
 21
154.4910144778834
 31
0.0
  0
LINE
  5
72
  8
1
 10
117.74634693815059
 20
162.09101447788339
 30
0.0
 11
136.25953868400219
 21
162.09101447788339
 31
0.0
  0
LINE
  5
73
  8
1
 10
117.74634693815059
 20
122.09101447788341
 30
0.0
 11
136.25953868400219
 21
122.09101447788341
 31
0.0
  0
LINE
  5
74
  8
0
 10
123.8569320101806
 20
114.4910144778833
 30
0.0
 11
123.8569320101806
 21
129.6910144778833
 31
0.0
  0
LINE
  5
75
  8
0
 10
127.8569320101806
 20
118.04101447788329
 30
0.0
 11
127.8569320101806
 21
126.1410144778833
 31
0.0
  0
LINE
  5
76
  8
0
 10
125.8569320101806
 20
126.1410144778834
 30
0.0
 11
125.8569320101806
 21
129.69101447788319
 31
0.0
  0
LINE
  5
77
  8
0
 10
125.8569320101806
 20
118.04101447788329
 30
0.0
 11
125.8569320101806
 21
114.4910144778835
 31
0.0
  0
LINE
  5
78
  8
0
 10
127.8569320101806
 20
126.1410144778834
 30
0.0
 11
125.8569320101806
 21
126.1410144778834
 31
0.0
  0
LINE
  5
79
  8
0
 10
127.8569320101806
 20
118.04101447788329
 30
0.0
 11
125.8569320101806
 21
118.04101447788329
 31
0.0
  0
LINE
  5
7A
  8
0
 10
123.8569320101807
 20
129.69101447788319
 30
0.0
 11
125.8569320101806
 21
129.69101447788319
 31
0.0
  0
LINE
  5
7B
  8
0
 10
123.8569320101807
 20
114.4910144778835
 30
0.0
 11
125.8569320101806
 21
114.4910144778835
 31
0.0
  0
LINE
  5
7C
  8
0
 10
56.856932010180742
 20
114.4910144778835
 30
0.0
 11
54.856932010180742
 21
114.4910144778835
 31
0.0
  0
LINE
  5
7D
  8
0
 10
56.856932010180742
 20
129.69101447788319
 30
0.0
 11
54.856932010180742
 21
129.69101447788319
 31
0.0
  0
LINE
  5
7E
  8
0
 10
52.856932010180742
 20
118.04101447788329
 30
0.0
 11
54.85693201018077
 21
118.04101447788329
 31
0.0
  0
LINE
  5
7F
  8
0
 10
52.856932010180742
 20
126.1410144778834
 30
0.0
 11
54.856932010180742
 21
126.1410144778834
 31
0.0
  0
LINE
  5
80
  8
1
 10
62.967517082210833
 20
122.09101447788341
 30
0.0
 11
44.454325336359233
 21
122.09101447788341
 31
0.0
  0
LINE
  5
81
  8
0
 10
54.85693201018077
 20
118.04101447788329
 30
0.0
 11
54.856932010180742
 21
114.4910144778835
 31
0.0
  0
LINE
  5
82
  8
0
 10
54.856932010180742
 20
126.1410144778834
 30
0.0
 11
54.856932010180742
 21
129.69101447788319
 31
0.0
  0
LINE
  5
83
  8
0
 10
52.856932010180742
 20
118.04101447788329
 30
0.0
 11
52.856932010180742
 21
126.1410144778833
 31
0.0
  0
LINE
  5
84
  8
0
 10
56.856932010180742
 20
114.4910144778833
 30
0.0
 11
56.856932010180742
 21
129.6910144778833
 31
0.0
  0
LINE
  5
85
  8
0
 10
196.0273988923187
 20
154.49101447788351
 30
0.0
 11
187.02739889231859
 21
154.49101447788351
 31
0.0
  0
LINE
  5
86
  8
0
 10
196.0273988923187
 20
166.1410144778834
 30
0.0
 11
187.02739889231859
 21
166.1410144778834
 31
0.0
  0
LINE
  5
87
  8
0
 10
196.02739889231881
 20
158.04101447788341
 30
0.0
 11
187.02739889231859
 21
158.04101447788341
 31
0.0
  0
LINE
  5
88
  8
0
 10
196.0273988923187
 20
169.67851252414781
 30
0.0
 11
187.02739889231859
 21
169.67851252414781
 31
0.0
  0
LINE
  5
89
  8
0
 10
196.0273988923187
 20
129.6910144778833
 30
0.0
 11
187.02739889231859
 21
129.6910144778833
 31
0.0
  0
LINE
  5
8A
  8
0
 10
187.02739889231859
 20
114.50351643161891
 30
0.0
 11
187.02739889231859
 21
129.6910144778833
 31
0.0
  0
LINE
  5
8B
  8
0
 10
196.0273988923187
 20
114.50351643161891
 30
0.0
 11
187.02739889231859
 21
114.50351643161891
 31
0.0
  0
LINE
  5
8C
  8
0
 10
196.02739889231881
 20
126.1410144778834
 30
0.0
 11
187.02739889231859
 21
126.1410144778834
 31
0.0
  0
LINE
  5
8D
  8
0
 10
196.0273988923187
 20
118.04101447788329
 30
0.0
 11
187.02739889231859
 21
118.04101447788329
 31
0.0
  0
LINE
  5
8E
  8
1
 10
182.39854336150859
 20
122.0972654547511
 30
0.0
 11
203.2924992043593
 21
122.0972654547511
 31
0.0
  0
CIRCLE
  5
8F
  8
0
 10
259.09804745459559
 20
108.5910144778924
 30
0.0
 40
4.1500000000000004
  0
CIRCLE
  5
90
  8
0
 10
326.09804745459559
 20
108.5910144778924
 30
0.0
 40
4.1500000000000004
  0
CIRCLE
  5
91
  8
0
 10
326.09804745459559
 20
175.59101447787441
 30
0.0
 40
4.1500000000000004
  0
CIRCLE
  5
92
  8
0
 10
259.09804745459559
 20
175.59101447787441
 30
0.0
 40
4.1500000000000004
  0
ARC
  5
93
  8
0
 10
256.59804745459559
 20
106.0910144778835
 30
0.0
 40
4.0
 50
180.0
 51
270.00000000000011
  0
ARC
  5
94
  8
0
 10
256.59804745459559
 20
178.09101447788339
 30
0.0
 40
4.0
 50
90.000000000000014
 51
180.0
  0
ARC
  5
95
  8
0
 10
328.5980474545957
 20
178.09101447788339
 30
0.0
 40
4.0
 50
0.0000000000000649
 51
90.000000000000014
  0
ARC
  5
96
  8
0
 10
328.5980474545957
 20
106.0910144778835
 30
0.0
 40
4.0
 50
270.00000000000011
 51
0.000000000000014
  0
LINE
  5
97
  8
0
 10
252.59804745459559
 20
178.09101447788339
 30
0.0
 11
252.59804745459559
 21
106.0910144778835
 31
0.0
  0
LINE
  5
98
  8
0
 10
328.5980474545957
 20
182.09101447788339
 30
0.0
 11
256.59804745459559
 21
182.09101447788339
 31
0.0
  0
LINE
  5
99
  8
0
 10
332.5980474545957
 20
106.0910144778835
 30
0.0
 11
332.5980474545957
 21
178.09101447788339
 31
0.0
  0
LINE
  5
9A
  8
0
 10
256.59804745459559
 20
102.0910144778835
 30
0.0
 11
328.5980474545957
 21
102.0910144778835
 31
0.0
  0
LINE
  5
9B
  8
1
 10
242.59804745459559
 20
142.09101447788339
 30
0.0
 11
342.59804745459559
 21
142.09101447788339
 31
0.0
  0
LINE
  5
9C
  8
1
 10
292.59804745459559
 20
192.09101447788339
 30
0.0
 11
292.59804745459559
 21
92.091014477883505
 31
0.0
  0
TEXT
  5
184
  8
0
 62
     3
 10
0.0
 20
0.0
 30
0.0
 40
10.0
  1
CEC8080
  7
STANDARD1
  0
ENDSEC
  0
EOF
