  0
SECTION
  2
HEADER
  9
$ACADVER
  1
AC1009
  9
$INSBASE
 10
0.0
 20
0.0
 30
0.0
  9
$EXTMIN
 10
-0.0005
 20
-2.960436562073669
 30
0.0
  9
$EXTMAX
 10
357.82302256500049
 20
212.59442446043161
 30
0.0
  9
$LIMMIN
 10
0.0
 20
0.0
  9
$LIMMAX
 10
375.0
 20
270.0
  9
$ORTHOMODE
 70
     1
  9
$REGENMODE
 70
     1
  9
$FILLMODE
 70
     1
  9
$QTEXTMODE
 70
     0
  9
$MIRRTEXT
 70
     0
  9
$DRAGMODE
 70
     2
  9
$LTSCALE
 40
10.0
  9
$OSMODE
 70
  3071
  9
$ATTMODE
 70
     1
  9
$TEXTSIZE
 40
0.2
  9
$TRACEWID
 40
0.05
  9
$TEXTSTYLE
  7
STANDARD
  9
$CLAYER
  8
0
  9
$CELTYPE
  6
BYLAYER
  9
$CECOLOR
 62
   256
  9
$DIMSCALE
 40
1.0
  9
$DIMASZ
 40
3.0
  9
$DIMEXO
 40
2.0
  9
$DIMDLI
 40
0.38
  9
$DIMRND
 40
0.0
  9
$DIMDLE
 40
0.0
  9
$DIMEXE
 40
2.0
  9
$DIMTP
 40
0.0
  9
$DIMTM
 40
0.0
  9
$DIMTXT
 40
3.0
  9
$DIMCEN
 40
0.0
  9
$DIMTSZ
 40
0.0
  9
$DIMTOL
 70
     0
  9
$DIMLIM
 70
     0
  9
$DIMTIH
 70
     0
  9
$DIMTOH
 70
     0
  9
$DIMSE1
 70
     0
  9
$DIMSE2
 70
     0
  9
$DIMTAD
 70
     1
  9
$DIMZIN
 70
     0
  9
$DIMBLK
  1

  9
$DIMASO
 70
     0
  9
$DIMSHO
 70
     0
  9
$DIMPOST
  1

  9
$DIMAPOST
  1

  9
$DIMALT
 70
     0
  9
$DIMALTD
 70
     2
  9
$DIMALTF
 40
25.399999999999999
  9
$DIMLFAC
 40
1.0
  9
$DIMTOFL
 70
     1
  9
$DIMTVP
 40
1.6000000000000001
  9
$DIMTIX
 70
     1
  9
$DIMSOXD
 70
     0
  9
$DIMSAH
 70
     0
  9
$DIMBLK1
  1

  9
$DIMBLK2
  1

  9
$DIMSTYLE
  2
STANDARD
  9
$DIMCLRD
 70
     0
  9
$DIMCLRE
 70
     0
  9
$DIMCLRT
 70
     0
  9
$DIMTFAC
 40
1.0
  9
$DIMGAP
 40
0.09
  9
$LUNITS
 70
     2
  9
$LUPREC
 70
     4
  9
$SKETCHINC
 40
0.1
  9
$FILLETRAD
 40
0.0
  9
$AUNITS
 70
     0
  9
$AUPREC
 70
     4
  9
$MENU
  1
E:\r13\win\SUPPORT\ACAD
  9
$ELEVATION
 40
0.0
  9
$PELEVATION
 40
0.0
  9
$THICKNESS
 40
0.0
  9
$LIMCHECK
 70
     0
  9
$BLIPMODE
 70
     0
  9
$CHAMFERA
 40
0.0
  9
$CHAMFERB
 40
0.0
  9
$SKPOLY
 70
     0
  9
$TDCREATE
 40
2449840.6294097221
  9
$TDUPDATE
 40
2456598.588538148
  9
$TDINDWG
 40
0.026886875
  9
$TDUSRTIMER
 40
0.026886875
  9
$USRTIMER
 70
     1
  9
$ANGBASE
 50
0.0
  9
$ANGDIR
 70
     0
  9
$PDMODE
 70
     0
  9
$PDSIZE
 40
0.0
  9
$PLINEWID
 40
0.0
  9
$COORDS
 70
     1
  9
$SPLFRAME
 70
     0
  9
$SPLINETYPE
 70
     6
  9
$SPLINESEGS
 70
     8
  9
$ATTDIA
 70
     0
  9
$ATTREQ
 70
     1
  9
$HANDLING
 70
     1
  9
$HANDSEED
  5
42C
  9
$SURFTAB1
 70
     6
  9
$SURFTAB2
 70
     6
  9
$SURFTYPE
 70
     6
  9
$SURFU
 70
     6
  9
$SURFV
 70
     6
  9
$UCSNAME
  2

  9
$UCSORG
 10
0.0
 20
0.0
 30
0.0
  9
$UCSXDIR
 10
1.0
 20
0.0
 30
0.0
  9
$UCSYDIR
 10
0.0
 20
1.0
 30
0.0
  9
$PUCSNAME
  2

  9
$PUCSORG
 10
0.0
 20
0.0
 30
0.0
  9
$PUCSXDIR
 10
1.0
 20
0.0
 30
0.0
  9
$PUCSYDIR
 10
0.0
 20
1.0
 30
0.0
  9
$USERI1
 70
     0
  9
$USERI2
 70
     1
  9
$USERI3
 70
     1
  9
$USERI4
 70
     0
  9
$USERI5
 70
     0
  9
$USERR1
 40
0.0
  9
$USERR2
 40
0.0
  9
$USERR3
 40
0.0
  9
$USERR4
 40
0.0
  9
$USERR5
 40
0.0
  9
$WORLDVIEW
 70
     1
  9
$SHADEDGE
 70
     3
  9
$SHADEDIF
 70
    70
  9
$TILEMODE
 70
     1
  9
$MAXACTVP
 70
    16
  9
$PLIMCHECK
 70
     0
  9
$PEXTMIN
 10
1.0000000000000000E+020
 20
1.0000000000000000E+020
 30
1.0000000000000000E+020
  9
$PEXTMAX
 10
-1.0000000000000000E+020
 20
-1.0000000000000000E+020
 30
-1.0000000000000000E+020
  9
$PLIMMIN
 10
0.0
 20
0.0
  9
$PLIMMAX
 10
12.0
 20
9.0
  9
$UNITMODE
 70
     0
  9
$VISRETAIN
 70
     0
  9
$PLINEGEN
 70
     0
  9
$PSLTSCALE
 70
     0
  0
ENDSEC
  0
SECTION
  2
TABLES
  0
TABLE
  2
VPORT
 70
     1
  0
VPORT
  2
*ACTIVE
 70
     0
 10
0.0
 20
0.0
 11
1.0
 21
1.0
 12
195.0578723315511
 22
133.51247338845729
 13
0.0
 23
0.0
 14
10.0
 24
10.0
 15
10.0
 25
10.0
 16
0.0
 26
0.0
 36
1.0
 17
0.0
 27
0.0
 37
0.0
 40
275.42325997844938
 41
1.831871345029239
 42
50.0
 43
0.0
 44
0.0
 50
0.0
 51
0.0
 71
     0
 72
   500
 73
     1
 74
     0
 75
     0
 76
     0
 77
     0
 78
     2
  0
ENDTAB
  0
TABLE
  2
LTYPE
 70
     4
  0
LTYPE
  2
CONTINUOUS
 70
     0
  3
Solid Line
 72
    65
 73
     0
 40
0.0
  0
LTYPE
  2
CENTER
 70
     0
  3
____ _ ____ _ ____ _ ____ _ ____ _ ____ _ ____
 72
    65
 73
     4
 40
2.0
 49
1.25
 49
-0.25
 49
0.25
 49
-0.25
  0
LTYPE
  2
HIDDEN
 70
     0
  3
_ _ _ _ _ _ _ _ _ _ _ _ _ _ _ _ _ _ _ _ _ _ _
 72
    65
 73
     2
 40
0.375
 49
0.25
 49
-0.125
  0
LTYPE
  2
PHANTOM2
 70
     0
  3
___ _ _ ___ _ _ ___ _ _ ___ _ _
 72
    65
 73
     6
 40
1.25
 49
0.625
 49
-0.125
 49
0.125
 49
-0.125
 49
0.125
 49
-0.125
  0
ENDTAB
  0
TABLE
  2
LAYER
 70
     4
  0
LAYER
  2
0
 70
     0
 62
     7
  6
CONTINUOUS
  0
LAYER
  2
1
 70
     0
 62
     1
  6
CENTER
  0
LAYER
  2
2
 70
     0
 62
     2
  6
HIDDEN
  0
LAYER
  2
ITTEN
 70
     0
 62
     1
  6
CENTER
  0
ENDTAB
  0
TABLE
  2
STYLE
 70
     2
  0
STYLE
  2
STANDARD
 70
     0
 40
0.0
 41
1.0
 50
0.0
 71
     0
 42
0.2
  3
TXT
  4
BIGFONT
  0
STYLE
  2
STANDARD1
 70
     0
 40
0.0
 41
1.0
 50
0.0
 71
     0
 42
3.0
  3
txt
  4

  0
ENDTAB
  0
TABLE
  2
VIEW
 70
     1
  0
VIEW
  2
ALL
 70
     0
 40
270.0
 10
220.99159663865549
 20
135.0
 41
0.0
 11
0.0
 21
0.0
 31
1.0
 12
0.0
 22
0.0
 32
0.0
 42
0.0
 43
0.0
 44
0.0
 50
0.0
 71
     0
  0
ENDTAB
  0
TABLE
  2
UCS
 70
     0
  0
ENDTAB
  0
TABLE
  2
APPID
 70
     4
  0
APPID
  2
ACAD
 70
     0
  0
APPID
  2
DCO15
 70
     0
  0
APPID
  2
ACAD_MLEADERVER
 70
     0
  0
APPID
  2
ACAD_NAV_VCDISPLAY
 70
     0
  0
ENDTAB
  0
TABLE
  2
DIMSTYLE
 70
     1
  0
DIMSTYLE
  2
STANDARD
 70
     0
  3

  4

  5

  6

  7

 40
1.0
 41
0.18
 42
0.0625
 43
0.38
 44
0.18
 45
0.0
 46
0.0
 47
0.0
 48
0.0
140
0.18
141
0.09
142
0.0
143
25.399999999999999
144
1.0
145
0.0
146
1.0
147
0.09
 71
     0
 72
     0
 73
     1
 74
     1
 75
     0
 76
     0
 77
     0
 78
     0
170
     0
171
     2
172
     0
173
     0
174
     0
175
     0
176
     0
177
     0
178
     0
  0
ENDTAB
  0
ENDSEC
  0
SECTION
  2
BLOCKS
  0
BLOCK
  8
0
  2
$MODEL_SPACE
 70
     0
 10
0.0
 20
0.0
 30
0.0
  3
$MODEL_SPACE
  1

  0
ENDBLK
  5
8A
  8
0
  0
BLOCK
 67
     1
  8
0
  2
$PAPER_SPACE
 70
     0
 10
0.0
 20
0.0
 30
0.0
  3
$PAPER_SPACE
  1

  0
ENDBLK
  5
88
 67
     1
  8
0
  0
BLOCK
  8
0
  2
BATU
 70
     0
 10
0.0
 20
0.0
 30
0.0
  3
BATU
  1

  0
LINE
  5
2E4
  8
ITTEN
 10
0.5
 20
0.0
 30
0.0
 11
-0.5
 21
0.0
 31
0.0
  0
LINE
  5
2E5
  8
ITTEN
 10
0.0
 20
0.5
 30
0.0
 11
0.0
 21
-0.5
 31
0.0
  0
ENDBLK
  5
2E7
  8
0
  0
ENDSEC
  0
SECTION
  2
ENTITIES
  0
LINE
  5
3E
  8
0
 10
139.4644561358694
 20
101.29946043165459
 30
0.0
 11
289.46445613586951
 21
101.29946043165459
 31
0.0
  0
LINE
  5
3F
  8
0
 10
139.4644561358694
 20
131.29946043165469
 30
0.0
 11
139.4644561358694
 21
101.29946043165459
 31
0.0
  0
LINE
  5
40
  8
0
 10
289.4644561358694
 20
131.29946043165469
 30
0.0
 11
289.46445613586951
 21
101.29946043165459
 31
0.0
  0
LINE
  5
4A
  8
0
 10
139.46445613586951
 20
187.59442446043161
 30
0.0
 11
139.4644561358694
 21
212.59442446043161
 31
0.0
  0
LINE
  5
4B
  8
0
 10
289.46445613586951
 20
187.5944244604315
 30
0.0
 11
289.46445613586951
 21
212.59442446043161
 31
0.0
  0
LINE
  5
50
  8
1
 10
134.4644561358694
 20
200.09442446043161
 30
0.0
 11
294.4644561358694
 21
200.09442446043161
 31
0.0
  0
LINE
  5
10E
  8
0
 10
139.4644561358694
 20
200.59442448418159
 30
0.0
 11
289.46445613586951
 21
200.59442448418159
 31
0.0
  0
LINE
  5
10F
  8
0
 10
139.4644561358694
 20
200.09442446043161
 30
0.0
 11
289.46445613586951
 21
200.09442446043161
 31
0.0
  0
LINE
  5
110
  8
0
 10
139.4644561358694
 20
199.59442443668161
 30
0.0
 11
289.46445613586951
 21
199.59442443668161
 31
0.0
  0
LINE
  5
26B
  8
0
 10
84.105889916838322
 20
101.29946043165459
 30
0.0
 11
95.105889915438325
 21
101.29946043165459
 31
0.0
  0
LINE
  5
26C
  8
0
 10
91.355889766338308
 20
115.0994602721547
 30
0.0
 11
88.355889740338341
 21
115.0994602721547
 31
0.0
  0
LINE
  5
26D
  8
0
 10
89.305889989138336
 20
122.1994603183547
 30
0.0
 11
91.355889766338308
 21
122.1994603183547
 31
0.0
  0
LINE
  5
26E
  8
0
 10
95.105889915438325
 20
131.29945976105469
 30
0.0
 11
89.305889989138336
 21
131.29945976105469
 31
0.0
  0
LINE
  5
26F
  8
1
 10
83.605889893038324
 20
96.299460431654666
 30
0.0
 11
83.605889893038324
 21
136.29945976105469
 31
0.0
  0
LINE
  5
270
  8
0
 10
88.80588990723831
 20
130.7994606104547
 30
0.0
 11
88.80588990723831
 21
122.6994613316547
 31
0.0
  0
LINE
  5
271
  8
0
 10
78.405889878838309
 20
122.6994613316547
 30
0.0
 11
78.405889878838309
 21
130.7994606104547
 31
0.0
  0
LINE
  5
272
  8
0
 10
71.105889706738338
 20
130.29945959715471
 30
0.0
 11
71.105889706738338
 21
102.2994604791547
 31
0.0
  0
LINE
  5
273
  8
0
 10
88.355889740338341
 20
115.0994602721547
 30
0.0
 11
88.355889740338341
 21
109.6994601321547
 31
0.0
  0
LINE
  5
274
  8
0
 10
78.855890045738334
 20
109.6994601321547
 30
0.0
 11
78.855890045738334
 21
115.0994602721547
 31
0.0
  0
LINE
  5
275
  8
0
 10
72.105889870738309
 20
101.29946043165459
 30
0.0
 11
83.105889869338313
 21
101.29946043165459
 31
0.0
  0
LINE
  5
276
  8
0
 10
83.105889869338313
 20
109.6994601321547
 30
0.0
 11
78.855890045738334
 21
109.6994601321547
 31
0.0
  0
ARC
  5
277
  8
0
 10
72.105889893038324
 20
102.29946043165459
 30
0.0
 40
1.0
 50
180.0
 51
270.0
  0
LINE
  5
278
  8
0
 10
83.605889893038324
 20
101.7994604553547
 30
0.0
 11
84.105889916838322
 21
101.29946043165459
 31
0.0
  0
LINE
  5
279
  8
0
 10
83.105889869338313
 20
101.29946043165459
 30
0.0
 11
83.605889893038324
 21
101.7994604553547
 31
0.0
  0
LINE
  5
27A
  8
0
 10
88.355889740338341
 20
109.6994601321547
 30
0.0
 11
84.105889916838322
 21
109.6994601321547
 31
0.0
  0
LINE
  5
27B
  8
0
 10
84.105889916838322
 20
109.6994601321547
 30
0.0
 11
83.605889893038324
 21
109.1994600501547
 31
0.0
  0
LINE
  5
27C
  8
0
 10
83.605889893038324
 20
109.1994600501547
 30
0.0
 11
83.105889869338313
 21
109.6994601321547
 31
0.0
  0
LINE
  5
27D
  8
0
 10
75.855890019738325
 20
115.0994602721547
 30
0.0
 11
75.855890019738325
 21
122.1994603183547
 31
0.0
  0
LINE
  5
27E
  8
0
 10
78.855890045738334
 20
115.0994602721547
 30
0.0
 11
75.855890019738325
 21
115.0994602721547
 31
0.0
  0
LINE
  5
27F
  8
0
 10
75.855890019738325
 20
122.1994603183547
 30
0.0
 11
77.905889796938339
 21
122.1994603183547
 31
0.0
  0
ARC
  5
280
  8
0
 10
77.905889893038307
 20
122.6994604316547
 30
0.0
 40
0.5
 50
270.0
 51
0.0
  0
ARC
  5
281
  8
0
 10
89.305889893038312
 20
122.6994604316547
 30
0.0
 40
0.5
 50
180.0
 51
270.0
  0
LINE
  5
282
  8
0
 10
77.905889796938339
 20
131.29945976105469
 30
0.0
 11
72.105889870738309
 21
131.29945976105469
 31
0.0
  0
ARC
  5
283
  8
0
 10
72.105889893038324
 20
130.29946043165469
 30
0.0
 40
1.0
 50
90.0
 51
180.0
  0
ARC
  5
284
  8
0
 10
77.905889893038307
 20
130.79946043165469
 30
0.0
 40
0.5
 50
0.0
 51
90.0
  0
ARC
  5
285
  8
0
 10
89.305889893038312
 20
130.79946043165469
 30
0.0
 40
0.5
 50
90.0
 51
180.0
  0
LINE
  5
286
  8
0
 10
96.105890079338337
 20
102.2994604791547
 30
0.0
 11
96.105890079338337
 21
130.29945959715471
 31
0.0
  0
ARC
  5
287
  8
0
 10
95.105889893038324
 20
102.29946043165459
 30
0.0
 40
1.0
 50
270.0
 51
0.0
  0
LINE
  5
288
  8
0
 10
91.355889766338308
 20
122.1994603183547
 30
0.0
 11
91.355889766338308
 21
115.0994602721547
 31
0.0
  0
ARC
  5
289
  8
0
 10
95.105889893038324
 20
130.29946043165469
 30
0.0
 40
1.0
 50
0.0
 51
90.0
  0
LINE
  5
28C
  8
0
 10
139.4644561358694
 20
131.29946043165469
 30
0.0
 11
289.4644561358694
 21
131.29946043165469
 31
0.0
  0
LINE
  5
28D
  8
0
 10
340.12302236450063
 20
130.7994606104547
 30
0.0
 11
340.12302236450063
 21
122.6994613316547
 31
0.0
  0
LINE
  5
28E
  8
0
 10
350.5230223929006
 20
122.6994613316547
 30
0.0
 11
350.5230223929006
 21
130.7994606104547
 31
0.0
  0
LINE
  5
28F
  8
0
 10
357.82302256500049
 20
130.29945959715471
 30
0.0
 11
357.82302256500049
 21
102.2994604791547
 31
0.0
  0
LINE
  5
290
  8
0
 10
332.82302219240051
 20
102.2994604791547
 30
0.0
 11
332.82302219240051
 21
130.29945959715471
 31
0.0
  0
LINE
  5
291
  8
1
 10
345.3230223787005
 20
96.299460431654666
 30
0.0
 11
345.32302237870061
 21
136.29945976105469
 31
0.0
  0
ARC
  5
292
  8
0
 10
356.82302237870061
 20
102.29946043165459
 30
0.0
 40
1.0
 50
270.0
 51
0.000000000000007
  0
LINE
  5
293
  8
0
 10
344.82302235490062
 20
101.29946043165459
 30
0.0
 11
333.8230223563005
 21
101.29946043165459
 31
0.0
  0
LINE
  5
294
  8
0
 10
356.82302240100063
 20
101.29946043165459
 30
0.0
 11
345.82302240240062
 21
101.29946043165459
 31
0.0
  0
LINE
  5
295
  8
0
 10
345.32302237870061
 20
101.7994604553547
 30
0.0
 11
344.82302235490062
 21
101.29946043165459
 31
0.0
  0
LINE
  5
296
  8
0
 10
345.82302240240062
 20
101.29946043165459
 30
0.0
 11
345.32302237870061
 21
101.7994604553547
 31
0.0
  0
ARC
  5
297
  8
0
 10
333.82302237870061
 20
102.29946043165459
 30
0.0
 40
1.0
 50
180.0
 51
270.0
  0
LINE
  5
298
  8
0
 10
340.57302253140051
 20
109.6994601321547
 30
0.0
 11
344.82302235490062
 21
109.6994601321547
 31
0.0
  0
LINE
  5
299
  8
0
 10
353.07302225200061
 20
115.0994602721547
 30
0.0
 11
353.07302225200061
 21
122.1994603183547
 31
0.0
  0
LINE
  5
29A
  8
0
 10
350.07302222600049
 20
115.0994602721547
 30
0.0
 11
353.07302225200061
 21
115.0994602721547
 31
0.0
  0
LINE
  5
29B
  8
0
 10
350.07302222600049
 20
109.6994601321547
 30
0.0
 11
350.07302222600049
 21
115.0994602721547
 31
0.0
  0
LINE
  5
29C
  8
0
 10
345.82302240240062
 20
109.6994601321547
 30
0.0
 11
350.07302222600049
 21
109.6994601321547
 31
0.0
  0
LINE
  5
29D
  8
0
 10
344.82302235490062
 20
109.6994601321547
 30
0.0
 11
345.32302237870061
 21
109.1994600501547
 31
0.0
  0
LINE
  5
29E
  8
0
 10
345.32302237870061
 20
109.1994600501547
 30
0.0
 11
345.82302240240062
 21
109.6994601321547
 31
0.0
  0
ARC
  5
29F
  8
0
 10
351.02302237870049
 20
122.6994604316547
 30
0.0
 40
0.5
 50
180.0
 51
270.0
  0
LINE
  5
2A0
  8
0
 10
353.07302225200061
 20
122.1994603183547
 30
0.0
 11
351.02302247480048
 21
122.1994603183547
 31
0.0
  0
LINE
  5
2A1
  8
0
 10
337.5730225054005
 20
122.1994603183547
 30
0.0
 11
337.5730225054005
 21
115.0994602721547
 31
0.0
  0
LINE
  5
2A2
  8
0
 10
340.57302253140051
 20
115.0994602721547
 30
0.0
 11
340.57302253140051
 21
109.6994601321547
 31
0.0
  0
LINE
  5
2A3
  8
0
 10
337.5730225054005
 20
115.0994602721547
 30
0.0
 11
340.57302253140051
 21
115.0994602721547
 31
0.0
  0
LINE
  5
2A4
  8
0
 10
339.62302228260052
 20
122.1994603183547
 30
0.0
 11
337.5730225054005
 21
122.1994603183547
 31
0.0
  0
ARC
  5
2A5
  8
0
 10
339.62302237870063
 20
122.6994604316547
 30
0.0
 40
0.5
 50
270.0
 51
0.000000000000007
  0
ARC
  5
2A6
  8
0
 10
356.82302237870061
 20
130.29946043165469
 30
0.0
 40
1.0
 50
0.000000000000007
 51
90.0
  0
ARC
  5
2A7
  8
0
 10
351.02302237870049
 20
130.79946043165469
 30
0.0
 40
0.5
 50
90.0
 51
180.0
  0
LINE
  5
2A8
  8
0
 10
351.02302247480048
 20
131.29945976105469
 30
0.0
 11
356.82302240100063
 21
131.29945976105469
 31
0.0
  0
LINE
  5
2A9
  8
0
 10
333.8230223563005
 20
131.29945976105469
 30
0.0
 11
339.62302228260052
 21
131.29945976105469
 31
0.0
  0
ARC
  5
2AA
  8
0
 10
339.62302237870063
 20
130.79946043165469
 30
0.0
 40
0.5
 50
0.000000000000007
 51
90.0
  0
ARC
  5
2AB
  8
0
 10
333.82302237870061
 20
130.29946043165469
 30
0.0
 40
1.0
 50
90.0
 51
180.0
  0
LINE
  5
2CB
  8
0
 10
139.4644561358694
 20
212.59442446043161
 30
0.0
 11
289.46445613586951
 21
212.59442446043161
 31
0.0
  0
LINE
  5
2CC
  8
0
 10
139.46445613586951
 20
187.59442446043161
 30
0.0
 11
289.46445613586951
 21
187.5944244604315
 31
0.0
  0
LINE
  5
2CD
  8
0
 10
139.4644561358694
 20
205.2944244604316
 30
0.0
 11
289.46445613586951
 21
205.29442446043149
 31
0.0
  0
LINE
  5
2CE
  8
0
 10
139.4644561358694
 20
204.8444243077316
 30
0.0
 11
289.46445613586951
 21
204.84442430773149
 31
0.0
  0
LINE
  5
2CF
  8
0
 10
139.46445613586951
 20
194.89442446043159
 30
0.0
 11
289.46445613586951
 21
194.89442446043159
 31
0.0
  0
LINE
  5
2D0
  8
0
 10
139.4644561358694
 20
195.34442461313151
 30
0.0
 11
289.46445613586951
 21
195.34442461313171
 31
0.0
  0
LINE
  5
2D1
  8
2
 10
139.4644561358694
 20
207.84442433373161
 30
0.0
 11
289.46445613586951
 21
207.8444243337315
 31
0.0
  0
LINE
  5
2D2
  8
2
 10
139.4644561358694
 20
192.34442458713161
 30
0.0
 11
289.46445613586951
 21
192.34442458713161
 31
0.0
  0
INSERT
  5
2E8
  8
0
  2
BATU
 10
0.0
 20
0.0
 30
0.0
 41
0.001
 42
0.001
 43
0.001
  0
TEXT
  5
39B
  8
0
 62
     3
 10
0.0
 20
0.0
 30
0.0
 40
10.0
  1
CG50AL-2M
  7
STANDARD1
  0
ENDSEC
  0
EOF
