  0
SECTION
  2
HEADER
  9
$ACADVER
  1
AC1009
  9
$INSBASE
 10
0.0
 20
0.0
 30
0.0
  9
$EXTMIN
 10
0.0
 20
-2.960436562073669
 30
0.0
  9
$EXTMAX
 10
709.02238239883582
 20
452.99594673955198
 30
0.0
  9
$LIMMIN
 10
0.0
 20
0.0
  9
$LIMMAX
 10
375.0
 20
270.0
  9
$ORTHOMODE
 70
     1
  9
$REGENMODE
 70
     1
  9
$FILLMODE
 70
     1
  9
$QTEXTMODE
 70
     0
  9
$MIRRTEXT
 70
     0
  9
$DRAGMODE
 70
     2
  9
$LTSCALE
 40
10.0
  9
$OSMODE
 70
  3071
  9
$ATTMODE
 70
     1
  9
$TEXTSIZE
 40
0.2
  9
$TRACEWID
 40
0.05
  9
$TEXTSTYLE
  7
STANDARD
  9
$CLAYER
  8
0
  9
$CELTYPE
  6
BYLAYER
  9
$CECOLOR
 62
   256
  9
$DIMSCALE
 40
1.0
  9
$DIMASZ
 40
3.0
  9
$DIMEXO
 40
2.0
  9
$DIMDLI
 40
0.38
  9
$DIMRND
 40
0.0
  9
$DIMDLE
 40
0.0
  9
$DIMEXE
 40
2.0
  9
$DIMTP
 40
0.0
  9
$DIMTM
 40
0.0
  9
$DIMTXT
 40
3.0
  9
$DIMCEN
 40
0.0
  9
$DIMTSZ
 40
0.0
  9
$DIMTOL
 70
     0
  9
$DIMLIM
 70
     0
  9
$DIMTIH
 70
     0
  9
$DIMTOH
 70
     0
  9
$DIMSE1
 70
     0
  9
$DIMSE2
 70
     0
  9
$DIMTAD
 70
     1
  9
$DIMZIN
 70
     0
  9
$DIMBLK
  1

  9
$DIMASO
 70
     0
  9
$DIMSHO
 70
     0
  9
$DIMPOST
  1

  9
$DIMAPOST
  1

  9
$DIMALT
 70
     0
  9
$DIMALTD
 70
     2
  9
$DIMALTF
 40
25.399999999999999
  9
$DIMLFAC
 40
1.0
  9
$DIMTOFL
 70
     1
  9
$DIMTVP
 40
1.6000000000000001
  9
$DIMTIX
 70
     1
  9
$DIMSOXD
 70
     0
  9
$DIMSAH
 70
     0
  9
$DIMBLK1
  1

  9
$DIMBLK2
  1

  9
$DIMSTYLE
  2
STANDARD
  9
$DIMCLRD
 70
     0
  9
$DIMCLRE
 70
     0
  9
$DIMCLRT
 70
     0
  9
$DIMTFAC
 40
1.0
  9
$DIMGAP
 40
0.09
  9
$LUNITS
 70
     2
  9
$LUPREC
 70
     4
  9
$SKETCHINC
 40
0.1
  9
$FILLETRAD
 40
0.0
  9
$AUNITS
 70
     0
  9
$AUPREC
 70
     4
  9
$MENU
  1
E:\r13\win\SUPPORT\ACAD
  9
$ELEVATION
 40
0.0
  9
$PELEVATION
 40
0.0
  9
$THICKNESS
 40
0.0
  9
$LIMCHECK
 70
     0
  9
$BLIPMODE
 70
     0
  9
$CHAMFERA
 40
0.0
  9
$CHAMFERB
 40
0.0
  9
$SKPOLY
 70
     0
  9
$TDCREATE
 40
2449840.6291782409
  9
$TDUPDATE
 40
2456598.5890598842
  9
$TDINDWG
 40
0.1371232639
  9
$TDUSRTIMER
 40
0.1371232639
  9
$USRTIMER
 70
     1
  9
$ANGBASE
 50
0.0
  9
$ANGDIR
 70
     0
  9
$PDMODE
 70
     0
  9
$PDSIZE
 40
0.0
  9
$PLINEWID
 40
0.0
  9
$COORDS
 70
     1
  9
$SPLFRAME
 70
     0
  9
$SPLINETYPE
 70
     6
  9
$SPLINESEGS
 70
     8
  9
$ATTDIA
 70
     0
  9
$ATTREQ
 70
     1
  9
$HANDLING
 70
     1
  9
$HANDSEED
  5
1AC0
  9
$SURFTAB1
 70
     6
  9
$SURFTAB2
 70
     6
  9
$SURFTYPE
 70
     6
  9
$SURFU
 70
     6
  9
$SURFV
 70
     6
  9
$UCSNAME
  2

  9
$UCSORG
 10
0.0
 20
0.0
 30
0.0
  9
$UCSXDIR
 10
1.0
 20
0.0
 30
0.0
  9
$UCSYDIR
 10
0.0
 20
1.0
 30
0.0
  9
$PUCSNAME
  2

  9
$PUCSORG
 10
0.0
 20
0.0
 30
0.0
  9
$PUCSXDIR
 10
1.0
 20
0.0
 30
0.0
  9
$PUCSYDIR
 10
0.0
 20
1.0
 30
0.0
  9
$USERI1
 70
     0
  9
$USERI2
 70
     1
  9
$USERI3
 70
     1
  9
$USERI4
 70
     0
  9
$USERI5
 70
     0
  9
$USERR1
 40
0.0
  9
$USERR2
 40
0.0
  9
$USERR3
 40
0.0
  9
$USERR4
 40
0.0
  9
$USERR5
 40
0.0
  9
$WORLDVIEW
 70
     1
  9
$SHADEDGE
 70
     3
  9
$SHADEDIF
 70
    70
  9
$TILEMODE
 70
     1
  9
$MAXACTVP
 70
    16
  9
$PLIMCHECK
 70
     0
  9
$PEXTMIN
 10
1.0000000000000000E+020
 20
1.0000000000000000E+020
 30
1.0000000000000000E+020
  9
$PEXTMAX
 10
-1.0000000000000000E+020
 20
-1.0000000000000000E+020
 30
-1.0000000000000000E+020
  9
$PLIMMIN
 10
0.0
 20
0.0
  9
$PLIMMAX
 10
12.0
 20
9.0
  9
$UNITMODE
 70
     0
  9
$VISRETAIN
 70
     0
  9
$PLINEGEN
 70
     0
  9
$PSLTSCALE
 70
     0
  0
ENDSEC
  0
SECTION
  2
TABLES
  0
TABLE
  2
VPORT
 70
     1
  0
VPORT
  2
*ACTIVE
 70
     0
 10
0.0
 20
0.0
 11
1.0
 21
1.0
 12
367.14634483970559
 22
225.01185795930419
 13
0.0
 23
0.0
 14
10.0
 24
10.0
 15
10.0
 25
10.0
 16
0.0
 26
0.0
 36
1.0
 17
0.0
 27
0.0
 37
0.0
 40
460.08547703308318
 41
1.831871345029239
 42
50.0
 43
0.0
 44
0.0
 50
0.0
 51
0.0
 71
     0
 72
   500
 73
     1
 74
     0
 75
     0
 76
     0
 77
     0
 78
     2
  0
ENDTAB
  0
TABLE
  2
LTYPE
 70
     4
  0
LTYPE
  2
CONTINUOUS
 70
     0
  3
Solid Line
 72
    65
 73
     0
 40
0.0
  0
LTYPE
  2
CENTER
 70
     0
  3
____ _ ____ _ ____ _ ____ _ ____ _ ____ _ ____
 72
    65
 73
     4
 40
2.0
 49
1.25
 49
-0.25
 49
0.25
 49
-0.25
  0
LTYPE
  2
HIDDEN
 70
     0
  3
_ _ _ _ _ _ _ _ _ _ _ _ _ _ _ _ _ _ _ _ _ _ _
 72
    65
 73
     2
 40
0.375
 49
0.25
 49
-0.125
  0
LTYPE
  2
PHANTOM2
 70
     0
  3
___ _ _ ___ _ _ ___ _ _ ___ _ _
 72
    65
 73
     6
 40
1.25
 49
0.625
 49
-0.125
 49
0.125
 49
-0.125
 49
0.125
 49
-0.125
  0
ENDTAB
  0
TABLE
  2
LAYER
 70
     4
  0
LAYER
  2
0
 70
     0
 62
     7
  6
CONTINUOUS
  0
LAYER
  2
1
 70
     0
 62
     1
  6
CENTER
  0
LAYER
  2
2
 70
     0
 62
     2
  6
HIDDEN
  0
LAYER
  2
3
 70
     0
 62
     3
  6
CONTINUOUS
  0
ENDTAB
  0
TABLE
  2
STYLE
 70
     2
  0
STYLE
  2
STANDARD
 70
     0
 40
0.0
 41
1.0
 50
0.0
 71
     0
 42
0.2
  3
TXT
  4
BIGFONT
  0
STYLE
  2
STANDARD1
 70
     0
 40
0.0
 41
1.0
 50
0.0
 71
     0
 42
3.0
  3
txt
  4

  0
ENDTAB
  0
TABLE
  2
VIEW
 70
     1
  0
VIEW
  2
ALL
 70
     0
 40
270.0
 10
220.99159663865549
 20
135.0
 41
0.0
 11
0.0
 21
0.0
 31
1.0
 12
0.0
 22
0.0
 32
0.0
 42
0.0
 43
0.0
 44
0.0
 50
0.0
 71
     0
  0
ENDTAB
  0
TABLE
  2
UCS
 70
     0
  0
ENDTAB
  0
TABLE
  2
APPID
 70
     3
  0
APPID
  2
ACAD
 70
     0
  0
APPID
  2
ACAD_MLEADERVER
 70
     0
  0
APPID
  2
ACAD_NAV_VCDISPLAY
 70
     0
  0
ENDTAB
  0
TABLE
  2
DIMSTYLE
 70
     1
  0
DIMSTYLE
  2
STANDARD
 70
     0
  3

  4

  5

  6

  7

 40
1.0
 41
0.18
 42
0.0625
 43
0.38
 44
0.18
 45
0.0
 46
0.0
 47
0.0
 48
0.0
140
0.18
141
0.09
142
0.0
143
25.399999999999999
144
1.0
145
0.0
146
1.0
147
0.09
 71
     0
 72
     0
 73
     1
 74
     1
 75
     0
 76
     0
 77
     0
 78
     0
170
     0
171
     2
172
     0
173
     0
174
     0
175
     0
176
     0
177
     0
178
     0
  0
ENDTAB
  0
ENDSEC
  0
SECTION
  2
BLOCKS
  0
BLOCK
  8
0
  2
$MODEL_SPACE
 70
     0
 10
0.0
 20
0.0
 30
0.0
  3
$MODEL_SPACE
  1

  0
ENDBLK
  5
11A
  8
0
  0
BLOCK
 67
     1
  8
0
  2
$PAPER_SPACE
 70
     0
 10
0.0
 20
0.0
 30
0.0
  3
$PAPER_SPACE
  1

  0
ENDBLK
  5
118
 67
     1
  8
0
  0
ENDSEC
  0
SECTION
  2
ENTITIES
  0
POLYLINE
  5
138D
  8
3
 66
     1
 10
0.0
 20
0.0
 30
0.0
  0
VERTEX
  5
138E
  8
3
 10
480.54242288361093
 20
452.9959467395517
 30
0.0
 42
-0.0445622328408474
  0
VERTEX
  5
138F
  8
3
 10
482.66738891488399
 20
448.92904613240722
 30
0.0
 42
-0.1325777678637587
  0
VERTEX
  5
1390
  8
3
 10
484.16757089214428
 20
437.34646423374562
 30
0.0
 42
-0.1938301544198951
  0
VERTEX
  5
1391
  8
3
 10
479.14801630766368
 20
428.5332290537072
 30
0.0
 42
0.2240641754069686
  0
VERTEX
  5
1392
  8
3
 10
475.20709779093289
 20
420.574824264131
 30
0.0
 42
0.1384795886430192
  0
VERTEX
  5
1393
  8
3
 10
477.27088578536899
 20
412.69853039896719
 30
0.0
 42
0.1201367491654302
  0
VERTEX
  5
1394
  8
3
 10
483.77798284169279
 20
405.9959467395517
 30
0.0
  0
SEQEND
  5
1395
  8
3
  0
POLYLINE
  5
1396
  8
3
 66
     1
 10
0.0
 20
0.0
 30
0.0
  0
VERTEX
  5
1397
  8
3
 10
489.11331118806902
 20
452.99594673955181
 30
0.0
 42
-0.0445622328408484
  0
VERTEX
  5
1398
  8
3
 10
491.23827721934208
 20
448.92904613240722
 30
0.0
 42
-0.1325777678637587
  0
VERTEX
  5
1399
  8
3
 10
492.73845919660238
 20
437.34646423374562
 30
0.0
 42
-0.1938301544198951
  0
VERTEX
  5
139A
  8
3
 10
487.71890461212178
 20
428.5332290537072
 30
0.0
 42
0.2240641754069686
  0
VERTEX
  5
139B
  8
3
 10
483.77798609539099
 20
420.574824264131
 30
0.0
 42
0.1384795886430192
  0
VERTEX
  5
139C
  8
3
 10
485.84177408982708
 20
412.69853039896719
 30
0.0
 42
0.1201367491654302
  0
VERTEX
  5
139D
  8
3
 10
492.34887114615088
 20
405.9959467395517
 30
0.0
  0
SEQEND
  5
139E
  8
3
  0
LINE
  5
14BB
  8
0
 10
143.16781645220411
 20
405.99594673955193
 30
0.0
 11
483.7779828416937
 21
405.99594673955107
 31
0.0
  0
LINE
  5
14BC
  8
0
 10
143.16781645220379
 20
452.99594673955198
 30
0.0
 11
480.54242288361132
 21
452.99594673955102
 31
0.0
  0
LINE
  5
14BD
  8
0
 10
143.16781645220411
 20
427.99594673955198
 30
0.0
 11
478.52265174755053
 21
427.99594673955198
 31
0.0
  0
LINE
  5
14BE
  8
0
 10
143.16781645220411
 20
452.99594673955198
 30
0.0
 11
143.16781645220411
 21
405.99594673955193
 31
0.0
  0
LINE
  5
14BF
  8
0
 10
613.16781645220408
 20
452.99594673955158
 30
0.0
 11
613.16781645220408
 21
405.99594673955193
 31
0.0
  0
ARC
  5
14C0
  8
0
 10
243.16781645220411
 20
418.2959467395512
 30
0.0
 40
4.25
 50
0.0
 51
180.0
  0
ARC
  5
14C1
  8
0
 10
243.16781645220411
 20
414.2959467395512
 30
0.0
 40
4.25
 50
180.0
 51
0.0
  0
LINE
  5
14C2
  8
0
 10
247.41781645220411
 20
418.2959467395512
 30
0.0
 11
247.41781645220411
 21
414.2959467395512
 31
0.0
  0
LINE
  5
14C3
  8
0
 10
238.91781645220411
 20
418.2959467395512
 30
0.0
 11
238.91781645220411
 21
414.2959467395512
 31
0.0
  0
LINE
  5
14C4
  8
1
 10
250.41781645220411
 20
418.2959467395512
 30
0.0
 11
235.91781645220411
 21
418.2959467395512
 31
0.0
  0
LINE
  5
14C5
  8
1
 10
243.16781645220411
 20
411.04594673955131
 30
0.0
 11
243.16781645220411
 21
425.54594673955131
 31
0.0
  0
LINE
  5
14C6
  8
1
 10
250.41781645220411
 20
414.2959467395512
 30
0.0
 11
235.91781645220411
 21
414.2959467395512
 31
0.0
  0
LINE
  5
14C7
  8
1
 10
243.16781645220411
 20
407.04594673955131
 30
0.0
 11
243.16781645220411
 21
421.54594673955131
 31
0.0
  0
LINE
  5
14C8
  8
1
 10
513.16781645220408
 20
407.04594673955131
 30
0.0
 11
513.16781645220408
 21
421.54594673955131
 31
0.0
  0
LINE
  5
14C9
  8
1
 10
513.16781645220408
 20
411.04594673955131
 30
0.0
 11
513.16781645220408
 21
425.54594673955131
 31
0.0
  0
ARC
  5
14CA
  8
0
 10
513.16781645220408
 20
418.29594673955108
 30
0.0
 40
4.25
 50
0.0
 51
180.0
  0
LINE
  5
14CB
  8
1
 10
505.91781645220402
 20
414.2959467395512
 30
0.0
 11
520.41781645220408
 21
414.2959467395512
 31
0.0
  0
LINE
  5
14CC
  8
1
 10
505.91781645220402
 20
418.2959467395512
 30
0.0
 11
520.41781645220408
 21
418.2959467395512
 31
0.0
  0
ARC
  5
14CD
  8
0
 10
513.16781645220408
 20
414.29594673955108
 30
0.0
 40
4.25
 50
180.0
 51
0.0
  0
LINE
  5
14CE
  8
0
 10
517.41781645220397
 20
418.2959467395512
 30
0.0
 11
517.41781645220397
 21
414.2959467395512
 31
0.0
  0
LINE
  5
14CF
  8
0
 10
508.91781645220402
 20
418.2959467395512
 30
0.0
 11
508.91781645220402
 21
414.2959467395512
 31
0.0
  0
LINE
  5
14D0
  8
1
 10
443.16781645220408
 20
407.04594673955131
 30
0.0
 11
443.16781645220408
 21
421.54594673955131
 31
0.0
  0
LINE
  5
14D1
  8
1
 10
443.16781645220408
 20
411.04594673955131
 30
0.0
 11
443.16781645220408
 21
425.54594673955131
 31
0.0
  0
ARC
  5
14D2
  8
0
 10
443.16781645220408
 20
418.2959467395512
 30
0.0
 40
4.25
 50
0.0
 51
180.0
  0
LINE
  5
14D3
  8
1
 10
450.41781645220402
 20
414.2959467395512
 30
0.0
 11
435.91781645220408
 21
414.2959467395512
 31
0.0
  0
LINE
  5
14D4
  8
1
 10
450.41781645220402
 20
418.2959467395512
 30
0.0
 11
435.91781645220408
 21
418.2959467395512
 31
0.0
  0
ARC
  5
14D5
  8
0
 10
443.16781645220408
 20
414.2959467395512
 30
0.0
 40
4.25
 50
180.0
 51
0.0
  0
LINE
  5
14D6
  8
0
 10
438.91781645220402
 20
418.2959467395512
 30
0.0
 11
438.91781645220402
 21
414.2959467395512
 31
0.0
  0
LINE
  5
14D7
  8
0
 10
447.41781645220402
 20
418.2959467395512
 30
0.0
 11
447.41781645220402
 21
414.2959467395512
 31
0.0
  0
LINE
  5
14D8
  8
0
 10
492.34887114615088
 20
405.9959467395517
 30
0.0
 11
613.16781645220408
 21
405.9959467395517
 31
0.0
  0
LINE
  5
14D9
  8
0
 10
487.09354005200862
 20
427.99594673955198
 30
0.0
 11
613.16781645220408
 21
427.99594673955198
 31
0.0
  0
LINE
  5
14DA
  8
0
 10
489.11331118806902
 20
452.99594673955181
 30
0.0
 11
613.16781645220408
 21
452.99594673955119
 31
0.0
  0
LINE
  5
14EF
  8
0
 10
143.16781645220411
 20
350.10553062752638
 30
0.0
 11
480.54242288361132
 21
350.10553062752638
 31
0.0
  0
LINE
  5
14F0
  8
0
 10
143.16781645220411
 20
319.10553062752638
 30
0.0
 11
482.64616909818591
 21
319.10553062752638
 31
0.0
  0
LINE
  5
14F1
  8
0
 10
143.16781645220411
 20
323.10553062752638
 30
0.0
 11
478.63053440425438
 21
323.10553062752598
 31
0.0
  0
LINE
  5
14F2
  8
1
 10
133.16781645220411
 20
334.60553062752649
 30
0.0
 11
623.16781645220408
 21
334.60553062752649
 31
0.0
  0
LINE
  5
14F3
  8
0
 10
143.16781645220411
 20
350.10553062752638
 30
0.0
 11
143.16781645220411
 21
319.10553062752632
 31
0.0
  0
LINE
  5
14F4
  8
0
 10
613.16781645220408
 20
350.10553062752632
 30
0.0
 11
613.16781645220419
 21
319.10553062752638
 31
0.0
  0
LINE
  5
14F7
  8
0
 10
489.11331118806908
 20
263.215114515501
 30
0.0
 11
613.16781645220408
 21
263.215114515501
 31
0.0
  0
LINE
  5
14F9
  8
0
 10
492.34887114615123
 20
216.21511451550089
 30
0.0
 11
613.16781645220408
 21
216.2151145155016
 31
0.0
  0
LINE
  5
14FA
  8
0
 10
143.16781645220411
 20
263.21511451550077
 30
0.0
 11
480.54242288361058
 21
263.21511451550163
 31
0.0
  0
LINE
  5
14FC
  8
0
 10
143.16781645220379
 20
216.21511451550069
 30
0.0
 11
483.77798284169182
 21
216.2151145155018
 31
0.0
  0
LINE
  5
14FD
  8
0
 10
143.16781645220411
 20
216.21511451550069
 30
0.0
 11
143.16781645220411
 21
263.21511451550077
 31
0.0
  0
LINE
  5
14FE
  8
1
 10
243.16781645220411
 20
262.1651145155015
 30
0.0
 11
243.16781645220411
 21
247.6651145155015
 31
0.0
  0
LINE
  5
14FF
  8
1
 10
243.16781645220411
 20
258.1651145155015
 30
0.0
 11
243.16781645220411
 21
243.6651145155015
 31
0.0
  0
ARC
  5
1500
  8
0
 10
243.16781645220411
 20
250.9151145155015
 30
0.0
 40
4.25
 50
180.0
 51
0.0
  0
LINE
  5
1501
  8
1
 10
250.41781645220411
 20
254.9151145155015
 30
0.0
 11
235.91781645220411
 21
254.9151145155015
 31
0.0
  0
LINE
  5
1502
  8
1
 10
250.41781645220411
 20
250.9151145155015
 30
0.0
 11
235.91781645220411
 21
250.9151145155015
 31
0.0
  0
LINE
  5
1503
  8
0
 10
247.41781645220411
 20
250.9151145155015
 30
0.0
 11
247.41781645220411
 21
254.9151145155015
 31
0.0
  0
LINE
  5
1504
  8
0
 10
238.91781645220411
 20
250.9151145155015
 30
0.0
 11
238.91781645220411
 21
254.9151145155015
 31
0.0
  0
ARC
  5
1505
  8
0
 10
243.16781645220411
 20
254.9151145155015
 30
0.0
 40
4.25
 50
0.0
 51
180.0
  0
ARC
  5
1506
  8
0
 10
513.16781645220408
 20
250.91511451550161
 30
0.0
 40
4.25
 50
180.0
 51
0.0
  0
ARC
  5
1507
  8
0
 10
443.16781645220408
 20
250.9151145155015
 30
0.0
 40
4.25
 50
180.0
 51
0.0
  0
LINE
  5
1508
  8
1
 10
443.16781645220408
 20
258.1651145155015
 30
0.0
 11
443.16781645220408
 21
243.6651145155015
 31
0.0
  0
LINE
  5
1509
  8
1
 10
513.16781645220408
 20
258.1651145155015
 30
0.0
 11
513.16781645220408
 21
243.6651145155015
 31
0.0
  0
LINE
  5
151C
  8
1
 10
443.16781645220408
 20
262.1651145155015
 30
0.0
 11
443.16781645220408
 21
247.6651145155015
 31
0.0
  0
LINE
  5
151D
  8
1
 10
513.16781645220408
 20
262.1651145155015
 30
0.0
 11
513.16781645220408
 21
247.6651145155015
 31
0.0
  0
LINE
  5
151E
  8
1
 10
450.41781645220402
 20
250.9151145155015
 30
0.0
 11
435.91781645220408
 21
250.9151145155015
 31
0.0
  0
ARC
  5
151F
  8
0
 10
443.16781645220408
 20
254.9151145155015
 30
0.0
 40
4.25
 50
0.0
 51
180.0
  0
LINE
  5
1520
  8
1
 10
450.41781645220402
 20
254.9151145155015
 30
0.0
 11
435.91781645220408
 21
254.9151145155015
 31
0.0
  0
LINE
  5
1521
  8
0
 10
438.91781645220402
 20
250.9151145155015
 30
0.0
 11
438.91781645220402
 21
254.9151145155015
 31
0.0
  0
LINE
  5
1522
  8
0
 10
447.41781645220402
 20
250.9151145155015
 30
0.0
 11
447.41781645220402
 21
254.9151145155015
 31
0.0
  0
LINE
  5
1523
  8
1
 10
505.91781645220402
 20
250.9151145155015
 30
0.0
 11
520.41781645220408
 21
250.9151145155015
 31
0.0
  0
LINE
  5
1524
  8
1
 10
505.91781645220402
 20
254.9151145155015
 30
0.0
 11
520.41781645220408
 21
254.9151145155015
 31
0.0
  0
LINE
  5
1525
  8
0
 10
517.41781645220397
 20
250.9151145155015
 30
0.0
 11
517.41781645220397
 21
254.9151145155015
 31
0.0
  0
LINE
  5
1526
  8
0
 10
508.91781645220402
 20
250.9151145155015
 30
0.0
 11
508.91781645220402
 21
254.9151145155015
 31
0.0
  0
ARC
  5
1527
  8
0
 10
513.16781645220408
 20
254.91511451550161
 30
0.0
 40
4.25
 50
0.0
 51
180.0
  0
LINE
  5
1528
  8
0
 10
613.16781645220408
 20
216.21511451550111
 30
0.0
 11
613.16781645220408
 21
263.21511451550077
 31
0.0
  0
LINE
  5
154E
  8
1
 10
133.16781645220411
 20
144.824698403475
 30
0.0
 11
623.16781645220408
 21
144.824698403475
 31
0.0
  0
LINE
  5
1550
  8
0
 10
143.16781645220411
 20
160.32469840347511
 30
0.0
 11
480.54242288361132
 21
160.32469840347511
 31
0.0
  0
LINE
  5
1551
  8
0
 10
143.16781645220411
 20
129.3246984034752
 30
0.0
 11
482.64616909818591
 21
129.3246984034752
 31
0.0
  0
LINE
  5
1552
  8
0
 10
143.16781645220411
 20
129.3246984034752
 30
0.0
 11
143.16781645220411
 21
160.3246984034752
 31
0.0
  0
LINE
  5
1553
  8
0
 10
613.16781645220408
 20
129.3246984034752
 30
0.0
 11
613.16781645220419
 21
160.32469840347511
 31
0.0
  0
LINE
  5
1558
  8
0
 10
143.16781645220411
 20
154.82469840347511
 30
0.0
 11
482.7938923550787
 21
154.82469840347531
 31
0.0
  0
LINE
  5
1559
  8
0
 10
143.16781645220411
 20
134.82469840347511
 30
0.0
 11
477.8273270935868
 21
134.82469840347511
 31
0.0
  0
POLYLINE
  5
16FA
  8
3
 66
     1
 10
0.0
 20
0.0
 30
0.0
  0
VERTEX
  5
16FB
  8
3
 10
480.5424228836111
 20
350.10553062752678
 30
0.0
 42
-0.0445622328408474
  0
VERTEX
  5
16FC
  8
3
 10
481.9449004642513
 20
347.42137622681139
 30
0.0
 42
-0.1325777678637587
  0
VERTEX
  5
16FD
  8
3
 10
482.93502056924302
 20
339.7768721736947
 30
0.0
 42
-0.1938301544198951
  0
VERTEX
  5
16FE
  8
3
 10
479.62211454348579
 20
333.96013695486931
 30
0.0
 42
0.2240641754069686
  0
VERTEX
  5
16FF
  8
3
 10
477.02110832244358
 20
328.70758979374909
 30
0.0
 42
0.1384795886430192
  0
VERTEX
  5
1700
  8
3
 10
478.38320839877139
 20
323.50923584274102
 30
0.0
 42
0.1194060817703968
  0
VERTEX
  5
1701
  8
3
 10
482.64616909818591
 20
319.10553062752638
 30
0.0
  0
SEQEND
  5
1702
  8
3
  0
POLYLINE
  5
1703
  8
3
 66
     1
 10
0.0
 20
0.0
 30
0.0
  0
VERTEX
  5
1704
  8
3
 10
489.11331118806908
 20
350.10553062752678
 30
0.0
 42
-0.0445622328408484
  0
VERTEX
  5
1705
  8
3
 10
490.5157887687094
 20
347.42137622681139
 30
0.0
 42
-0.1325777678637587
  0
VERTEX
  5
1706
  8
3
 10
491.50590887370112
 20
339.7768721736947
 30
0.0
 42
-0.1938301544198951
  0
VERTEX
  5
1707
  8
3
 10
488.19300284794389
 20
333.96013695486931
 30
0.0
 42
0.2240641754069686
  0
VERTEX
  5
1708
  8
3
 10
485.59199662690168
 20
328.70758979374909
 30
0.0
 42
0.1384795886430192
  0
VERTEX
  5
1709
  8
3
 10
486.95409670322948
 20
323.50923584274102
 30
0.0
 42
0.1194060817703968
  0
VERTEX
  5
170A
  8
3
 10
491.217057402644
 20
319.10553062752638
 30
0.0
  0
SEQEND
  5
170B
  8
3
  0
LINE
  5
170D
  8
0
 10
491.217057402644
 20
319.10553062752638
 30
0.0
 11
613.16781645220408
 21
319.10553062752638
 31
0.0
  0
LINE
  5
170E
  8
0
 10
487.20142270871253
 20
323.10553062752592
 30
0.0
 11
613.16781645220385
 21
323.10553062752581
 31
0.0
  0
POLYLINE
  5
170F
  8
3
 66
     1
 10
0.0
 20
0.0
 30
0.0
  0
VERTEX
  5
1710
  8
3
 10
489.11331118806908
 20
160.32469840347559
 30
0.0
 42
-0.0445622328408484
  0
VERTEX
  5
1711
  8
3
 10
490.5157887687094
 20
157.64054400276021
 30
0.0
 42
-0.1325777678637587
  0
VERTEX
  5
1712
  8
3
 10
491.50590887370112
 20
149.99603994964349
 30
0.0
 42
-0.1938301544198951
  0
VERTEX
  5
1713
  8
3
 10
488.19300284794389
 20
144.1793047308181
 30
0.0
 42
0.2240641754069686
  0
VERTEX
  5
1714
  8
3
 10
485.59199662690168
 20
138.92675756969791
 30
0.0
 42
0.1384795886430192
  0
VERTEX
  5
1715
  8
3
 10
486.95409670322948
 20
133.7284036186897
 30
0.0
 42
0.1194060817703968
  0
VERTEX
  5
1716
  8
3
 10
491.217057402644
 20
129.3246984034752
 30
0.0
  0
SEQEND
  5
1717
  8
3
  0
POLYLINE
  5
1718
  8
3
 66
     1
 10
0.0
 20
0.0
 30
0.0
  0
VERTEX
  5
1719
  8
3
 10
480.5424228836111
 20
160.32469840347551
 30
0.0
 42
-0.0445622328408474
  0
VERTEX
  5
171A
  8
3
 10
481.9449004642513
 20
157.64054400276021
 30
0.0
 42
-0.1325777678637587
  0
VERTEX
  5
171B
  8
3
 10
482.93502056924302
 20
149.99603994964349
 30
0.0
 42
-0.1938301544198951
  0
VERTEX
  5
171C
  8
3
 10
479.62211454348579
 20
144.1793047308181
 30
0.0
 42
0.2240641754069686
  0
VERTEX
  5
171D
  8
3
 10
477.02110832244358
 20
138.92675756969791
 30
0.0
 42
0.1384795886430192
  0
VERTEX
  5
171E
  8
3
 10
478.38320839877139
 20
133.7284036186897
 30
0.0
 42
0.1194060817703968
  0
VERTEX
  5
171F
  8
3
 10
482.64616909818591
 20
129.3246984034752
 30
0.0
  0
SEQEND
  5
1720
  8
3
  0
LINE
  5
1721
  8
0
 10
489.1133111880693
 20
160.32469840347511
 30
0.0
 11
613.16781645220408
 21
160.32469840347511
 31
0.0
  0
LINE
  5
1722
  8
0
 10
491.36478065953679
 20
154.82469840347531
 30
0.0
 11
613.16781645220419
 21
154.8246984034754
 31
0.0
  0
LINE
  5
1727
  8
0
 10
486.39821539804501
 20
134.82469840347511
 30
0.0
 11
613.16781645220419
 21
134.82469840347511
 31
0.0
  0
LINE
  5
1728
  8
0
 10
491.217057402644
 20
129.3246984034752
 30
0.0
 11
613.16781645220408
 21
129.3246984034752
 31
0.0
  0
LINE
  5
1751
  8
0
 10
65.113250505571614
 20
328.40552681282918
 30
0.0
 11
65.113250505571628
 21
332.05553062752648
 31
0.0
  0
LINE
  5
1752
  8
0
 10
59.913250505571341
 20
328.40552681282941
 30
0.0
 11
65.113250505571614
 21
328.40552681282918
 31
0.0
  0
LINE
  5
1753
  8
0
 10
52.313250505572107
 20
330.50552681282932
 30
0.0
 11
59.913250505571341
 21
330.50552681282932
 31
0.0
  0
LINE
  5
1754
  8
0
 10
59.913250505571341
 20
330.50552681282932
 30
0.0
 11
59.913250505571341
 21
328.40552681282941
 31
0.0
  0
LINE
  5
1755
  8
0
 10
59.913250505571341
 20
340.80553444222357
 30
0.0
 11
65.113250505571614
 21
340.80553444222357
 31
0.0
  0
LINE
  5
1756
  8
0
 10
52.313250505572107
 20
338.70552681282908
 30
0.0
 11
59.913250505571341
 21
338.70552681282908
 31
0.0
  0
LINE
  5
1757
  8
0
 10
59.913250505571341
 20
338.70552681282908
 30
0.0
 11
59.913250505571341
 21
340.80553444222357
 31
0.0
  0
ARC
  5
1784
  8
0
 10
74.313250505572341
 20
347.10553062752638
 30
0.0
 40
3.0
 50
0.0
 51
90.0
  0
ARC
  5
1785
  8
0
 10
78.313250505572341
 20
324.10553062752638
 30
0.0
 40
3.0
 50
180.0
 51
270.0
  0
ARC
  5
1786
  8
0
 10
78.313250505572341
 20
324.10553062752638
 30
0.0
 40
1.0
 50
180.0
 51
270.0
  0
LINE
  5
1789
  8
1
 10
87.013250505572344
 20
314.92123187181852
 30
0.0
 11
87.013250505572344
 21
327.53911242529898
 31
0.0
  0
LINE
  5
178A
  8
1
 10
91.013250505572344
 20
314.92123187181852
 30
0.0
 11
91.013250505572344
 21
327.53911242529898
 31
0.0
  0
ARC
  5
178B
  8
0
 10
97.313250505572341
 20
321.10553062752638
 30
0.0
 40
2.0
 50
270.0
 51
90.0
  0
LINE
  5
178C
  8
0
 10
78.313250505572341
 20
323.10553062752638
 30
0.0
 11
97.313250505572341
 21
323.10553062752638
 31
0.0
  0
LINE
  5
184A
  8
1
 10
47.313250505572327
 20
334.60553062752649
 30
0.0
 11
82.313250505572356
 21
334.60553062752649
 31
0.0
  0
ARC
  5
184B
  8
0
 10
74.313250505572341
 20
347.1055306275266
 30
0.0
 40
1.0
 50
0.0
 51
90.0
  0
LINE
  5
184C
  8
0
 10
52.313250505572341
 20
344.60553062752638
 30
0.0
 11
52.313250505572341
 21
338.70552681282908
 31
0.0
  0
LINE
  5
184D
  8
0
 10
52.313250505572341
 20
324.60553062752638
 30
0.0
 11
52.313250505572341
 21
330.50552681282932
 31
0.0
  0
ARC
  5
184E
  8
0
 10
55.313250505572341
 20
347.1055306275266
 30
0.0
 40
3.0
 50
90.0
 51
180.0
  0
ARC
  5
184F
  8
0
 10
55.313250505572341
 20
347.1055306275266
 30
0.0
 40
1.0
 50
90.0
 51
180.0
  0
ARC
  5
1850
  8
0
 10
74.313250505572341
 20
322.10553062752638
 30
0.0
 40
1.0
 50
270.0
 51
0.0
  0
ARC
  5
1851
  8
0
 10
55.313250505572107
 20
322.10553062752638
 30
0.0
 40
3.0
 50
180.0
 51
270.0
  0
ARC
  5
1852
  8
0
 10
55.313250505572107
 20
322.10553062752638
 30
0.0
 40
1.0
 50
180.0
 51
270.0
  0
LINE
  5
1853
  8
0
 10
54.313250505572341
 20
344.60553062752638
 30
0.0
 11
54.313250505572341
 21
347.1055306275266
 31
0.0
  0
LINE
  5
1854
  8
0
 10
52.313250505572341
 20
344.60553062752638
 30
0.0
 11
52.313250505572569
 21
347.1055306275266
 31
0.0
  0
LINE
  5
1855
  8
0
 10
75.313250505572341
 20
322.10553062752638
 30
0.0
 11
75.313250505572455
 21
347.1055306275266
 31
0.0
  0
LINE
  5
1856
  8
0
 10
55.313250505572107
 20
321.10553062752638
 30
0.0
 11
97.313250505572341
 21
321.10553062752638
 31
0.0
  0
LINE
  5
1857
  8
0
 10
55.313250505572341
 20
348.1055306275266
 30
0.0
 11
74.313250505572341
 21
348.1055306275266
 31
0.0
  0
LINE
  5
1858
  8
0
 10
54.313250505572107
 20
322.10553062752638
 30
0.0
 11
54.313250505572341
 21
324.60553062752638
 31
0.0
  0
LINE
  5
1859
  8
0
 10
52.313250505572341
 20
324.60553062752638
 30
0.0
 11
54.313250505572341
 21
324.60553062752638
 31
0.0
  0
LINE
  5
185A
  8
0
 10
52.313250505572341
 20
344.60553062752638
 30
0.0
 11
54.313250505572341
 21
344.60553062752638
 31
0.0
  0
LINE
  5
185B
  8
0
 10
55.313250505572341
 20
350.10553062752638
 30
0.0
 11
74.313250505572341
 21
350.10553062752638
 31
0.0
  0
LINE
  5
185C
  8
0
 10
52.313250505572341
 20
322.10553062752638
 30
0.0
 11
52.313250505572341
 21
324.60553062752638
 31
0.0
  0
LINE
  5
185D
  8
0
 10
77.313250505572341
 20
324.10553062752638
 30
0.0
 11
77.313250505572341
 21
347.10553062752638
 31
0.0
  0
LINE
  5
185E
  8
0
 10
55.313250505572107
 20
319.10553062752638
 30
0.0
 11
97.313250505572341
 21
319.10553062752638
 31
0.0
  0
LINE
  5
18B9
  8
0
 10
143.16781645220399
 20
148.9247022181722
 30
0.0
 11
482.7225148603145
 21
148.9247022181722
 31
0.0
  0
LINE
  5
18BA
  8
0
 10
143.16781645220411
 20
140.72470221817241
 30
0.0
 11
477.29605728728569
 21
140.72470221817241
 31
0.0
  0
LINE
  5
18BD
  8
0
 10
491.2934031647726
 20
148.9247022181722
 30
0.0
 11
613.16781645220408
 21
148.9247022181722
 31
0.0
  0
LINE
  5
18C0
  8
0
 10
485.86694559174379
 20
140.72470221817241
 30
0.0
 11
613.16781645220408
 21
140.72470221817241
 31
0.0
  0
LINE
  5
18E6
  8
0
 10
489.1133111880693
 20
350.10553062752649
 30
0.0
 11
613.16781645220419
 21
350.10553062752638
 31
0.0
  0
POLYLINE
  5
1903
  8
3
 66
     1
 10
0.0
 20
0.0
 30
0.0
  0
VERTEX
  5
1904
  8
3
 10
489.11331118806902
 20
263.21511451550123
 30
0.0
 42
-0.0445622328408484
  0
VERTEX
  5
1905
  8
3
 10
491.23827721934208
 20
259.14821390835658
 30
0.0
 42
-0.1325777678637587
  0
VERTEX
  5
1906
  8
3
 10
492.73845919660238
 20
247.56563200969501
 30
0.0
 42
-0.1938301544198951
  0
VERTEX
  5
1907
  8
3
 10
487.71890461212178
 20
238.75239682965659
 30
0.0
 42
0.2240641754069686
  0
VERTEX
  5
1908
  8
3
 10
483.77798609539099
 20
230.79399204008041
 30
0.0
 42
0.1384795886430192
  0
VERTEX
  5
1909
  8
3
 10
485.84177408982708
 20
222.91769817491669
 30
0.0
 42
0.1201367491654302
  0
VERTEX
  5
190A
  8
3
 10
492.34887114615088
 20
216.21511451550111
 30
0.0
  0
SEQEND
  5
190B
  8
3
  0
POLYLINE
  5
190C
  8
3
 66
     1
 10
0.0
 20
0.0
 30
0.0
  0
VERTEX
  5
190D
  8
3
 10
480.54242288361093
 20
263.21511451550111
 30
0.0
 42
-0.0445622328408474
  0
VERTEX
  5
190E
  8
3
 10
482.66738891488399
 20
259.14821390835658
 30
0.0
 42
-0.1325777678637587
  0
VERTEX
  5
190F
  8
3
 10
484.16757089214428
 20
247.56563200969501
 30
0.0
 42
-0.1938301544198951
  0
VERTEX
  5
1910
  8
3
 10
479.14801630766368
 20
238.75239682965659
 30
0.0
 42
0.2240641754069686
  0
VERTEX
  5
1911
  8
3
 10
475.20709779093289
 20
230.79399204008041
 30
0.0
 42
0.1384795886430192
  0
VERTEX
  5
1912
  8
3
 10
477.27088578536899
 20
222.91769817491669
 30
0.0
 42
0.1201367491654302
  0
VERTEX
  5
1913
  8
3
 10
483.77798284169279
 20
216.21511451550111
 30
0.0
  0
SEQEND
  5
1914
  8
3
  0
LINE
  5
1915
  8
0
 10
67.113250505572353
 20
337.1555306275265
 30
0.0
 11
67.113250505572339
 21
332.05553062752642
 31
0.0
  0
LINE
  5
1916
  8
0
 10
65.113250505571628
 20
337.1555306275265
 30
0.0
 11
67.113250505572324
 21
337.1555306275265
 31
0.0
  0
LINE
  5
1917
  8
0
 10
65.113250505571628
 20
332.05553062752648
 30
0.0
 11
67.113250505572324
 21
332.05553062752648
 31
0.0
  0
LINE
  5
1918
  8
0
 10
65.113250505571628
 20
337.1555306275265
 30
0.0
 11
65.113250505571614
 21
340.80553444222357
 31
0.0
  0
LINE
  5
191B
  8
2
 10
95.263250505572316
 20
319.10553062752638
 30
0.0
 11
95.263250505572344
 21
323.10553062752638
 31
0.0
  0
LINE
  5
191C
  8
2
 10
82.763250505572344
 20
319.10553062752638
 30
0.0
 11
82.763250505572344
 21
323.10553062752638
 31
0.0
  0
LINE
  5
194C
  8
2
 10
143.16781645220411
 20
445.39594673955293
 30
0.0
 11
483.83901952839801
 21
445.39594673955298
 31
0.0
  0
LINE
  5
194D
  8
2
 10
143.16781645220411
 20
440.19594673955271
 30
0.0
 11
484.37032920606839
 21
440.1959467395526
 31
0.0
  0
LINE
  5
194E
  8
2
 10
143.16781645220411
 20
438.19594673955203
 30
0.0
 11
484.2663255905108
 21
438.1959467395518
 31
0.0
  0
LINE
  5
194F
  8
0
 10
143.16781645220399
 20
147.37469840347489
 30
0.0
 11
482.15846394347489
 21
147.3746984034737
 31
0.0
  0
LINE
  5
1950
  8
0
 10
143.16781645220399
 20
142.2746984034749
 30
0.0
 11
477.96565446091898
 21
142.27469840347371
 31
0.0
  0
LINE
  5
1951
  8
2
 10
492.36833790365228
 20
445.39594673955298
 30
0.0
 11
613.16781645220408
 21
445.39594673955298
 31
0.0
  0
LINE
  5
1952
  8
2
 10
492.82284727604878
 20
440.19594673955271
 30
0.0
 11
613.16781645220408
 21
440.19594673955271
 31
0.0
  0
LINE
  5
1953
  8
2
 10
492.82656606700579
 20
438.19594673955203
 30
0.0
 11
613.16781645220408
 21
438.19594673955191
 31
0.0
  0
LINE
  5
1954
  8
0
 10
486.53654276537708
 20
142.27469840347371
 30
0.0
 11
613.16781645220408
 21
142.2746984034732
 31
0.0
  0
LINE
  5
1955
  8
0
 10
490.66153198828158
 20
147.37469840347359
 30
0.0
 11
613.16781645220419
 21
147.37469840347319
 31
0.0
  0
LINE
  5
1956
  8
2
 10
673.57238239883566
 20
319.10553062752638
 30
0.0
 11
673.57238239883566
 21
323.10553062752638
 31
0.0
  0
LINE
  5
1957
  8
2
 10
661.07238239883577
 20
319.10553062752638
 30
0.0
 11
661.07238239883566
 21
323.10553062752638
 31
0.0
  0
LINE
  5
1958
  8
0
 10
691.22238239883654
 20
337.1555306275265
 30
0.0
 11
691.22238239883654
 21
340.80553444222357
 31
0.0
  0
LINE
  5
1959
  8
0
 10
691.22238239883654
 20
332.05553062752648
 30
0.0
 11
689.22238239883575
 21
332.05553062752648
 31
0.0
  0
LINE
  5
195A
  8
0
 10
691.22238239883654
 20
337.1555306275265
 30
0.0
 11
689.22238239883575
 21
337.1555306275265
 31
0.0
  0
LINE
  5
195B
  8
0
 10
689.22238239883575
 20
337.1555306275265
 30
0.0
 11
689.22238239883575
 21
332.05553062752642
 31
0.0
  0
LINE
  5
195C
  8
0
 10
701.02238239883604
 20
319.10553062752638
 30
0.0
 11
659.02238239883582
 21
319.10553062752638
 31
0.0
  0
LINE
  5
195D
  8
0
 10
679.02238239883582
 20
324.10553062752638
 30
0.0
 11
679.02238239883582
 21
347.10553062752638
 31
0.0
  0
LINE
  5
195E
  8
0
 10
704.02238239883582
 20
322.10553062752638
 30
0.0
 11
704.02238239883582
 21
324.60553062752638
 31
0.0
  0
LINE
  5
195F
  8
0
 10
701.02238239883582
 20
350.10553062752638
 30
0.0
 11
682.0223823988357
 21
350.10553062752638
 31
0.0
  0
LINE
  5
1960
  8
0
 10
704.02238239883582
 20
344.60553062752638
 30
0.0
 11
702.02238239883582
 21
344.60553062752638
 31
0.0
  0
LINE
  5
1961
  8
0
 10
704.02238239883582
 20
324.60553062752638
 30
0.0
 11
702.02238239883582
 21
324.60553062752638
 31
0.0
  0
LINE
  5
1962
  8
0
 10
702.02238239883604
 20
322.10553062752638
 30
0.0
 11
702.02238239883582
 21
324.60553062752638
 31
0.0
  0
LINE
  5
1963
  8
0
 10
701.02238239883582
 20
348.1055306275266
 30
0.0
 11
682.0223823988357
 21
348.1055306275266
 31
0.0
  0
LINE
  5
1964
  8
0
 10
701.02238239883604
 20
321.10553062752638
 30
0.0
 11
659.02238239883582
 21
321.10553062752638
 31
0.0
  0
LINE
  5
1965
  8
0
 10
681.02238239883582
 20
322.10553062752638
 30
0.0
 11
681.0223823988357
 21
347.1055306275266
 31
0.0
  0
LINE
  5
1966
  8
0
 10
704.02238239883582
 20
344.60553062752638
 30
0.0
 11
704.02238239883548
 21
347.1055306275266
 31
0.0
  0
LINE
  5
1967
  8
0
 10
702.02238239883582
 20
344.60553062752638
 30
0.0
 11
702.02238239883582
 21
347.1055306275266
 31
0.0
  0
ARC
  5
1968
  8
0
 10
701.02238239883604
 20
322.10553062752638
 30
0.0
 40
1.0
 50
270.0
 51
0.000000000000007
  0
ARC
  5
1969
  8
0
 10
701.02238239883604
 20
322.10553062752638
 30
0.0
 40
3.0
 50
270.0
 51
0.000000000000007
  0
ARC
  5
196A
  8
0
 10
682.0223823988357
 20
322.10553062752638
 30
0.0
 40
1.0
 50
180.0
 51
270.0
  0
ARC
  5
196B
  8
0
 10
701.02238239883582
 20
347.1055306275266
 30
0.0
 40
1.0
 50
0.000000000000007
 51
90.0
  0
ARC
  5
196C
  8
0
 10
701.02238239883582
 20
347.1055306275266
 30
0.0
 40
3.0
 50
0.000000000000007
 51
90.0
  0
LINE
  5
196D
  8
0
 10
704.02238239883582
 20
324.60553062752638
 30
0.0
 11
704.02238239883582
 21
330.50552681282932
 31
0.0
  0
LINE
  5
196E
  8
0
 10
704.02238239883582
 20
344.60553062752638
 30
0.0
 11
704.02238239883582
 21
338.70552681282908
 31
0.0
  0
ARC
  5
196F
  8
0
 10
682.0223823988357
 20
347.1055306275266
 30
0.0
 40
1.0
 50
90.0
 51
180.0
  0
LINE
  5
1970
  8
1
 10
709.02238239883582
 20
334.60553062752649
 30
0.0
 11
674.02238239883582
 21
334.60553062752649
 31
0.0
  0
LINE
  5
1971
  8
0
 10
678.0223823988357
 20
323.10553062752638
 30
0.0
 11
659.02238239883582
 21
323.10553062752638
 31
0.0
  0
ARC
  5
1972
  8
0
 10
659.02238239883582
 20
321.10553062752638
 30
0.0
 40
2.0
 50
90.0
 51
270.0
  0
LINE
  5
1973
  8
1
 10
665.32238239883577
 20
314.92123187181852
 30
0.0
 11
665.32238239883577
 21
327.53911242529898
 31
0.0
  0
LINE
  5
1974
  8
1
 10
669.32238239883577
 20
314.92123187181852
 30
0.0
 11
669.32238239883577
 21
327.53911242529898
 31
0.0
  0
ARC
  5
1975
  8
0
 10
678.0223823988357
 20
324.10553062752638
 30
0.0
 40
1.0
 50
270.0
 51
0.000000000000007
  0
ARC
  5
1976
  8
0
 10
678.0223823988357
 20
324.10553062752638
 30
0.0
 40
3.0
 50
270.0
 51
0.000000000000007
  0
ARC
  5
1977
  8
0
 10
682.0223823988357
 20
347.10553062752638
 30
0.0
 40
3.0
 50
90.0
 51
180.0
  0
LINE
  5
1978
  8
0
 10
696.42238239883682
 20
338.70552681282908
 30
0.0
 11
696.42238239883682
 21
340.80553444222357
 31
0.0
  0
LINE
  5
1979
  8
0
 10
704.02238239883604
 20
338.70552681282908
 30
0.0
 11
696.42238239883682
 21
338.70552681282908
 31
0.0
  0
LINE
  5
197A
  8
0
 10
696.42238239883682
 20
340.80553444222357
 30
0.0
 11
691.22238239883654
 21
340.80553444222357
 31
0.0
  0
LINE
  5
197B
  8
0
 10
696.42238239883682
 20
330.50552681282932
 30
0.0
 11
696.42238239883682
 21
328.40552681282941
 31
0.0
  0
LINE
  5
197C
  8
0
 10
704.02238239883604
 20
330.50552681282932
 30
0.0
 11
696.42238239883682
 21
330.50552681282932
 31
0.0
  0
LINE
  5
197D
  8
0
 10
696.42238239883682
 20
328.40552681282941
 30
0.0
 11
691.22238239883654
 21
328.40552681282918
 31
0.0
  0
LINE
  5
197E
  8
0
 10
691.22238239883654
 20
328.40552681282918
 30
0.0
 11
691.22238239883654
 21
332.05553062752648
 31
0.0
  0
TEXT
  5
1A2F
  8
0
 62
     3
 10
0.0
 20
0.0
 30
0.0
 40
10.0
  1
CGOC40B
  7
STANDARD1
  0
ENDSEC
  0
EOF
