  0
SECTION
  2
HEADER
  9
$ACADVER
  1
AC1009
  9
$INSBASE
 10
0.0
 20
0.0
 30
0.0
  9
$EXTMIN
 10
0.0
 20
-2.960436562073669
 30
0.0
  9
$EXTMAX
 10
107.772833083973
 20
114.57773301593279
 30
0.0
  9
$LIMMIN
 10
0.0
 20
0.0
  9
$LIMMAX
 10
187.5
 20
135.0
  9
$ORTHOMODE
 70
     1
  9
$REGENMODE
 70
     1
  9
$FILLMODE
 70
     1
  9
$QTEXTMODE
 70
     0
  9
$MIRRTEXT
 70
     0
  9
$DRAGMODE
 70
     2
  9
$LTSCALE
 40
5.0
  9
$OSMODE
 70
  3071
  9
$ATTMODE
 70
     1
  9
$TEXTSIZE
 40
4.000000000000048
  9
$TRACEWID
 40
0.05
  9
$TEXTSTYLE
  7
STANDARD
  9
$CLAYER
  8
0
  9
$CELTYPE
  6
BYLAYER
  9
$CECOLOR
 62
   256
  9
$DIMSCALE
 40
0.5
  9
$DIMASZ
 40
3.0
  9
$DIMEXO
 40
2.0
  9
$DIMDLI
 40
0.38
  9
$DIMRND
 40
0.0
  9
$DIMDLE
 40
0.0
  9
$DIMEXE
 40
2.0
  9
$DIMTP
 40
0.0
  9
$DIMTM
 40
0.0
  9
$DIMTXT
 40
3.2000000000000002
  9
$DIMCEN
 40
0.0
  9
$DIMTSZ
 40
0.0
  9
$DIMTOL
 70
     0
  9
$DIMLIM
 70
     0
  9
$DIMTIH
 70
     0
  9
$DIMTOH
 70
     0
  9
$DIMSE1
 70
     0
  9
$DIMSE2
 70
     0
  9
$DIMTAD
 70
     1
  9
$DIMZIN
 70
     0
  9
$DIMBLK
  1

  9
$DIMASO
 70
     0
  9
$DIMSHO
 70
     0
  9
$DIMPOST
  1

  9
$DIMAPOST
  1

  9
$DIMALT
 70
     0
  9
$DIMALTD
 70
     2
  9
$DIMALTF
 40
25.399999999999999
  9
$DIMLFAC
 40
1.0
  9
$DIMTOFL
 70
     0
  9
$DIMTVP
 40
1.6000000000000001
  9
$DIMTIX
 70
     1
  9
$DIMSOXD
 70
     0
  9
$DIMSAH
 70
     0
  9
$DIMBLK1
  1

  9
$DIMBLK2
  1

  9
$DIMSTYLE
  2
STANDARD
  9
$DIMCLRD
 70
     4
  9
$DIMCLRE
 70
     4
  9
$DIMCLRT
 70
     4
  9
$DIMTFAC
 40
1.0
  9
$DIMGAP
 40
0.09
  9
$LUNITS
 70
     2
  9
$LUPREC
 70
     1
  9
$SKETCHINC
 40
0.1
  9
$FILLETRAD
 40
0.0
  9
$AUNITS
 70
     0
  9
$AUPREC
 70
     0
  9
$MENU
  1
E:\r13\win\SUPPORT\ACAD
  9
$ELEVATION
 40
0.0
  9
$PELEVATION
 40
0.0
  9
$THICKNESS
 40
0.0
  9
$LIMCHECK
 70
     0
  9
$BLIPMODE
 70
     0
  9
$CHAMFERA
 40
1.1999999999999991
  9
$CHAMFERB
 40
1.1999999999999991
  9
$SKPOLY
 70
     0
  9
$TDCREATE
 40
2449990.3886805549
  9
$TDUPDATE
 40
2456598.5892472342
  9
$TDINDWG
 40
0.038575
  9
$TDUSRTIMER
 40
0.038575
  9
$USRTIMER
 70
     1
  9
$ANGBASE
 50
0.0
  9
$ANGDIR
 70
     0
  9
$PDMODE
 70
     0
  9
$PDSIZE
 40
0.0
  9
$PLINEWID
 40
0.0
  9
$COORDS
 70
     1
  9
$SPLFRAME
 70
     0
  9
$SPLINETYPE
 70
     6
  9
$SPLINESEGS
 70
     8
  9
$ATTDIA
 70
     0
  9
$ATTREQ
 70
     1
  9
$HANDLING
 70
     1
  9
$HANDSEED
  5
208
  9
$SURFTAB1
 70
     6
  9
$SURFTAB2
 70
     6
  9
$SURFTYPE
 70
     6
  9
$SURFU
 70
     6
  9
$SURFV
 70
     6
  9
$UCSNAME
  2

  9
$UCSORG
 10
0.0
 20
0.0
 30
0.0
  9
$UCSXDIR
 10
1.0
 20
0.0
 30
0.0
  9
$UCSYDIR
 10
0.0
 20
1.0
 30
0.0
  9
$PUCSNAME
  2

  9
$PUCSORG
 10
0.0
 20
0.0
 30
0.0
  9
$PUCSXDIR
 10
1.0
 20
0.0
 30
0.0
  9
$PUCSYDIR
 10
0.0
 20
1.0
 30
0.0
  9
$USERI1
 70
     0
  9
$USERI2
 70
     1
  9
$USERI3
 70
     0
  9
$USERI4
 70
     0
  9
$USERI5
 70
     0
  9
$USERR1
 40
0.0
  9
$USERR2
 40
0.0
  9
$USERR3
 40
0.0
  9
$USERR4
 40
0.0
  9
$USERR5
 40
0.0
  9
$WORLDVIEW
 70
     1
  9
$SHADEDGE
 70
     3
  9
$SHADEDIF
 70
    70
  9
$TILEMODE
 70
     1
  9
$MAXACTVP
 70
    16
  9
$PLIMCHECK
 70
     0
  9
$PEXTMIN
 10
1.0000000000000000E+020
 20
1.0000000000000000E+020
 30
1.0000000000000000E+020
  9
$PEXTMAX
 10
-1.0000000000000000E+020
 20
-1.0000000000000000E+020
 30
-1.0000000000000000E+020
  9
$PLIMMIN
 10
0.0
 20
0.0
  9
$PLIMMAX
 10
12.0
 20
9.0
  9
$UNITMODE
 70
     0
  9
$VISRETAIN
 70
     0
  9
$PLINEGEN
 70
     0
  9
$PSLTSCALE
 70
     0
  0
ENDSEC
  0
SECTION
  2
TABLES
  0
TABLE
  2
VPORT
 70
     1
  0
VPORT
  2
*ACTIVE
 70
     0
 10
0.0
 20
0.0
 11
1.0
 21
1.0
 12
97.570150770051072
 22
66.014785922033241
 13
0.0
 23
0.0
 14
5.0
 24
5.0
 15
5.0
 25
5.0
 16
0.0
 26
0.0
 36
1.0
 17
0.0
 27
0.0
 37
0.0
 40
139.20783109903601
 41
1.831871345029239
 42
50.0
 43
0.0
 44
0.0
 50
0.0
 51
0.0
 71
     0
 72
   500
 73
     1
 74
     0
 75
     0
 76
     0
 77
     0
 78
     2
  0
ENDTAB
  0
TABLE
  2
LTYPE
 70
     4
  0
LTYPE
  2
CONTINUOUS
 70
     0
  3
Solid Line
 72
    65
 73
     0
 40
0.0
  0
LTYPE
  2
CENTER
 70
     0
  3
____ _ ____ _ ____ _ ____ _ ____ _ ____ _ ____
 72
    65
 73
     4
 40
2.0
 49
1.25
 49
-0.25
 49
0.25
 49
-0.25
  0
LTYPE
  2
HIDDEN
 70
     0
  3
_ _ _ _ _ _ _ _ _ _ _ _ _ _ _ _ _ _ _ _ _ _ _
 72
    65
 73
     2
 40
0.375
 49
0.25
 49
-0.125
  0
LTYPE
  2
PHANTOM2
 70
     0
  3
___ _ _ ___ _ _ ___ _ _ ___ _ _
 72
    65
 73
     6
 40
1.25
 49
0.625
 49
-0.125
 49
0.125
 49
-0.125
 49
0.125
 49
-0.125
  0
ENDTAB
  0
TABLE
  2
LAYER
 70
     3
  0
LAYER
  2
0
 70
     0
 62
     7
  6
CONTINUOUS
  0
LAYER
  2
1
 70
     0
 62
     1
  6
CENTER
  0
LAYER
  2
2
 70
     0
 62
     2
  6
HIDDEN
  0
ENDTAB
  0
TABLE
  2
STYLE
 70
     2
  0
STYLE
  2
STANDARD
 70
     0
 40
0.0
 41
1.0
 50
0.0
 71
     0
 42
4.000000000000048
  3
SIMPLEX
  4
BIGFONT
  0
STYLE
  2
STANDARD1
 70
     0
 40
0.0
 41
1.0
 50
0.0
 71
     0
 42
3.0
  3
txt
  4

  0
ENDTAB
  0
TABLE
  2
VIEW
 70
     1
  0
VIEW
  2
ALL
 70
     0
 40
135.0
 10
110.3929765886287
 20
67.5
 41
220.78595317725751
 11
0.0
 21
0.0
 31
1.0
 12
0.0
 22
0.0
 32
0.0
 42
50.0
 43
0.0
 44
0.0
 50
0.0
 71
     0
  0
ENDTAB
  0
TABLE
  2
UCS
 70
     0
  0
ENDTAB
  0
TABLE
  2
APPID
 70
     3
  0
APPID
  2
ACAD
 70
     0
  0
APPID
  2
ACAD_MLEADERVER
 70
     0
  0
APPID
  2
ACAD_NAV_VCDISPLAY
 70
     0
  0
ENDTAB
  0
TABLE
  2
DIMSTYLE
 70
     1
  0
DIMSTYLE
  2
STANDARD
 70
     0
  3

  4

  5

  6

  7

 40
1.0
 41
0.18
 42
0.0625
 43
0.38
 44
0.18
 45
0.0
 46
0.0
 47
0.0
 48
0.0
140
0.18
141
0.09
142
0.0
143
25.399999999999999
144
1.0
145
0.0
146
1.0
147
0.09
 71
     0
 72
     0
 73
     1
 74
     1
 75
     0
 76
     0
 77
     0
 78
     0
170
     0
171
     2
172
     0
173
     0
174
     0
175
     0
176
     0
177
     0
178
     0
  0
ENDTAB
  0
ENDSEC
  0
SECTION
  2
BLOCKS
  0
BLOCK
  8
0
  2
$MODEL_SPACE
 70
     0
 10
0.0
 20
0.0
 30
0.0
  3
$MODEL_SPACE
  1

  0
ENDBLK
  5
C5
  8
0
  0
BLOCK
 67
     1
  8
0
  2
$PAPER_SPACE
 70
     0
 10
0.0
 20
0.0
 30
0.0
  3
$PAPER_SPACE
  1

  0
ENDBLK
  5
C3
 67
     1
  8
0
  0
BLOCK
  8
0
  2
STDGX5
 70
     0
 10
0.0
 20
0.0
 30
0.0
  3
STDGX5
  1

  0
ENDBLK
  5
32
  8
0
  0
ENDSEC
  0
SECTION
  2
ENTITIES
  0
LINE
  5
33
  8
0
 10
101.772833083973
 20
77.901079348687247
 30
0.0
 11
98.972833083971494
 21
77.901079348687247
 31
0.0
  0
LINE
  5
34
  8
0
 10
102.272833083973
 20
69.901079348687475
 30
0.0
 11
83.272833083973026
 21
69.901079348687475
 31
0.0
  0
LINE
  5
35
  8
0
 10
84.77283308397304
 20
76.001079348687483
 30
0.0
 11
84.77283308397304
 21
73.901079348687475
 31
0.0
  0
LINE
  5
36
  8
0
 10
100.772833083973
 20
73.901079348687475
 30
0.0
 11
100.772833083973
 21
76.001079348687483
 31
0.0
  0
LINE
  5
37
  8
0
 10
100.57283308397299
 20
76.201079348687429
 30
0.0
 11
84.972833083973086
 21
76.201079348687429
 31
0.0
  0
LINE
  5
38
  8
0
 10
102.772833083973
 20
49.55828305419476
 30
0.0
 11
102.772833083973
 21
36.458283054194851
 31
0.0
  0
LINE
  5
39
  8
0
 10
82.77283308397304
 20
36.458283054194851
 30
0.0
 11
82.77283308397304
 21
49.55828305419476
 31
0.0
  0
CIRCLE
  5
3A
  8
0
 10
92.77283308397304
 20
43.008283054194798
 30
0.0
 40
7.5
  0
CIRCLE
  5
3B
  8
0
 10
92.77283308397304
 20
43.008283054194798
 30
0.0
 40
2.649999999999999
  0
ARC
  5
3C
  8
0
 10
83.77283308397304
 20
76.901079348687475
 30
0.0
 40
1.0
 50
89.999999999999915
 51
180.0
  0
ARC
  5
3D
  8
0
 10
101.772833083973
 20
76.901079348687475
 30
0.0
 40
1.0
 50
0.0
 51
89.999999999999915
  0
LINE
  5
3E
  8
0
 10
48.962520598501122
 20
77.901079348687475
 30
0.0
 11
63.462520598501172
 21
77.901079348687475
 31
0.0
  0
LINE
  5
3F
  8
0
 10
63.962520598501172
 20
69.901079348687475
 30
0.0
 11
48.462520598501222
 21
69.901079348687475
 31
0.0
  0
ARC
  5
40
  8
0
 10
48.962520598501122
 20
76.901079348687475
 30
0.0
 40
1.0
 50
90.0
 51
180.0
  0
ARC
  5
41
  8
0
 10
63.462520598501172
 20
76.901079348687475
 30
0.0
 40
1.0
 50
0.0
 51
90.0
  0
LINE
  5
42
  8
0
 10
47.962520598501108
 20
76.901079348685883
 30
0.0
 11
47.962520598501108
 21
76.901079348687475
 31
0.0
  0
LINE
  5
43
  8
0
 10
64.462520598501172
 20
76.901079348685883
 30
0.0
 11
64.462520598501172
 21
76.901079348687475
 31
0.0
  0
LINE
  5
44
  8
0
 10
83.77283308397304
 20
77.901079348687475
 30
0.0
 11
98.972833083971494
 21
77.901079348687247
 31
0.0
  0
LINE
  5
45
  8
0
 10
84.472833083973086
 20
34.758283054194813
 30
0.0
 11
101.07283308397299
 21
34.758283054194813
 31
0.0
  0
ARC
  5
46
  8
0
 10
84.972833083973086
 20
76.001079348687483
 30
0.0
 40
0.2
 50
89.999999999999915
 51
180.0
  0
ARC
  5
47
  8
0
 10
84.972833083973086
 20
73.901079348687475
 30
0.0
 40
0.2
 50
180.0
 51
270.0
  0
ARC
  5
48
  8
0
 10
100.57283308397299
 20
76.001079348687483
 30
0.0
 40
0.2
 50
0.0
 51
89.999999999999915
  0
ARC
  5
49
  8
0
 10
100.57283308397299
 20
73.901079348687475
 30
0.0
 40
0.2
 50
270.0
 51
0.0
  0
ARC
  5
4A
  8
0
 10
84.472833083973086
 20
49.55828305419476
 30
0.0
 40
1.700000000000002
 50
90.0
 51
180.0
  0
ARC
  5
4B
  8
0
 10
84.472833083973086
 20
36.458283054194851
 30
0.0
 40
1.7
 50
180.0
 51
269.99999999999989
  0
ARC
  5
4C
  8
0
 10
101.07283308397299
 20
36.458283054194851
 30
0.0
 40
1.7
 50
270.0
 51
0.0
  0
ARC
  5
4D
  8
0
 10
101.07283308397299
 20
49.55828305419476
 30
0.0
 40
1.700000000000002
 50
0.0
 51
90.0
  0
ARC
  5
4E
  8
0
 10
83.272833083973026
 20
70.401079348687475
 30
0.0
 40
0.5
 50
180.00000000000011
 51
270.0
  0
ARC
  5
4F
  8
0
 10
102.272833083973
 20
70.401079348687475
 30
0.0
 40
0.5
 50
270.0
 51
0.0000000000001399
  0
ARC
  5
50
  8
0
 10
48.462520598501122
 20
70.401079348687475
 30
0.0
 40
0.5
 50
180.0
 51
270.0
  0
ARC
  5
51
  8
0
 10
63.962520598501172
 20
70.401079348687475
 30
0.0
 40
0.5
 50
270.0
 51
0.0000000000008142
  0
LINE
  5
52
  8
0
 10
64.462520598501172
 20
70.401079348687475
 30
0.0
 11
64.462520598501172
 21
76.901079348685883
 31
0.0
  0
LINE
  5
53
  8
0
 10
47.962520598501108
 20
70.401079348687475
 30
0.0
 11
47.962520598501108
 21
76.901079348685883
 31
0.0
  0
LINE
  5
54
  8
0
 10
101.0728330839719
 20
51.258283054194813
 30
0.0
 11
84.472833083973086
 21
51.258283054194813
 31
0.0
  0
LINE
  5
55
  8
0
 10
85.272833083971435
 20
69.701079348687344
 30
0.0
 11
100.27283308397151
 21
69.701079348687344
 31
0.0
  0
LINE
  5
56
  8
0
 10
85.272833083971435
 20
69.901079348687475
 30
0.0
 11
85.272833083971435
 21
69.701079348687315
 31
0.0
  0
LINE
  5
57
  8
0
 10
100.27283308397151
 20
69.901079348687475
 30
0.0
 11
100.27283308397151
 21
69.701079348687344
 31
0.0
  0
LINE
  5
58
  8
0
 10
100.57283308397299
 20
73.701079348687429
 30
0.0
 11
84.972833083973086
 21
73.701079348687429
 31
0.0
  0
LINE
  5
59
  8
0
 10
63.712520598501172
 20
69.901079348687475
 30
0.0
 11
63.712520598501172
 21
69.701079348687344
 31
0.0
  0
LINE
  5
5A
  8
0
 10
48.712520598501108
 20
69.901079348687475
 30
0.0
 11
48.712520598501108
 21
69.701079348687315
 31
0.0
  0
LINE
  5
5B
  8
0
 10
48.712520598501108
 20
69.701079348687344
 30
0.0
 11
63.712520598501172
 21
69.701079348687344
 31
0.0
  0
LINE
  5
5C
  8
0
 10
82.77283308397304
 20
70.401079348687475
 30
0.0
 11
82.77283308397304
 21
76.901079348685883
 31
0.0
  0
LINE
  5
5D
  8
0
 10
102.772833083973
 20
70.401079348689066
 30
0.0
 11
102.772833083973
 21
76.901079348687475
 31
0.0
  0
CIRCLE
  5
5E
  8
0
 10
92.77283308397304
 20
43.008283054194798
 30
0.0
 40
7.75
  0
LINE
  5
61
  8
0
 10
101.0728330839719
 20
109.57773301593279
 30
0.0
 11
84.472833083973086
 21
109.57773301593279
 31
0.0
  0
ARC
  5
62
  8
0
 10
101.07283308397299
 20
107.87773301593271
 30
0.0
 40
1.700000000000002
 50
0.0
 51
90.0
  0
ARC
  5
63
  8
0
 10
101.07283308397299
 20
94.777733015932839
 30
0.0
 40
1.7
 50
270.0
 51
0.0
  0
ARC
  5
64
  8
0
 10
84.472833083973086
 20
94.777733015932839
 30
0.0
 40
1.7
 50
180.0
 51
269.99999999999989
  0
ARC
  5
65
  8
0
 10
84.472833083973086
 20
107.87773301593271
 30
0.0
 40
1.700000000000002
 50
90.0
 51
180.0
  0
LINE
  5
66
  8
0
 10
84.472833083973086
 20
93.077733015932793
 30
0.0
 11
101.07283308397299
 21
93.077733015932793
 31
0.0
  0
CIRCLE
  5
67
  8
0
 10
92.77283308397304
 20
101.32773301593279
 30
0.0
 40
5.2000000000000002
  0
LINE
  5
68
  8
0
 10
82.77283308397304
 20
94.777733015932839
 30
0.0
 11
82.77283308397304
 21
107.87773301593271
 31
0.0
  0
LINE
  5
69
  8
0
 10
102.772833083973
 20
107.87773301593271
 30
0.0
 11
102.772833083973
 21
94.777733015932839
 31
0.0
  0
LINE
  5
77
  8
1
 10
92.77283308397304
 20
81.201079348687429
 30
0.0
 11
92.77283308397304
 21
64.701079348687344
 31
0.0
  0
LINE
  5
78
  8
1
 10
56.212520598501143
 20
82.901079348687475
 30
0.0
 11
56.212520598501143
 21
64.701079348687344
 31
0.0
  0
LINE
  5
79
  8
1
 10
92.772833083972529
 20
56.258283054194813
 30
0.0
 11
92.772833083972529
 21
29.758283054194809
 31
0.0
  0
LINE
  5
7A
  8
1
 10
77.77283308397304
 20
43.008283054194798
 30
0.0
 11
107.772833083973
 21
43.008283054194798
 31
0.0
  0
LINE
  5
7B
  8
1
 10
92.772833083972529
 20
114.57773301593279
 30
0.0
 11
92.772833083972529
 21
88.077733015932793
 31
0.0
  0
LINE
  5
7C
  8
1
 10
77.77283308397304
 20
101.32773301593279
 30
0.0
 11
107.772833083973
 21
101.32773301593279
 31
0.0
  0
CIRCLE
  5
7E
  8
0
 10
92.772833083972529
 20
101.32773301593279
 30
0.0
 40
2.75
  0
LINE
  5
7F
  8
2
 10
100.522833083973
 20
70.901079348687475
 30
0.0
 11
85.02283308397304
 21
70.901079348687489
 31
0.0
  0
LINE
  5
80
  8
2
 10
85.272833083971435
 20
69.901079348687475
 30
0.0
 11
85.272833083971435
 21
70.901079348687475
 31
0.0
  0
LINE
  5
81
  8
2
 10
100.27283308397151
 20
69.901079348687475
 30
0.0
 11
100.27283308397151
 21
70.901079348687475
 31
0.0
  0
LINE
  5
82
  8
2
 10
85.02283308397304
 20
69.90107934868746
 30
0.0
 11
85.02283308397304
 21
70.901079348687489
 31
0.0
  0
LINE
  5
83
  8
2
 10
100.522833083973
 20
69.90107934868746
 30
0.0
 11
100.522833083973
 21
70.901079348687489
 31
0.0
  0
LINE
  5
84
  8
2
 10
87.572833083973023
 20
77.901079348687418
 30
0.0
 11
87.572833083973023
 21
73.701079348687429
 31
0.0
  0
LINE
  5
85
  8
2
 10
97.972833083973057
 20
77.901079348687261
 30
0.0
 11
97.972833083973043
 21
73.701079348687429
 31
0.0
  0
LINE
  5
86
  8
2
 10
90.022833083972515
 20
70.901079348687489
 30
0.0
 11
87.572833083973023
 21
73.701079348687429
 31
0.0
  0
LINE
  5
87
  8
2
 10
95.522833083972529
 20
70.901079348687475
 30
0.0
 11
97.972833083973043
 21
73.701079348687429
 31
0.0
  0
LINE
  5
88
  8
2
 10
87.572833083973023
 20
73.701079348687429
 30
0.0
 11
97.972833083973043
 21
73.701079348687401
 31
0.0
  0
LINE
  5
89
  8
2
 10
90.122833083973063
 20
69.701079348687344
 30
0.0
 11
90.122833083973049
 21
70.901079348687489
 31
0.0
  0
LINE
  5
8A
  8
2
 10
95.422833083973075
 20
69.70107934868733
 30
0.0
 11
95.422833083973075
 21
70.901079348687475
 31
0.0
  0
INSERT
  5
8B
  8
0
  2
STDGX5
 10
0.0
 20
0.0
 30
0.0
  0
TEXT
  5
178
  8
0
 62
     3
 10
0.0
 20
0.0
 30
0.0
 40
10.0
  1
CHU
  7
STANDARD1
  0
ENDSEC
  0
EOF
