  0
SECTION
  2
HEADER
  9
$ACADVER
  1
AC1009
  9
$INSBASE
 10
0.0
 20
0.0
 30
0.0
  9
$EXTMIN
 10
0.0
 20
-2.960436562073669
 30
0.0
  9
$EXTMAX
 10
168.40980567168711
 20
132.2160168504839
 30
0.0
  9
$LIMMIN
 10
0.0
 20
0.0
  9
$LIMMAX
 10
187.5
 20
135.0
  9
$ORTHOMODE
 70
     1
  9
$REGENMODE
 70
     1
  9
$FILLMODE
 70
     1
  9
$QTEXTMODE
 70
     0
  9
$MIRRTEXT
 70
     0
  9
$DRAGMODE
 70
     2
  9
$LTSCALE
 40
5.0
  9
$OSMODE
 70
  3071
  9
$ATTMODE
 70
     1
  9
$TEXTSIZE
 40
0.06
  9
$TRACEWID
 40
0.05
  9
$TEXTSTYLE
  7
STANDARD
  9
$CLAYER
  8
0
  9
$CELTYPE
  6
BYLAYER
  9
$CECOLOR
 62
   256
  9
$DIMSCALE
 40
0.5
  9
$DIMASZ
 40
3.0
  9
$DIMEXO
 40
2.0
  9
$DIMDLI
 40
10.0
  9
$DIMRND
 40
0.0
  9
$DIMDLE
 40
0.0
  9
$DIMEXE
 40
2.0
  9
$DIMTP
 40
0.0
  9
$DIMTM
 40
0.0
  9
$DIMTXT
 40
3.0
  9
$DIMCEN
 40
0.0
  9
$DIMTSZ
 40
0.0
  9
$DIMTOL
 70
     0
  9
$DIMLIM
 70
     0
  9
$DIMTIH
 70
     0
  9
$DIMTOH
 70
     0
  9
$DIMSE1
 70
     0
  9
$DIMSE2
 70
     0
  9
$DIMTAD
 70
     1
  9
$DIMZIN
 70
     8
  9
$DIMBLK
  1

  9
$DIMASO
 70
     0
  9
$DIMSHO
 70
     0
  9
$DIMPOST
  1

  9
$DIMAPOST
  1

  9
$DIMALT
 70
     0
  9
$DIMALTD
 70
     2
  9
$DIMALTF
 40
25.399999999999999
  9
$DIMLFAC
 40
1.0
  9
$DIMTOFL
 70
     1
  9
$DIMTVP
 40
1.6000000000000001
  9
$DIMTIX
 70
     1
  9
$DIMSOXD
 70
     0
  9
$DIMSAH
 70
     0
  9
$DIMBLK1
  1

  9
$DIMBLK2
  1

  9
$DIMSTYLE
  2
STANDARD
  9
$DIMCLRD
 70
     0
  9
$DIMCLRE
 70
     0
  9
$DIMCLRT
 70
     0
  9
$DIMTFAC
 40
1.0
  9
$DIMGAP
 40
0.09
  9
$LUNITS
 70
     2
  9
$LUPREC
 70
     4
  9
$SKETCHINC
 40
0.1
  9
$FILLETRAD
 40
0.4
  9
$AUNITS
 70
     0
  9
$AUPREC
 70
     4
  9
$MENU
  1
E:\r13\win\SUPPORT\ACAD
  9
$ELEVATION
 40
0.0
  9
$PELEVATION
 40
0.0
  9
$THICKNESS
 40
0.0
  9
$LIMCHECK
 70
     0
  9
$BLIPMODE
 70
     0
  9
$CHAMFERA
 40
0.0
  9
$CHAMFERB
 40
0.0
  9
$SKPOLY
 70
     0
  9
$TDCREATE
 40
2449840.5914699072
  9
$TDUPDATE
 40
2456598.5892721638
  9
$TDINDWG
 40
0.1666359375
  9
$TDUSRTIMER
 40
0.1666359375
  9
$USRTIMER
 70
     1
  9
$ANGBASE
 50
0.0
  9
$ANGDIR
 70
     0
  9
$PDMODE
 70
     0
  9
$PDSIZE
 40
0.0
  9
$PLINEWID
 40
0.0
  9
$COORDS
 70
     1
  9
$SPLFRAME
 70
     0
  9
$SPLINETYPE
 70
     6
  9
$SPLINESEGS
 70
     8
  9
$ATTDIA
 70
     0
  9
$ATTREQ
 70
     1
  9
$HANDLING
 70
     1
  9
$HANDSEED
  5
1010
  9
$SURFTAB1
 70
     6
  9
$SURFTAB2
 70
     6
  9
$SURFTYPE
 70
     6
  9
$SURFU
 70
     6
  9
$SURFV
 70
     6
  9
$UCSNAME
  2

  9
$UCSORG
 10
0.0
 20
0.0
 30
0.0
  9
$UCSXDIR
 10
1.0
 20
0.0
 30
0.0
  9
$UCSYDIR
 10
0.0
 20
1.0
 30
0.0
  9
$PUCSNAME
  2

  9
$PUCSORG
 10
0.0
 20
0.0
 30
0.0
  9
$PUCSXDIR
 10
1.0
 20
0.0
 30
0.0
  9
$PUCSYDIR
 10
0.0
 20
1.0
 30
0.0
  9
$USERI1
 70
     3
  9
$USERI2
 70
     1
  9
$USERI3
 70
     0
  9
$USERI4
 70
     0
  9
$USERI5
 70
     0
  9
$USERR1
 40
0.5
  9
$USERR2
 40
3.0
  9
$USERR3
 40
3.0
  9
$USERR4
 40
3.0
  9
$USERR5
 40
10.0
  9
$WORLDVIEW
 70
     1
  9
$SHADEDGE
 70
     3
  9
$SHADEDIF
 70
    70
  9
$TILEMODE
 70
     1
  9
$MAXACTVP
 70
    16
  9
$PLIMCHECK
 70
     0
  9
$PEXTMIN
 10
1.0000000000000000E+020
 20
1.0000000000000000E+020
 30
1.0000000000000000E+020
  9
$PEXTMAX
 10
-1.0000000000000000E+020
 20
-1.0000000000000000E+020
 30
-1.0000000000000000E+020
  9
$PLIMMIN
 10
0.0
 20
0.0
  9
$PLIMMAX
 10
12.0
 20
9.0
  9
$UNITMODE
 70
     0
  9
$VISRETAIN
 70
     0
  9
$PLINEGEN
 70
     0
  9
$PSLTSCALE
 70
     0
  0
ENDSEC
  0
SECTION
  2
TABLES
  0
TABLE
  2
VPORT
 70
     1
  0
VPORT
  2
*ACTIVE
 70
     0
 10
0.0
 20
0.0
 11
1.0
 21
1.0
 12
97.570150770051072
 22
66.014785922033241
 13
0.0
 23
0.0
 14
5.0
 24
5.0
 15
10.0
 25
10.0
 16
0.0
 26
0.0
 36
1.0
 17
0.0
 27
0.0
 37
0.0
 40
139.20783109903601
 41
1.831871345029239
 42
50.0
 43
0.0
 44
0.0
 50
0.0
 51
0.0
 71
     0
 72
   100
 73
     1
 74
     0
 75
     0
 76
     0
 77
     0
 78
     0
  0
ENDTAB
  0
TABLE
  2
LTYPE
 70
     4
  0
LTYPE
  2
CONTINUOUS
 70
     0
  3
Solid Line
 72
    65
 73
     0
 40
0.0
  0
LTYPE
  2
CENTER
 70
     0
  3
____ _ ____ _ ____ _ ____ _ ____ _ ____ _ ____
 72
    65
 73
     4
 40
2.0
 49
1.25
 49
-0.25
 49
0.25
 49
-0.25
  0
LTYPE
  2
HIDDEN
 70
     0
  3
_ _ _ _ _ _ _ _ _ _ _ _ _ _ _ _ _ _ _ _ _ _ _
 72
    65
 73
     2
 40
0.375
 49
0.25
 49
-0.125
  0
LTYPE
  2
PHANTOM2
 70
     0
  3
___ _ _ ___ _ _ ___ _ _ ___ _ _
 72
    65
 73
     6
 40
1.25
 49
0.625
 49
-0.125
 49
0.125
 49
-0.125
 49
0.125
 49
-0.125
  0
ENDTAB
  0
TABLE
  2
LAYER
 70
     4
  0
LAYER
  2
0
 70
     0
 62
     7
  6
CONTINUOUS
  0
LAYER
  2
1
 70
     0
 62
     1
  6
CENTER
  0
LAYER
  2
2
 70
     0
 62
     2
  6
HIDDEN
  0
LAYER
  2
3
 70
     0
 62
     3
  6
CONTINUOUS
  0
ENDTAB
  0
TABLE
  2
STYLE
 70
     2
  0
STYLE
  2
STANDARD
 70
     0
 40
0.0
 41
1.0
 50
0.0
 71
     0
 42
0.06
  3
TXT
  4
BIGFONT
  0
STYLE
  2
STANDARD1
 70
     0
 40
0.0
 41
1.0
 50
0.0
 71
     0
 42
3.0
  3
txt
  4

  0
ENDTAB
  0
TABLE
  2
VIEW
 70
     2
  0
VIEW
  2
OLE1
 70
     0
 40
24.514257897662329
 10
44.901529473115893
 20
103.25177669290009
 41
34.172454060781448
 11
0.0
 21
0.0
 31
1.0
 12
0.0
 22
0.0
 32
0.0
 42
50.0
 43
0.0
 44
0.0
 50
0.0
 71
     0
  0
VIEW
  2
OLE2
 70
     0
 40
111.8251716252055
 10
23.153306359535989
 20
84.753742215946431
 41
155.8823667497492
 11
0.0
 21
0.0
 31
1.0
 12
0.0
 22
0.0
 32
0.0
 42
50.0
 43
0.0
 44
0.0
 50
0.0
 71
     0
  0
ENDTAB
  0
TABLE
  2
UCS
 70
     0
  0
ENDTAB
  0
TABLE
  2
APPID
 70
     3
  0
APPID
  2
ACAD
 70
     0
  0
APPID
  2
ACAD_MLEADERVER
 70
     0
  0
APPID
  2
ACAD_NAV_VCDISPLAY
 70
     0
  0
ENDTAB
  0
TABLE
  2
DIMSTYLE
 70
     1
  0
DIMSTYLE
  2
STANDARD
 70
     0
  3

  4

  5

  6

  7

 40
1.0
 41
0.18
 42
0.0625
 43
0.38
 44
0.18
 45
0.0
 46
0.0
 47
0.0
 48
0.0
140
0.18
141
0.09
142
0.0
143
25.399999999999999
144
1.0
145
0.0
146
1.0
147
0.09
 71
     0
 72
     0
 73
     1
 74
     1
 75
     0
 76
     0
 77
     0
 78
     0
170
     0
171
     2
172
     0
173
     0
174
     0
175
     0
176
     0
177
     0
178
     0
  0
ENDTAB
  0
ENDSEC
  0
SECTION
  2
BLOCKS
  0
BLOCK
  8
0
  2
$MODEL_SPACE
 70
     0
 10
0.0
 20
0.0
 30
0.0
  3
$MODEL_SPACE
  1

  0
ENDBLK
  5
E6
  8
0
  0
BLOCK
 67
     1
  8
0
  2
$PAPER_SPACE
 70
     0
 10
0.0
 20
0.0
 30
0.0
  3
$PAPER_SPACE
  1

  0
ENDBLK
  5
E4
 67
     1
  8
0
  0
ENDSEC
  0
SECTION
  2
ENTITIES
  0
LINE
  5
8C0
  8
0
 10
70.739717498145268
 20
69.198664223124766
 30
0.0
 11
70.739717498145268
 21
63.198664223124752
 31
0.0
  0
LINE
  5
8C1
  8
0
 10
84.239717498145254
 20
91.198664223124766
 30
0.0
 11
82.239717498145268
 21
91.198664223124766
 31
0.0
  0
LINE
  5
8C2
  8
0
 10
68.989717498145268
 20
83.198664223124766
 30
0.0
 11
70.239717498145268
 21
83.198664223124766
 31
0.0
  0
LINE
  5
8C3
  8
2
 10
70.239717498145268
 20
83.198664223124766
 30
0.0
 11
73.239717498145268
 21
83.198664223124766
 31
0.0
  0
LINE
  5
8C4
  8
0
 10
73.239717498145268
 20
83.198664223124766
 30
0.0
 11
79.239717498145254
 21
83.198664223124766
 31
0.0
  0
LINE
  5
8C5
  8
2
 10
79.239717498145254
 20
83.198664223124766
 30
0.0
 11
82.239717498145268
 21
83.198664223124766
 31
0.0
  0
LINE
  5
8C6
  8
2
 10
82.239717498145268
 20
89.198664223124766
 30
0.0
 11
79.239717498145254
 21
89.198664223124766
 31
0.0
  0
LINE
  5
8C7
  8
0
 10
79.239717498145254
 20
89.198664223124766
 30
0.0
 11
73.239717498145268
 21
89.198664223124766
 31
0.0
  0
LINE
  5
8C8
  8
2
 10
73.239717498145268
 20
89.198664223124766
 30
0.0
 11
70.239717498145268
 21
89.198664223124766
 31
0.0
  0
LINE
  5
8C9
  8
0
 10
70.239717498145268
 20
89.198664223124766
 30
0.0
 11
68.989717498145268
 21
89.198664223124766
 31
0.0
  0
LINE
  5
8CA
  8
0
 10
68.239717498145268
 20
83.948664223124766
 30
0.0
 11
68.989717498145268
 21
83.198664223124766
 31
0.0
  0
LINE
  5
8CB
  8
0
 10
68.989717498145268
 20
89.198664223124766
 30
0.0
 11
68.239717498145268
 21
88.448664223124766
 31
0.0
  0
LINE
  5
8D1
  8
0
 10
68.989717498145268
 20
83.198664223124766
 30
0.0
 11
68.989717498145268
 21
89.198664223124766
 31
0.0
  0
LINE
  5
8D2
  8
0
 10
68.239717498145268
 20
83.948664223124766
 30
0.0
 11
68.239717498145268
 21
88.448664223124766
 31
0.0
  0
LINE
  5
8D4
  8
0
 10
70.739717498145268
 20
69.198664223124766
 30
0.0
 11
82.239717498145268
 21
69.198664223124766
 31
0.0
  0
LINE
  5
8D7
  8
0
 10
84.239717498145254
 20
71.198664223124766
 30
0.0
 11
84.239717498145254
 21
91.198664223124766
 31
0.0
  0
LINE
  5
8D8
  8
0
 10
83.239717498145268
 20
63.198664223124752
 30
0.0
 11
84.239717498145254
 21
71.198664223124766
 31
0.0
  0
LINE
  5
8D9
  8
0
 10
70.739717498145268
 20
63.198664223124752
 30
0.0
 11
83.239717498145268
 21
63.198664223124752
 31
0.0
  0
LINE
  5
8DE
  8
0
 10
82.239717498145268
 20
69.198664223124766
 30
0.0
 11
82.239717498145268
 21
91.799741248659757
 31
0.0
  0
LINE
  5
8E2
  8
1
 10
86.393585461206385
 20
86.198664223124766
 30
0.0
 11
66.085849535084151
 21
86.198664223124766
 31
0.0
  0
LINE
  5
8E3
  8
0
 10
81.239717498145268
 20
62.198664223124752
 30
0.0
 11
81.239717498145268
 21
63.198664223124752
 31
0.0
  0
LINE
  5
8E5
  8
0
 10
81.239717498145268
 20
69.198664223124766
 30
0.0
 11
81.239717498145268
 21
71.198664223124766
 31
0.0
  0
LINE
  5
8E6
  8
0
 10
71.239717498145254
 20
71.198664223124766
 30
0.0
 11
71.239717498145254
 21
69.198664223124766
 31
0.0
  0
LINE
  5
8E8
  8
0
 10
71.239717498145254
 20
63.198664223124752
 30
0.0
 11
71.239717498145254
 21
62.198664223124752
 31
0.0
  0
LINE
  5
8E9
  8
0
 10
82.239717498145268
 20
91.799741248659757
 30
0.0
 11
79.239717498145254
 21
93.198664223124766
 31
0.0
  0
LINE
  5
8EA
  8
0
 10
81.239717498145268
 20
71.198664223124766
 30
0.0
 11
82.239717498145268
 21
71.582528258160181
 31
0.0
  0
LINE
  5
8EB
  8
0
 10
70.239717498145268
 20
71.582528258160181
 30
0.0
 11
71.239717498145254
 21
71.198664223124766
 31
0.0
  0
LINE
  5
8EC
  8
0
 10
73.239717498145268
 20
93.198664223124766
 30
0.0
 11
70.239717498145268
 21
91.799741248659757
 31
0.0
  0
LINE
  5
8ED
  8
2
 10
70.739717498145268
 20
89.198664223124766
 30
0.0
 11
70.239717498145268
 21
89.698664223124766
 31
0.0
  0
LINE
  5
8EE
  8
2
 10
70.239717498145268
 20
82.698664223124766
 30
0.0
 11
70.739717498145268
 21
83.198664223124766
 31
0.0
  0
LINE
  5
8F1
  8
2
 10
82.239717498145268
 20
89.698664223124766
 30
0.0
 11
81.739717498145254
 21
89.198664223124766
 31
0.0
  0
LINE
  5
8F2
  8
2
 10
81.739717498145254
 20
83.198664223124766
 30
0.0
 11
82.239717498145268
 21
82.698664223124766
 31
0.0
  0
LINE
  5
8F5
  8
2
 10
78.698217498145254
 20
73.657164223124767
 30
0.0
 11
79.239717498145254
 21
74.198664223124766
 31
0.0
  0
LINE
  5
8F6
  8
2
 10
73.239717498145268
 20
74.198664223124766
 30
0.0
 11
73.781217498145253
 21
73.657164223124767
 31
0.0
  0
LINE
  5
8F7
  8
2
 10
78.698217498145254
 20
62.740164223124772
 30
0.0
 11
78.698217498145254
 21
73.657164223124767
 31
0.0
  0
LINE
  5
8F8
  8
2
 10
73.781217498145253
 20
73.657164223124767
 30
0.0
 11
73.781217498145253
 21
62.740164223124772
 31
0.0
  0
LINE
  5
8F9
  8
2
 10
79.239717498145254
 20
62.198664223124752
 30
0.0
 11
78.698217498145254
 21
62.740164223124772
 31
0.0
  0
LINE
  5
8FA
  8
2
 10
73.781217498145253
 20
62.740164223124772
 30
0.0
 11
73.239717498145268
 21
62.198664223124752
 31
0.0
  0
LINE
  5
8FB
  8
0
 10
81.239717498145268
 20
62.198664223124752
 30
0.0
 11
71.239717498145254
 21
62.198664223124752
 31
0.0
  0
LINE
  5
902
  8
0
 10
81.239717498145268
 20
71.198664223124766
 30
0.0
 11
71.239717498145254
 21
71.198664223124766
 31
0.0
  0
POLYLINE
  5
903
  8
0
 66
     1
 10
0.0
 20
0.0
 30
0.0
  0
VERTEX
  5
EB0
  8
0
 10
70.239717498145268
 20
72.536538394673755
 30
0.0
  0
VERTEX
  5
EB1
  8
0
 10
70.239717498145268
 20
72.205605342331495
 30
0.0
  0
VERTEX
  5
EB2
  8
0
 10
70.239717498145268
 20
71.929416974941944
 30
0.0
  0
VERTEX
  5
EB3
  8
0
 10
70.239717498145268
 20
71.868133607182571
 30
0.0
  0
VERTEX
  5
EB4
  8
0
 10
70.239717498145268
 20
71.81372273481594
 30
0.0
  0
VERTEX
  5
EB5
  8
0
 10
70.239717498145268
 20
71.788964961437657
 30
0.0
  0
VERTEX
  5
EB6
  8
0
 10
70.239717498145268
 20
71.765777557340002
 30
0.0
  0
VERTEX
  5
EB7
  8
0
 10
70.239717498145268
 20
71.723950496784539
 30
0.0
  0
VERTEX
  5
EB8
  8
0
 10
70.239717498145268
 20
71.68794654520822
 30
0.0
  0
VERTEX
  5
EB9
  8
0
 10
70.239717498145268
 20
71.657517826114812
 30
0.0
  0
VERTEX
  5
EBA
  8
0
 10
70.239717498145268
 20
71.632459174740958
 30
0.0
  0
VERTEX
  5
EBB
  8
0
 10
70.239717498145268
 20
71.61260458505555
 30
0.0
  0
VERTEX
  5
EBC
  8
0
 10
70.239717498145268
 20
71.604586939988963
 30
0.0
  0
VERTEX
  5
EBD
  8
0
 10
70.239717498145268
 20
71.597824405504909
 30
0.0
  0
VERTEX
  5
EBE
  8
0
 10
70.239717498145268
 20
71.588023193272591
 30
0.0
  0
VERTEX
  5
EBF
  8
0
 10
70.239717498145268
 20
71.583138159793634
 30
0.0
  0
VERTEX
  5
EC0
  8
0
 10
70.239717498145268
 20
71.582528258160181
 30
0.0
  0
SEQEND
  5
EC1
  8
0
  0
POLYLINE
  5
904
  8
0
 66
     1
 10
0.0
 20
0.0
 30
0.0
  0
VERTEX
  5
EC2
  8
0
 10
70.239717498145268
 20
71.582528258160181
 30
0.0
  0
VERTEX
  5
EC3
  8
0
 10
70.239717498145268
 20
71.583138159793634
 30
0.0
  0
VERTEX
  5
EC4
  8
0
 10
70.239717498145268
 20
71.588023193272591
 30
0.0
  0
VERTEX
  5
EC5
  8
0
 10
70.239717498145268
 20
71.597824405504909
 30
0.0
  0
VERTEX
  5
EC6
  8
0
 10
70.239717498145268
 20
71.604586939988963
 30
0.0
  0
VERTEX
  5
EC7
  8
0
 10
70.239717498145268
 20
71.61260458505555
 30
0.0
  0
VERTEX
  5
EC8
  8
0
 10
70.239717498145268
 20
71.632459174740958
 30
0.0
  0
VERTEX
  5
EC9
  8
0
 10
70.239717498145268
 20
71.657517826114812
 30
0.0
  0
VERTEX
  5
ECA
  8
0
 10
70.239717498145268
 20
71.687946545208234
 30
0.0
  0
VERTEX
  5
ECB
  8
0
 10
70.239717498145268
 20
71.723950496784539
 30
0.0
  0
VERTEX
  5
ECC
  8
0
 10
70.239717498145268
 20
71.765777557340002
 30
0.0
  0
VERTEX
  5
ECD
  8
0
 10
70.239717498145268
 20
71.788964961437657
 30
0.0
  0
VERTEX
  5
ECE
  8
0
 10
70.239717498145268
 20
71.81372273481594
 30
0.0
  0
VERTEX
  5
ECF
  8
0
 10
70.239717498145268
 20
71.868133607182571
 30
0.0
  0
VERTEX
  5
ED0
  8
0
 10
70.239717498145268
 20
71.929416974941944
 30
0.0
  0
VERTEX
  5
ED1
  8
0
 10
70.239717498145268
 20
71.998046977156434
 30
0.0
  0
VERTEX
  5
ED2
  8
0
 10
70.239717498145268
 20
72.074574990883235
 30
0.0
  0
VERTEX
  5
ED3
  8
0
 10
70.239717498145268
 20
72.159641725429822
 30
0.0
  0
VERTEX
  5
ED4
  8
0
 10
70.239717498145268
 20
72.205605342331495
 30
0.0
  0
VERTEX
  5
ED5
  8
0
 10
70.239717498145268
 20
72.253992043350109
 30
0.0
  0
VERTEX
  5
ED6
  8
0
 10
70.239717498145268
 20
72.358493200407324
 30
0.0
  0
VERTEX
  5
ED7
  8
0
 10
70.239717498145268
 20
72.474157412247351
 30
0.0
  0
VERTEX
  5
ED8
  8
0
 10
70.239717498145268
 20
72.536538394673755
 30
0.0
  0
SEQEND
  5
ED9
  8
0
  0
POLYLINE
  5
909
  8
0
 66
     1
 10
0.0
 20
0.0
 30
0.0
  0
VERTEX
  5
EDA
  8
0
 10
82.239717498145268
 20
72.536538394673755
 30
0.0
  0
VERTEX
  5
EDB
  8
0
 10
81.782380135095991
 20
72.41486027447263
 30
0.0
  0
VERTEX
  5
EDC
  8
0
 10
80.942136093431984
 20
72.205605342331495
 30
0.0
  0
VERTEX
  5
EDD
  8
0
 10
80.18241304588004
 20
72.035285940849406
 30
0.0
  0
VERTEX
  5
EDE
  8
0
 10
79.826970586764475
 20
71.962781125802664
 30
0.0
  0
VERTEX
  5
EDF
  8
0
 10
79.485240700786193
 20
71.897888280101881
 30
0.0
  0
VERTEX
  5
EE0
  8
0
 10
78.836377999450576
 20
71.788964961437657
 30
0.0
  0
VERTEX
  5
EE1
  8
0
 10
78.224207163579877
 20
71.705237172941821
 30
0.0
  0
VERTEX
  5
EE2
  8
0
 10
77.638953363507625
 20
71.644328498851337
 30
0.0
  0
VERTEX
  5
EE3
  8
0
 10
77.072111741605184
 20
71.604586939988963
 30
0.0
  0
VERTEX
  5
EE4
  8
0
 10
76.516006180602787
 20
71.584968834120076
 30
0.0
  0
VERTEX
  5
EE5
  8
0
 10
76.239717498145254
 20
71.582528258160181
 30
0.0
  0
VERTEX
  5
EE6
  8
0
 10
75.963428815687735
 20
71.584968834120076
 30
0.0
  0
VERTEX
  5
EE7
  8
0
 10
75.407323254685309
 20
71.604586939988963
 30
0.0
  0
VERTEX
  5
EE8
  8
0
 10
74.840481632782911
 20
71.644328498851337
 30
0.0
  0
VERTEX
  5
EE9
  8
0
 10
74.255227832710659
 20
71.705237172941821
 30
0.0
  0
VERTEX
  5
EEA
  8
0
 10
73.643056996839945
 20
71.788964961437657
 30
0.0
  0
VERTEX
  5
EEB
  8
0
 10
72.994194295504343
 20
71.897888280101881
 30
0.0
  0
VERTEX
  5
EEC
  8
0
 10
72.652464409526061
 20
71.962781125802664
 30
0.0
  0
VERTEX
  5
EED
  8
0
 10
72.297021950410482
 20
72.03528594084942
 30
0.0
  0
VERTEX
  5
EEE
  8
0
 10
71.537298902858538
 20
72.205605342331495
 30
0.0
  0
VERTEX
  5
EEF
  8
0
 10
70.697054861194516
 20
72.41486027447263
 30
0.0
  0
VERTEX
  5
EF0
  8
0
 10
70.239717498145268
 20
72.536538394673755
 30
0.0
  0
SEQEND
  5
EF1
  8
0
  0
LINE
  5
90A
  8
0
 10
70.239717498145268
 20
72.536538394673755
 30
0.0
 11
70.239717498145268
 21
91.799741248659757
 31
0.0
  0
POLYLINE
  5
90B
  8
0
 66
     1
 10
0.0
 20
0.0
 30
0.0
  0
VERTEX
  5
EF2
  8
0
 10
70.239717498145268
 20
90.640835511182345
 30
0.0
  0
VERTEX
  5
EF3
  8
0
 10
70.824810468376825
 20
90.828816752762464
 30
0.0
  0
VERTEX
  5
EF4
  8
0
 10
71.876795306586374
 20
91.138254047583644
 30
0.0
  0
VERTEX
  5
EF5
  8
0
 10
72.808253881479004
 20
91.374495698759233
 30
0.0
  0
VERTEX
  5
EF6
  8
0
 10
73.239717498145268
 20
91.469500331399828
 30
0.0
  0
SEQEND
  5
EF7
  8
0
  0
LINE
  5
90C
  8
0
 10
73.239717498145268
 20
93.198664223124766
 30
0.0
 11
73.239717498145268
 21
74.198664223124766
 31
0.0
  0
LINE
  5
90D
  8
0
 10
79.239717498145254
 20
74.198664223124766
 30
0.0
 11
79.239717498145254
 21
93.198664223124766
 31
0.0
  0
POLYLINE
  5
90E
  8
0
 66
     1
 10
0.0
 20
0.0
 30
0.0
  0
VERTEX
  5
EF8
  8
0
 10
79.239717498145254
 20
91.469500331399828
 30
0.0
  0
VERTEX
  5
EF9
  8
0
 10
79.671181114811503
 20
91.374495698759233
 30
0.0
  0
VERTEX
  5
EFA
  8
0
 10
80.602639689704148
 20
91.138254047583644
 30
0.0
  0
VERTEX
  5
EFB
  8
0
 10
81.654624527913683
 20
90.828816752762464
 30
0.0
  0
VERTEX
  5
EFC
  8
0
 10
82.239717498145268
 20
90.640835511182331
 30
0.0
  0
SEQEND
  5
EFD
  8
0
  0
LINE
  5
914
  8
2
 10
70.739717498145268
 20
89.198664223124766
 30
0.0
 11
70.739717498145268
 21
83.198664223124766
 31
0.0
  0
LINE
  5
917
  8
2
 10
81.739717498145254
 20
89.198664223124766
 30
0.0
 11
81.739717498145254
 21
83.198664223124766
 31
0.0
  0
LINE
  5
919
  8
0
 10
73.239717498145268
 20
74.198664223124766
 30
0.0
 11
79.239717498145254
 21
74.198664223124766
 31
0.0
  0
LINE
  5
91A
  8
2
 10
78.698217498145254
 20
73.657164223124767
 30
0.0
 11
73.781217498145253
 21
73.657164223124767
 31
0.0
  0
LINE
  5
91C
  8
2
 10
78.698217498145254
 20
62.740164223124772
 30
0.0
 11
73.781217498145253
 21
62.740164223124772
 31
0.0
  0
LINE
  5
91D
  8
2
 10
79.239717498145254
 20
62.198664223124752
 30
0.0
 11
79.239717498145254
 21
74.198664223124766
 31
0.0
  0
LINE
  5
91E
  8
2
 10
73.239717498145268
 20
62.198664223124752
 30
0.0
 11
73.239717498145268
 21
74.198664223124766
 31
0.0
  0
LINE
  5
91F
  8
1
 10
76.239717498145254
 20
96.352532186185897
 30
0.0
 11
76.239717498145254
 21
60.044796260063627
 31
0.0
  0
CIRCLE
  5
931
  8
0
 10
35.231607392904891
 20
86.198664223124766
 30
0.0
 40
3.0
  0
LINE
  5
93A
  8
0
 10
41.231607392904891
 20
91.469500331399828
 30
0.0
 11
41.231607392904891
 21
71.582528258160181
 31
0.0
  0
POLYLINE
  5
93F
  8
0
 66
     1
 10
0.0
 20
0.0
 30
0.0
  0
VERTEX
  5
EFE
  8
0
 10
29.231607392904909
 20
90.640835511182331
 30
0.0
  0
VERTEX
  5
EFF
  8
0
 10
29.688944755954179
 20
90.788646803986737
 30
0.0
  0
VERTEX
  5
F00
  8
0
 10
30.529188797618179
 20
91.042844041701656
 30
0.0
  0
VERTEX
  5
F01
  8
0
 10
31.288911845170119
 20
91.249743448769436
 30
0.0
  0
VERTEX
  5
F02
  8
0
 10
31.644354304285699
 20
91.337820339083734
 30
0.0
  0
VERTEX
  5
F03
  8
0
 10
31.986084190263981
 20
91.416650414703994
 30
0.0
  0
VERTEX
  5
F04
  8
0
 10
32.634946891599597
 20
91.548967519222785
 30
0.0
  0
VERTEX
  5
F05
  8
0
 10
33.247117727470297
 20
91.65067777444996
 30
0.0
  0
VERTEX
  5
F06
  8
0
 10
33.832371527542549
 20
91.724667986046214
 30
0.0
  0
VERTEX
  5
F07
  8
0
 10
34.399213149444947
 20
91.772944957976733
 30
0.0
  0
VERTEX
  5
F08
  8
0
 10
34.955318710447372
 20
91.796776502925525
 30
0.0
  0
VERTEX
  5
F09
  8
0
 10
35.231607392904913
 20
91.799741248659757
 30
0.0
  0
VERTEX
  5
F0A
  8
0
 10
35.50789607536241
 20
91.796776502925525
 30
0.0
  0
VERTEX
  5
F0B
  8
0
 10
36.064001636364843
 20
91.772944957976733
 30
0.0
  0
VERTEX
  5
F0C
  8
0
 10
36.630843258267262
 20
91.724667986046214
 30
0.0
  0
VERTEX
  5
F0D
  8
0
 10
37.216097058339521
 20
91.650677774449974
 30
0.0
  0
VERTEX
  5
F0E
  8
0
 10
37.828267894210207
 20
91.548967519222785
 30
0.0
  0
VERTEX
  5
F0F
  8
0
 10
38.47713059554583
 20
91.416650414703994
 30
0.0
  0
VERTEX
  5
F10
  8
0
 10
38.818860481524112
 20
91.337820339083734
 30
0.0
  0
VERTEX
  5
F11
  8
0
 10
39.17430294063967
 20
91.249743448769436
 30
0.0
  0
VERTEX
  5
F12
  8
0
 10
39.934025988191642
 20
91.042844041701656
 30
0.0
  0
VERTEX
  5
F13
  8
0
 10
40.774270029855629
 20
90.788646803986737
 30
0.0
  0
VERTEX
  5
F14
  8
0
 10
41.231607392904898
 20
90.640835511182345
 30
0.0
  0
SEQEND
  5
F15
  8
0
  0
POLYLINE
  5
940
  8
0
 66
     1
 10
0.0
 20
0.0
 30
0.0
  0
VERTEX
  5
F16
  8
0
 10
41.231607392904898
 20
91.469500331399828
 30
0.0
  0
VERTEX
  5
F17
  8
0
 10
40.54362799524587
 20
91.752821429603117
 30
0.0
  0
VERTEX
  5
F18
  8
0
 10
39.437374661550862
 20
92.188600209521823
 30
0.0
  0
VERTEX
  5
F19
  8
0
 10
38.57609482801108
 20
92.502542280361098
 30
0.0
  0
VERTEX
  5
F1A
  8
0
 10
38.209233031542979
 20
92.626575030079479
 30
0.0
  0
VERTEX
  5
F1B
  8
0
 10
37.874773908056838
 20
92.733153583532285
 30
0.0
  0
VERTEX
  5
F1C
  8
0
 10
37.28145211190413
 20
92.903287767146708
 30
0.0
  0
VERTEX
  5
F1D
  8
0
 10
36.762097715104481
 20
93.027133850787024
 30
0.0
  0
VERTEX
  5
F1E
  8
0
 10
36.29294449605932
 20
93.113700065915381
 30
0.0
  0
VERTEX
  5
F1F
  8
0
 10
35.85626914717308
 20
93.168660263401932
 30
0.0
  0
VERTEX
  5
F20
  8
0
 10
35.437861877434969
 20
93.195361928614062
 30
0.0
  0
VERTEX
  5
F21
  8
0
 10
35.231607392904913
 20
93.198664223124766
 30
0.0
  0
VERTEX
  5
F22
  8
0
 10
35.025352908374821
 20
93.195361928614062
 30
0.0
  0
VERTEX
  5
F23
  8
0
 10
34.606945638636731
 20
93.168660263401932
 30
0.0
  0
VERTEX
  5
F24
  8
0
 10
34.170270289750491
 20
93.113700065915381
 30
0.0
  0
VERTEX
  5
F25
  8
0
 10
33.701117070705308
 20
93.027133850787024
 30
0.0
  0
VERTEX
  5
F26
  8
0
 10
33.181762673905652
 20
92.903287767146708
 30
0.0
  0
VERTEX
  5
F27
  8
0
 10
32.588440877752973
 20
92.733153583532285
 30
0.0
  0
VERTEX
  5
F28
  8
0
 10
32.253981754266832
 20
92.626575030079493
 30
0.0
  0
VERTEX
  5
F29
  8
0
 10
31.887119957798731
 20
92.502542280361098
 30
0.0
  0
VERTEX
  5
F2A
  8
0
 10
31.025840124258949
 20
92.188600209521809
 30
0.0
  0
VERTEX
  5
F2B
  8
0
 10
29.91958679056394
 20
91.752821429603117
 30
0.0
  0
VERTEX
  5
F2C
  8
0
 10
29.231607392904909
 20
91.469500331399828
 30
0.0
  0
SEQEND
  5
F2D
  8
0
  0
LINE
  5
942
  8
0
 10
40.231607392904891
 20
71.198664223124766
 30
0.0
 11
30.231607392904891
 21
71.198664223124766
 31
0.0
  0
LINE
  5
947
  8
0
 10
40.231607392904891
 20
62.198664223124752
 30
0.0
 11
30.231607392904891
 21
62.198664223124752
 31
0.0
  0
LINE
  5
94E
  8
0
 10
29.231607392904891
 20
71.582528258160181
 30
0.0
 11
30.231607392904891
 21
71.198664223124766
 31
0.0
  0
LINE
  5
94F
  8
0
 10
40.231607392904891
 20
71.198664223124766
 30
0.0
 11
41.231607392904891
 21
71.582528258160181
 31
0.0
  0
LINE
  5
950
  8
0
 10
30.231607392904891
 20
63.198664223124752
 30
0.0
 11
30.231607392904891
 21
62.198664223124752
 31
0.0
  0
LINE
  5
955
  8
0
 10
40.231607392904891
 20
62.198664223124752
 30
0.0
 11
40.231607392904891
 21
63.198664223124752
 31
0.0
  0
LINE
  5
95B
  8
0
 10
30.231607392904891
 20
69.198664223124766
 30
0.0
 11
30.231607392904891
 21
71.19866422312478
 31
0.0
  0
LINE
  5
95F
  8
0
 10
28.731607392904891
 20
63.198664223124752
 30
0.0
 11
40.731607392904877
 21
63.198664223124752
 31
0.0
  0
LINE
  5
965
  8
0
 10
28.731607392904891
 20
69.198664223124766
 30
0.0
 11
40.731607392904877
 21
69.198664223124752
 31
0.0
  0
CIRCLE
  5
967
  8
0
 10
35.231607392904891
 20
86.198664223124766
 30
0.0
 40
2.25
  0
LINE
  5
969
  8
0
 10
28.731607392904891
 20
69.198664223124766
 30
0.0
 11
28.731607392904891
 21
63.198664223124752
 31
0.0
  0
LINE
  5
96C
  8
0
 10
40.731607392904877
 20
63.198664223124752
 30
0.0
 11
40.731607392904877
 21
69.198664223124766
 31
0.0
  0
LINE
  5
99A
  8
0
 10
82.239717498145268
 20
127.06214888742279
 30
0.0
 11
84.239717498145254
 21
127.06214888742279
 31
0.0
  0
LINE
  5
9A6
  8
0
 10
84.239717498145254
 20
127.06214888742279
 30
0.0
 11
84.239717498145254
 21
117.06214888742279
 31
0.0
  0
LINE
  5
9A7
  8
0
 10
84.239717498145254
 20
117.06214888742279
 30
0.0
 11
82.239717498145225
 21
117.06214888742279
 31
0.0
  0
LINE
  5
9AE
  8
0
 10
68.239717498145268
 20
124.31214888742279
 30
0.0
 11
68.239717498145239
 21
119.81214888742279
 31
0.0
  0
LINE
  5
9AF
  8
0
 10
68.989717498145268
 20
125.06214888742279
 30
0.0
 11
68.989717498145239
 21
119.06214888742279
 31
0.0
  0
LINE
  5
9B0
  8
0
 10
68.989717498145268
 20
125.06214888742279
 30
0.0
 11
68.239717498145268
 21
124.31214888742279
 31
0.0
  0
LINE
  5
9B1
  8
0
 10
68.239717498145239
 20
119.81214888742279
 30
0.0
 11
68.989717498145239
 21
119.06214888742279
 31
0.0
  0
LINE
  5
9B2
  8
0
 10
70.239717498145268
 20
125.06214888742279
 30
0.0
 11
68.989717498145268
 21
125.06214888742279
 31
0.0
  0
LINE
  5
9B4
  8
0
 10
79.239717498145254
 20
125.06214888742279
 30
0.0
 11
73.239717498145268
 21
125.06214888742279
 31
0.0
  0
LINE
  5
9B5
  8
0
 10
73.239717498145239
 20
119.06214888742279
 30
0.0
 11
79.239717498145239
 21
119.06214888742279
 31
0.0
  0
LINE
  5
9B7
  8
0
 10
68.989717498145239
 20
119.06214888742279
 30
0.0
 11
70.239717498145239
 21
119.06214888742279
 31
0.0
  0
LINE
  5
B86
  8
0
 10
29.231607392904891
 20
91.469500331399828
 30
0.0
 11
29.231607392904891
 21
71.582528258160181
 31
0.0
  0
LINE
  5
BB2
  8
0
 10
70.239717498145239
 20
116.06214888742279
 30
0.0
 11
82.239717498145225
 21
116.06214888742279
 31
0.0
  0
LINE
  5
C4E
  8
0
 10
70.239717498145268
 20
128.06214888742281
 30
0.0
 11
70.239717498145239
 21
116.06214888742279
 31
0.0
  0
LINE
  5
C4F
  8
0
 10
73.239717498145268
 20
128.06214888742281
 30
0.0
 11
73.239717498145239
 21
116.06214888742279
 31
0.0
  0
LINE
  5
C50
  8
0
 10
82.239717498145268
 20
128.06214888742281
 30
0.0
 11
82.239717498145225
 21
116.06214888742279
 31
0.0
  0
LINE
  5
C51
  8
0
 10
70.239717498145268
 20
128.06214888742281
 30
0.0
 11
82.239717498145225
 21
128.06214888742281
 31
0.0
  0
LINE
  5
C52
  8
0
 10
79.239717498145239
 20
128.06214888742281
 30
0.0
 11
79.239717498145254
 21
116.06214888742279
 31
0.0
  0
LINE
  5
C5D
  8
0
 10
80.849489726791717
 20
63.198664223124752
 30
0.0
 11
80.849489726791717
 21
68.815157037936345
 31
0.0
  0
LINE
  5
C5E
  8
0
 10
83.941779099996722
 20
68.815157037936345
 30
0.0
 11
80.849489726791717
 21
68.815157037936345
 31
0.0
  0
POLYLINE
  5
C5F
  8
0
 66
     1
 10
0.0
 20
0.0
 30
0.0
  0
VERTEX
  5
F2E
  8
0
 10
80.849489726791717
 20
68.815157037936345
 30
0.0
  0
VERTEX
  5
F2F
  8
0
 10
80.813396090491523
 20
68.880399026356045
 30
0.0
  0
VERTEX
  5
F30
  8
0
 10
80.739263742132337
 20
69.009321427697699
 30
0.0
  0
VERTEX
  5
F31
  8
0
 10
80.662573235178144
 20
69.136100771302424
 30
0.0
  0
VERTEX
  5
F32
  8
0
 10
80.623282241522304
 20
69.198664223124766
 30
0.0
  0
SEQEND
  5
F33
  8
0
  0
POLYLINE
  5
C69
  8
0
 66
     1
 10
0.0
 20
0.0
 30
0.0
  0
VERTEX
  5
F34
  8
0
 10
153.64616547997949
 20
68.815157037936345
 30
0.0
  0
VERTEX
  5
F35
  8
0
 10
153.68225911627971
 20
68.880399026356045
 30
0.0
  0
VERTEX
  5
F36
  8
0
 10
153.75639146463891
 20
69.009321427697699
 30
0.0
  0
VERTEX
  5
F37
  8
0
 10
153.83308197159309
 20
69.136100771302424
 30
0.0
  0
VERTEX
  5
F38
  8
0
 10
153.8723729652489
 20
69.198664223124766
 30
0.0
  0
SEQEND
  5
F39
  8
0
  0
LINE
  5
C6A
  8
0
 10
150.55387610677451
 20
68.815157037936345
 30
0.0
 11
153.64616547997949
 21
68.815157037936345
 31
0.0
  0
LINE
  5
C6B
  8
0
 10
153.64616547997949
 20
63.198664223124752
 30
0.0
 11
153.64616547997949
 21
68.815157037936345
 31
0.0
  0
LINE
  5
C6C
  8
1
 10
158.25593770862599
 20
96.352532186185897
 30
0.0
 11
158.25593770862599
 21
60.044796260063627
 31
0.0
  0
LINE
  5
C71
  8
0
 10
161.25593770862591
 20
74.198664223124766
 30
0.0
 11
155.25593770862599
 21
74.198664223124766
 31
0.0
  0
POLYLINE
  5
C74
  8
0
 66
     1
 10
0.0
 20
0.0
 30
0.0
  0
VERTEX
  5
F3A
  8
0
 10
155.25593770862599
 20
91.469500331399828
 30
0.0
  0
VERTEX
  5
F3B
  8
0
 10
154.8244740919597
 20
91.374495698759233
 30
0.0
  0
VERTEX
  5
F3C
  8
0
 10
153.89301551706711
 20
91.138254047583644
 30
0.0
  0
VERTEX
  5
F3D
  8
0
 10
152.84103067885749
 20
90.828816752762464
 30
0.0
  0
VERTEX
  5
F3E
  8
0
 10
152.25593770862599
 20
90.640835511182331
 30
0.0
  0
SEQEND
  5
F3F
  8
0
  0
LINE
  5
C75
  8
0
 10
155.25593770862599
 20
74.198664223124766
 30
0.0
 11
155.25593770862599
 21
93.198664223124766
 31
0.0
  0
LINE
  5
C76
  8
0
 10
161.25593770862591
 20
93.198664223124766
 30
0.0
 11
161.25593770862591
 21
74.198664223124766
 31
0.0
  0
POLYLINE
  5
C77
  8
0
 66
     1
 10
0.0
 20
0.0
 30
0.0
  0
VERTEX
  5
F40
  8
0
 10
164.25593770862599
 20
90.640835511182345
 30
0.0
  0
VERTEX
  5
F41
  8
0
 10
163.67084473839441
 20
90.828816752762464
 30
0.0
  0
VERTEX
  5
F42
  8
0
 10
162.61885990018479
 20
91.138254047583644
 30
0.0
  0
VERTEX
  5
F43
  8
0
 10
161.6874013252922
 20
91.374495698759233
 30
0.0
  0
VERTEX
  5
F44
  8
0
 10
161.25593770862599
 20
91.469500331399828
 30
0.0
  0
SEQEND
  5
F45
  8
0
  0
LINE
  5
C78
  8
0
 10
164.25593770862591
 20
72.536538394673755
 30
0.0
 11
164.25593770862591
 21
91.799741248659757
 31
0.0
  0
POLYLINE
  5
C79
  8
0
 66
     1
 10
0.0
 20
0.0
 30
0.0
  0
VERTEX
  5
F46
  8
0
 10
152.25593770862599
 20
72.536538394673755
 30
0.0
  0
VERTEX
  5
F47
  8
0
 10
152.71327507167521
 20
72.41486027447263
 30
0.0
  0
VERTEX
  5
F48
  8
0
 10
153.55351911333921
 20
72.205605342331495
 30
0.0
  0
VERTEX
  5
F49
  8
0
 10
154.31324216089121
 20
72.035285940849406
 30
0.0
  0
VERTEX
  5
F4A
  8
0
 10
154.66868462000679
 20
71.962781125802664
 30
0.0
  0
VERTEX
  5
F4B
  8
0
 10
155.01041450598501
 20
71.897888280101881
 30
0.0
  0
VERTEX
  5
F4C
  8
0
 10
155.6592772073206
 20
71.788964961437657
 30
0.0
  0
VERTEX
  5
F4D
  8
0
 10
156.2714480431913
 20
71.705237172941821
 30
0.0
  0
VERTEX
  5
F4E
  8
0
 10
156.85670184326361
 20
71.644328498851337
 30
0.0
  0
VERTEX
  5
F4F
  8
0
 10
157.42354346516601
 20
71.604586939988963
 30
0.0
  0
VERTEX
  5
F50
  8
0
 10
157.9796490261684
 20
71.584968834120076
 30
0.0
  0
VERTEX
  5
F51
  8
0
 10
158.25593770862599
 20
71.582528258160181
 30
0.0
  0
VERTEX
  5
F52
  8
0
 10
158.5322263910835
 20
71.584968834120076
 30
0.0
  0
VERTEX
  5
F53
  8
0
 10
159.08833195208589
 20
71.604586939988963
 30
0.0
  0
VERTEX
  5
F54
  8
0
 10
159.65517357398829
 20
71.644328498851337
 30
0.0
  0
VERTEX
  5
F55
  8
0
 10
160.24042737406049
 20
71.705237172941821
 30
0.0
  0
VERTEX
  5
F56
  8
0
 10
160.8525982099313
 20
71.788964961437657
 30
0.0
  0
VERTEX
  5
F57
  8
0
 10
161.50146091126689
 20
71.897888280101881
 30
0.0
  0
VERTEX
  5
F58
  8
0
 10
161.8431907972452
 20
71.962781125802664
 30
0.0
  0
VERTEX
  5
F59
  8
0
 10
162.19863325636069
 20
72.03528594084942
 30
0.0
  0
VERTEX
  5
F5A
  8
0
 10
162.95835630391269
 20
72.205605342331495
 30
0.0
  0
VERTEX
  5
F5B
  8
0
 10
163.79860034557669
 20
72.41486027447263
 30
0.0
  0
VERTEX
  5
F5C
  8
0
 10
164.25593770862599
 20
72.536538394673755
 30
0.0
  0
SEQEND
  5
F5D
  8
0
  0
POLYLINE
  5
C7A
  8
0
 66
     1
 10
0.0
 20
0.0
 30
0.0
  0
VERTEX
  5
F5E
  8
0
 10
164.25593770862599
 20
71.582528258160181
 30
0.0
  0
VERTEX
  5
F5F
  8
0
 10
164.25593770862599
 20
71.583138159793634
 30
0.0
  0
VERTEX
  5
F60
  8
0
 10
164.25593770862599
 20
71.588023193272591
 30
0.0
  0
VERTEX
  5
F61
  8
0
 10
164.25593770862599
 20
71.597824405504909
 30
0.0
  0
VERTEX
  5
F62
  8
0
 10
164.25593770862599
 20
71.604586939988963
 30
0.0
  0
VERTEX
  5
F63
  8
0
 10
164.25593770862599
 20
71.61260458505555
 30
0.0
  0
VERTEX
  5
F64
  8
0
 10
164.25593770862599
 20
71.632459174740958
 30
0.0
  0
VERTEX
  5
F65
  8
0
 10
164.25593770862599
 20
71.657517826114812
 30
0.0
  0
VERTEX
  5
F66
  8
0
 10
164.25593770862599
 20
71.687946545208234
 30
0.0
  0
VERTEX
  5
F67
  8
0
 10
164.25593770862599
 20
71.723950496784539
 30
0.0
  0
VERTEX
  5
F68
  8
0
 10
164.25593770862599
 20
71.765777557340002
 30
0.0
  0
VERTEX
  5
F69
  8
0
 10
164.25593770862599
 20
71.788964961437657
 30
0.0
  0
VERTEX
  5
F6A
  8
0
 10
164.25593770862599
 20
71.81372273481594
 30
0.0
  0
VERTEX
  5
F6B
  8
0
 10
164.25593770862599
 20
71.868133607182571
 30
0.0
  0
VERTEX
  5
F6C
  8
0
 10
164.25593770862599
 20
71.929416974941944
 30
0.0
  0
VERTEX
  5
F6D
  8
0
 10
164.25593770862599
 20
71.998046977156434
 30
0.0
  0
VERTEX
  5
F6E
  8
0
 10
164.25593770862599
 20
72.074574990883235
 30
0.0
  0
VERTEX
  5
F6F
  8
0
 10
164.25593770862599
 20
72.159641725429822
 30
0.0
  0
VERTEX
  5
F70
  8
0
 10
164.25593770862599
 20
72.205605342331495
 30
0.0
  0
VERTEX
  5
F71
  8
0
 10
164.25593770862599
 20
72.253992043350109
 30
0.0
  0
VERTEX
  5
F72
  8
0
 10
164.25593770862599
 20
72.358493200407324
 30
0.0
  0
VERTEX
  5
F73
  8
0
 10
164.25593770862599
 20
72.474157412247351
 30
0.0
  0
VERTEX
  5
F74
  8
0
 10
164.25593770862599
 20
72.536538394673755
 30
0.0
  0
SEQEND
  5
F75
  8
0
  0
POLYLINE
  5
C7B
  8
0
 66
     1
 10
0.0
 20
0.0
 30
0.0
  0
VERTEX
  5
F76
  8
0
 10
164.25593770862599
 20
72.536538394673755
 30
0.0
  0
VERTEX
  5
F77
  8
0
 10
164.25593770862599
 20
72.205605342331495
 30
0.0
  0
VERTEX
  5
F78
  8
0
 10
164.25593770862599
 20
71.929416974941944
 30
0.0
  0
VERTEX
  5
F79
  8
0
 10
164.25593770862599
 20
71.868133607182571
 30
0.0
  0
VERTEX
  5
F7A
  8
0
 10
164.25593770862599
 20
71.81372273481594
 30
0.0
  0
VERTEX
  5
F7B
  8
0
 10
164.25593770862599
 20
71.788964961437657
 30
0.0
  0
VERTEX
  5
F7C
  8
0
 10
164.25593770862599
 20
71.765777557340002
 30
0.0
  0
VERTEX
  5
F7D
  8
0
 10
164.25593770862599
 20
71.723950496784539
 30
0.0
  0
VERTEX
  5
F7E
  8
0
 10
164.25593770862599
 20
71.68794654520822
 30
0.0
  0
VERTEX
  5
F7F
  8
0
 10
164.25593770862599
 20
71.657517826114812
 30
0.0
  0
VERTEX
  5
F80
  8
0
 10
164.25593770862599
 20
71.632459174740958
 30
0.0
  0
VERTEX
  5
F81
  8
0
 10
164.25593770862599
 20
71.61260458505555
 30
0.0
  0
VERTEX
  5
F82
  8
0
 10
164.25593770862599
 20
71.604586939988963
 30
0.0
  0
VERTEX
  5
F83
  8
0
 10
164.25593770862599
 20
71.597824405504909
 30
0.0
  0
VERTEX
  5
F84
  8
0
 10
164.25593770862599
 20
71.588023193272591
 30
0.0
  0
VERTEX
  5
F85
  8
0
 10
164.25593770862599
 20
71.583138159793634
 30
0.0
  0
VERTEX
  5
F86
  8
0
 10
164.25593770862599
 20
71.582528258160181
 30
0.0
  0
SEQEND
  5
F87
  8
0
  0
LINE
  5
C7C
  8
0
 10
153.25593770862599
 20
71.198664223124766
 30
0.0
 11
163.25593770862591
 21
71.198664223124766
 31
0.0
  0
LINE
  5
C7D
  8
0
 10
153.25593770862599
 20
62.198664223124752
 30
0.0
 11
163.25593770862591
 21
62.198664223124752
 31
0.0
  0
LINE
  5
C88
  8
0
 10
161.25593770862591
 20
93.198664223124766
 30
0.0
 11
164.25593770862591
 21
91.799741248659757
 31
0.0
  0
LINE
  5
C89
  8
0
 10
164.25593770862591
 20
71.582528258160181
 30
0.0
 11
163.25593770862591
 21
71.198664223124766
 31
0.0
  0
LINE
  5
C8A
  8
0
 10
153.25593770862599
 20
71.198664223124766
 30
0.0
 11
152.25593770862599
 21
71.582528258160181
 31
0.0
  0
LINE
  5
C8B
  8
0
 10
152.25593770862599
 20
91.799741248659757
 30
0.0
 11
155.25593770862599
 21
93.198664223124766
 31
0.0
  0
LINE
  5
C8C
  8
0
 10
163.25593770862591
 20
63.198664223124752
 30
0.0
 11
163.25593770862591
 21
62.198664223124752
 31
0.0
  0
LINE
  5
C8D
  8
0
 10
163.25593770862591
 20
71.198664223124766
 30
0.0
 11
163.25593770862591
 21
69.198664223124766
 31
0.0
  0
LINE
  5
C8E
  8
0
 10
153.25593770862599
 20
69.198664223124766
 30
0.0
 11
153.25593770862599
 21
71.198664223124766
 31
0.0
  0
LINE
  5
C8F
  8
0
 10
153.25593770862599
 20
62.198664223124752
 30
0.0
 11
153.25593770862599
 21
63.198664223124752
 31
0.0
  0
LINE
  5
C90
  8
1
 10
148.10206974556479
 20
86.198664223124766
 30
0.0
 11
168.40980567168711
 21
86.198664223124766
 31
0.0
  0
LINE
  5
C91
  8
0
 10
152.25593770862599
 20
69.198664223124766
 30
0.0
 11
152.25593770862599
 21
91.799741248659757
 31
0.0
  0
LINE
  5
C92
  8
0
 10
163.75593770862591
 20
63.198664223124752
 30
0.0
 11
160.25593770862599
 21
63.198664223124752
 31
0.0
  0
LINE
  5
C93
  8
0
 10
151.25593770862599
 20
63.198664223124752
 30
0.0
 11
150.25593770862599
 21
71.198664223124766
 31
0.0
  0
LINE
  5
C94
  8
0
 10
150.25593770862599
 20
71.198664223124766
 30
0.0
 11
150.25593770862599
 21
91.198664223124766
 31
0.0
  0
LINE
  5
C95
  8
0
 10
163.75593770862591
 20
69.198664223124766
 30
0.0
 11
160.25593770862599
 21
69.198664223124766
 31
0.0
  0
LINE
  5
C96
  8
0
 10
166.25593770862591
 20
83.948664223124766
 30
0.0
 11
166.25593770862591
 21
88.448664223124766
 31
0.0
  0
LINE
  5
C97
  8
0
 10
165.50593770862591
 20
83.198664223124766
 30
0.0
 11
165.50593770862591
 21
89.198664223124766
 31
0.0
  0
LINE
  5
C98
  8
0
 10
165.50593770862591
 20
89.198664223124766
 30
0.0
 11
166.25593770862591
 21
88.448664223124766
 31
0.0
  0
LINE
  5
C99
  8
0
 10
166.25593770862591
 20
83.948664223124766
 30
0.0
 11
165.50593770862591
 21
83.198664223124766
 31
0.0
  0
LINE
  5
C9A
  8
0
 10
164.25593770862591
 20
89.198664223124766
 30
0.0
 11
165.50593770862591
 21
89.198664223124766
 31
0.0
  0
LINE
  5
C9C
  8
0
 10
155.25593770862599
 20
89.198664223124766
 30
0.0
 11
161.25593770862591
 21
89.198664223124766
 31
0.0
  0
LINE
  5
C9F
  8
0
 10
161.25593770862591
 20
83.198664223124766
 30
0.0
 11
155.25593770862599
 21
83.198664223124766
 31
0.0
  0
LINE
  5
CA1
  8
0
 10
165.50593770862591
 20
83.198664223124766
 30
0.0
 11
164.25593770862591
 21
83.198664223124766
 31
0.0
  0
LINE
  5
CA2
  8
0
 10
150.25593770862599
 20
91.198664223124766
 30
0.0
 11
152.25593770862599
 21
91.198664223124766
 31
0.0
  0
LINE
  5
CA3
  8
0
 10
163.75593770862591
 20
69.198664223124766
 30
0.0
 11
163.75593770862591
 21
63.198664223124752
 31
0.0
  0
LINE
  5
CA4
  8
0
 10
113.9260268657402
 20
69.198664223124766
 30
0.0
 11
111.7478276033856
 21
69.198664223124766
 31
0.0
  0
POLYLINE
  5
CA5
  8
0
 66
     1
 10
0.0
 20
0.0
 30
0.0
  0
VERTEX
  5
F88
  8
0
 10
122.2478276033856
 20
72.279715212276443
 30
0.0
  0
VERTEX
  5
F89
  8
0
 10
122.7904902403364
 20
72.41486027447263
 30
0.0
  0
VERTEX
  5
F8A
  8
0
 10
123.2478276033856
 20
72.536538394673755
 30
0.0
  0
SEQEND
  5
F8B
  8
0
  0
LINE
  5
CA6
  8
1
 10
107.0939596403244
 20
86.198664223124766
 30
0.0
 11
127.4016955664467
 21
86.198664223124766
 31
0.0
  0
LINE
  5
CA7
  8
1
 10
117.2478276033856
 20
96.352532186185897
 30
0.0
 11
117.2478276033856
 21
60.044796260063627
 31
0.0
  0
LINE
  5
CA8
  8
0
 10
123.2478276033856
 20
91.469500331399828
 30
0.0
 11
123.2478276033856
 21
71.582528258160181
 31
0.0
  0
LINE
  5
CA9
  8
0
 10
111.7478276033856
 20
63.198664223124752
 30
0.0
 11
111.7478276033856
 21
69.198664223124766
 31
0.0
  0
LINE
  5
CAA
  8
0
 10
123.7478276033856
 20
69.198664223124766
 30
0.0
 11
123.7478276033856
 21
63.198664223124752
 31
0.0
  0
LINE
  5
CAC
  8
0
 10
123.7478276033856
 20
69.198664223124766
 30
0.0
 11
120.56962834103111
 21
69.198664223124766
 31
0.0
  0
LINE
  5
CAD
  8
0
 10
120.2478276033856
 20
68.815157037936345
 30
0.0
 11
120.2478276033856
 21
63.198664223124752
 31
0.0
  0
LINE
  5
CAE
  8
0
 10
114.2478276033856
 20
63.198664223124752
 30
0.0
 11
114.2478276033856
 21
68.815157037936345
 31
0.0
  0
LINE
  5
CAF
  8
0
 10
112.2478276033856
 20
69.198664223124766
 30
0.0
 11
112.2478276033856
 21
86.198664223124766
 31
0.0
  0
ARC
  5
CB0
  8
0
 10
117.2478276033856
 20
86.198664223124766
 30
0.0
 40
5.0
 50
0.000000000000007
 51
180.0
  0
LINE
  5
CB1
  8
0
 10
123.7478276033856
 20
63.198664223124752
 30
0.0
 11
111.7478276033856
 21
63.198664223124752
 31
0.0
  0
LINE
  5
CB2
  8
0
 10
114.2478276033856
 20
68.815157037936345
 30
0.0
 11
112.2478276033856
 21
71.198664223124766
 31
0.0
  0
LINE
  5
CB3
  8
0
 10
122.2478276033856
 20
69.198664223124766
 30
0.0
 11
122.2478276033856
 21
86.198664223124766
 31
0.0
  0
LINE
  5
CB4
  8
0
 10
122.2478276033856
 20
71.198664223124766
 30
0.0
 11
120.2478276033856
 21
68.815157037936345
 31
0.0
  0
LINE
  5
CB5
  8
0
 10
112.2478276033856
 20
62.198664223124752
 30
0.0
 11
112.2478276033856
 21
63.198664223124752
 31
0.0
  0
LINE
  5
CB6
  8
0
 10
122.2478276033856
 20
63.198664223124752
 30
0.0
 11
122.2478276033856
 21
62.198664223124752
 31
0.0
  0
LINE
  5
CB7
  8
0
 10
112.2478276033856
 20
71.198664223124766
 30
0.0
 11
111.2478276033856
 21
71.582528258160181
 31
0.0
  0
LINE
  5
CB8
  8
0
 10
123.2478276033856
 20
71.582528258160181
 30
0.0
 11
122.2478276033856
 21
71.198664223124766
 31
0.0
  0
LINE
  5
CB9
  8
0
 10
112.2478276033856
 20
62.198664223124752
 30
0.0
 11
122.2478276033856
 21
62.198664223124752
 31
0.0
  0
LINE
  5
CBA
  8
0
 10
112.2478276033856
 20
71.198664223124766
 30
0.0
 11
122.2478276033856
 21
71.198664223124766
 31
0.0
  0
POLYLINE
  5
CBB
  8
0
 66
     1
 10
0.0
 20
0.0
 30
0.0
  0
VERTEX
  5
F8C
  8
0
 10
111.2478276033856
 20
72.536538394673755
 30
0.0
  0
VERTEX
  5
F8D
  8
0
 10
111.70516496643489
 20
72.414860274472616
 30
0.0
  0
VERTEX
  5
F8E
  8
0
 10
112.2478276033856
 20
72.279715212276443
 30
0.0
  0
SEQEND
  5
F8F
  8
0
  0
POLYLINE
  5
CBC
  8
0
 66
     1
 10
0.0
 20
0.0
 30
0.0
  0
VERTEX
  5
F90
  8
0
 10
111.2478276033856
 20
91.469500331399828
 30
0.0
  0
VERTEX
  5
F91
  8
0
 10
111.93580700104459
 20
91.752821429603117
 30
0.0
  0
VERTEX
  5
F92
  8
0
 10
113.0420603347396
 20
92.188600209521823
 30
0.0
  0
VERTEX
  5
F93
  8
0
 10
113.9033401682794
 20
92.502542280361098
 30
0.0
  0
VERTEX
  5
F94
  8
0
 10
114.2702019647475
 20
92.626575030079479
 30
0.0
  0
VERTEX
  5
F95
  8
0
 10
114.6046610882337
 20
92.733153583532285
 30
0.0
  0
VERTEX
  5
F96
  8
0
 10
115.19798288438641
 20
92.903287767146708
 30
0.0
  0
VERTEX
  5
F97
  8
0
 10
115.717337281186
 20
93.027133850787024
 30
0.0
  0
VERTEX
  5
F98
  8
0
 10
116.1864905002312
 20
93.113700065915381
 30
0.0
  0
VERTEX
  5
F99
  8
0
 10
116.6231658491174
 20
93.168660263401932
 30
0.0
  0
VERTEX
  5
F9A
  8
0
 10
117.0415731188555
 20
93.195361928614062
 30
0.0
  0
VERTEX
  5
F9B
  8
0
 10
117.2478276033856
 20
93.198664223124766
 30
0.0
  0
VERTEX
  5
F9C
  8
0
 10
117.45408208791569
 20
93.195361928614062
 30
0.0
  0
VERTEX
  5
F9D
  8
0
 10
117.87248935765381
 20
93.168660263401932
 30
0.0
  0
VERTEX
  5
F9E
  8
0
 10
118.30916470654
 20
93.113700065915381
 30
0.0
  0
VERTEX
  5
F9F
  8
0
 10
118.7783179255852
 20
93.027133850787024
 30
0.0
  0
VERTEX
  5
FA0
  8
0
 10
119.2976723223849
 20
92.903287767146708
 30
0.0
  0
VERTEX
  5
FA1
  8
0
 10
119.89099411853751
 20
92.733153583532285
 30
0.0
  0
VERTEX
  5
FA2
  8
0
 10
120.2254532420237
 20
92.626575030079493
 30
0.0
  0
VERTEX
  5
FA3
  8
0
 10
120.5923150384918
 20
92.502542280361098
 30
0.0
  0
VERTEX
  5
FA4
  8
0
 10
121.4535948720316
 20
92.188600209521809
 30
0.0
  0
VERTEX
  5
FA5
  8
0
 10
122.5598482057266
 20
91.752821429603117
 30
0.0
  0
VERTEX
  5
FA6
  8
0
 10
123.2478276033856
 20
91.469500331399828
 30
0.0
  0
SEQEND
  5
FA7
  8
0
  0
POLYLINE
  5
CBD
  8
0
 66
     1
 10
0.0
 20
0.0
 30
0.0
  0
VERTEX
  5
FA8
  8
0
 10
123.2478276033856
 20
90.640835511182331
 30
0.0
  0
VERTEX
  5
FA9
  8
0
 10
122.7904902403363
 20
90.788646803986737
 30
0.0
  0
VERTEX
  5
FAA
  8
0
 10
121.9502461986723
 20
91.042844041701656
 30
0.0
  0
VERTEX
  5
FAB
  8
0
 10
121.1905231511204
 20
91.249743448769436
 30
0.0
  0
VERTEX
  5
FAC
  8
0
 10
120.83508069200479
 20
91.337820339083734
 30
0.0
  0
VERTEX
  5
FAD
  8
0
 10
120.4933508060265
 20
91.416650414703994
 30
0.0
  0
VERTEX
  5
FAE
  8
0
 10
119.8444881046909
 20
91.548967519222785
 30
0.0
  0
VERTEX
  5
FAF
  8
0
 10
119.2323172688202
 20
91.65067777444996
 30
0.0
  0
VERTEX
  5
FB0
  8
0
 10
118.647063468748
 20
91.724667986046214
 30
0.0
  0
VERTEX
  5
FB1
  8
0
 10
118.0802218468456
 20
91.772944957976733
 30
0.0
  0
VERTEX
  5
FB2
  8
0
 10
117.52411628584311
 20
91.796776502925525
 30
0.0
  0
VERTEX
  5
FB3
  8
0
 10
117.2478276033856
 20
91.799741248659757
 30
0.0
  0
VERTEX
  5
FB4
  8
0
 10
116.9715389209281
 20
91.796776502925525
 30
0.0
  0
VERTEX
  5
FB5
  8
0
 10
116.4154333599257
 20
91.772944957976733
 30
0.0
  0
VERTEX
  5
FB6
  8
0
 10
115.8485917380232
 20
91.724667986046214
 30
0.0
  0
VERTEX
  5
FB7
  8
0
 10
115.26333793795099
 20
91.650677774449974
 30
0.0
  0
VERTEX
  5
FB8
  8
0
 10
114.65116710208029
 20
91.548967519222785
 30
0.0
  0
VERTEX
  5
FB9
  8
0
 10
114.00230440074471
 20
91.416650414703994
 30
0.0
  0
VERTEX
  5
FBA
  8
0
 10
113.6605745147664
 20
91.337820339083734
 30
0.0
  0
VERTEX
  5
FBB
  8
0
 10
113.3051320556508
 20
91.249743448769436
 30
0.0
  0
VERTEX
  5
FBC
  8
0
 10
112.5454090080989
 20
91.042844041701656
 30
0.0
  0
VERTEX
  5
FBD
  8
0
 10
111.70516496643489
 20
90.788646803986737
 30
0.0
  0
VERTEX
  5
FBE
  8
0
 10
111.2478276033856
 20
90.640835511182345
 30
0.0
  0
SEQEND
  5
FBF
  8
0
  0
LINE
  5
CBE
  8
0
 10
111.2478276033856
 20
91.469500331399828
 30
0.0
 11
111.2478276033856
 21
71.582528258160181
 31
0.0
  0
LINE
  5
CC1
  8
1
 10
35.231607392904891
 20
96.352532186185897
 30
0.0
 11
35.231607392904891
 21
60.044796260063627
 31
0.0
  0
LINE
  5
CC2
  8
1
 10
45.38547535596603
 20
86.198664223124766
 30
0.0
 11
25.077739429843771
 21
86.198664223124766
 31
0.0
  0
LINE
  5
CC4
  8
0
 10
122.1468070889519
 20
69.198664223124766
 30
0.0
 11
122.1468070889519
 21
63.198664223124752
 31
0.0
  0
LINE
  5
CCD
  8
2
 10
70.239717498145268
 20
125.06214888742279
 30
0.0
 11
73.239717498145239
 21
125.06214888742279
 31
0.0
  0
LINE
  5
CCE
  8
2
 10
79.239717498145254
 20
125.06214888742279
 30
0.0
 11
82.239717498145225
 21
125.06214888742279
 31
0.0
  0
LINE
  5
CCF
  8
2
 10
79.239717498145254
 20
119.06214888742279
 30
0.0
 11
82.239717498145225
 21
119.06214888742279
 31
0.0
  0
LINE
  5
CD0
  8
2
 10
73.239717498145239
 20
119.06214888742279
 30
0.0
 11
70.239717498145239
 21
119.06214888742279
 31
0.0
  0
LINE
  5
CD1
  8
0
 10
78.239717498145268
 20
128.56214888742281
 30
0.0
 11
78.239717498145268
 21
128.06214888742281
 31
0.0
  0
LINE
  5
CD2
  8
0
 10
78.739717498145254
 20
128.56214888742281
 30
0.0
 11
78.239717498145268
 21
128.56214888742281
 31
0.0
  0
LINE
  5
CD3
  8
0
 10
78.739717498145254
 20
128.06214888742281
 30
0.0
 11
78.739717498145254
 21
128.56214888742281
 31
0.0
  0
LINE
  5
CD4
  8
0
 10
73.739717498145254
 20
128.56214888742281
 30
0.0
 11
73.739717498145254
 21
128.06214888742281
 31
0.0
  0
LINE
  5
CD5
  8
0
 10
74.239717498145254
 20
128.56214888742281
 30
0.0
 11
73.739717498145254
 21
128.56214888742281
 31
0.0
  0
LINE
  5
CD6
  8
0
 10
74.239717498145254
 20
128.06214888742281
 30
0.0
 11
74.239717498145254
 21
128.56214888742281
 31
0.0
  0
LINE
  5
CD7
  8
1
 10
76.239717498145239
 20
132.2160168504839
 30
0.0
 11
76.239717498145239
 21
111.90828092436161
 31
0.0
  0
LINE
  5
CD8
  8
1
 10
86.393585461206385
 20
122.06214888742279
 30
0.0
 11
66.085849535084122
 21
122.06214888742279
 31
0.0
  0
LINE
  5
CE5
  8
0
 10
40.231607392904891
 20
69.198664223124766
 30
0.0
 11
40.231607392904891
 21
71.19866422312478
 31
0.0
  0
POLYLINE
  5
CE6
  8
0
 66
     1
 10
0.0
 20
0.0
 30
0.0
  0
VERTEX
  5
FC0
  8
0
 10
41.231607392904898
 20
72.536538394673755
 30
0.0
  0
VERTEX
  5
FC1
  8
0
 10
40.774270029855629
 20
72.41486027447263
 30
0.0
  0
VERTEX
  5
FC2
  8
0
 10
39.934025988191642
 20
72.205605342331495
 30
0.0
  0
VERTEX
  5
FC3
  8
0
 10
39.174302940639691
 20
72.035285940849406
 30
0.0
  0
VERTEX
  5
FC4
  8
0
 10
38.818860481524112
 20
71.962781125802664
 30
0.0
  0
VERTEX
  5
FC5
  8
0
 10
38.47713059554583
 20
71.897888280101881
 30
0.0
  0
VERTEX
  5
FC6
  8
0
 10
37.828267894210207
 20
71.788964961437657
 30
0.0
  0
VERTEX
  5
FC7
  8
0
 10
37.216097058339521
 20
71.705237172941821
 30
0.0
  0
VERTEX
  5
FC8
  8
0
 10
36.630843258267262
 20
71.644328498851337
 30
0.0
  0
VERTEX
  5
FC9
  8
0
 10
36.06400163636485
 20
71.604586939988963
 30
0.0
  0
VERTEX
  5
FCA
  8
0
 10
35.507896075362432
 20
71.584968834120076
 30
0.0
  0
VERTEX
  5
FCB
  8
0
 10
35.231607392904913
 20
71.582528258160181
 30
0.0
  0
VERTEX
  5
FCC
  8
0
 10
34.955318710447379
 20
71.584968834120076
 30
0.0
  0
VERTEX
  5
FCD
  8
0
 10
34.399213149444961
 20
71.604586939988963
 30
0.0
  0
VERTEX
  5
FCE
  8
0
 10
33.832371527542549
 20
71.644328498851337
 30
0.0
  0
VERTEX
  5
FCF
  8
0
 10
33.247117727470297
 20
71.705237172941821
 30
0.0
  0
VERTEX
  5
FD0
  8
0
 10
32.634946891599597
 20
71.788964961437657
 30
0.0
  0
VERTEX
  5
FD1
  8
0
 10
31.986084190263981
 20
71.897888280101881
 30
0.0
  0
VERTEX
  5
FD2
  8
0
 10
31.644354304285699
 20
71.962781125802664
 30
0.0
  0
VERTEX
  5
FD3
  8
0
 10
31.28891184517013
 20
72.03528594084942
 30
0.0
  0
VERTEX
  5
FD4
  8
0
 10
30.529188797618179
 20
72.205605342331495
 30
0.0
  0
VERTEX
  5
FD5
  8
0
 10
29.688944755954171
 20
72.41486027447263
 30
0.0
  0
VERTEX
  5
FD6
  8
0
 10
29.231607392904909
 20
72.536538394673755
 30
0.0
  0
SEQEND
  5
FD7
  8
0
  0
LINE
  5
CEF
  8
0
 10
30.33262790733858
 20
69.198664223124766
 30
0.0
 11
30.33262790733858
 21
63.198664223124752
 31
0.0
  0
CIRCLE
  5
CFD
  8
0
 10
76.239717498145239
 20
33.335179558826752
 30
0.0
 40
2.458499999999999
  0
CIRCLE
  5
D0A
  8
0
 10
76.239717498145239
 20
33.335179558826752
 30
0.0
 40
5.0
  0
LINE
  5
D12
  8
0
 10
80.623282241522304
 20
30.013378821181309
 30
0.0
 11
82.239717498145268
 21
30.013378821181309
 31
0.0
  0
LINE
  5
D13
  8
0
 10
84.239717498145254
 20
28.335179558826749
 30
0.0
 11
83.941779099996722
 21
30.335179558826749
 31
0.0
  0
LINE
  5
D14
  8
0
 10
83.941779099996722
 20
30.335179558826749
 30
0.0
 11
80.849489726791717
 21
30.335179558826749
 31
0.0
  0
LINE
  5
D17
  8
0
 10
82.239717498145268
 20
28.335179558826749
 30
0.0
 11
84.239717498145254
 21
28.335179558826749
 31
0.0
  0
ARC
  5
D1E
  8
0
 10
76.239717498145254
 20
33.335179558826731
 30
0.0
 40
5.499999999999976
 50
297.03569178941228
 51
326.94426884914611
  0
LINE
  5
D1F
  8
0
 10
83.239717498145268
 20
30.335179558826749
 30
0.0
 11
83.239717498145225
 21
36.335179558826759
 31
0.0
  0
ARC
  5
D20
  8
0
 10
76.239717498145239
 20
33.335179558826752
 30
0.0
 40
5.4999999999999991
 50
33.055731150853958
 51
242.96430821058769
  0
LINE
  5
D23
  8
0
 10
84.239717498145254
 20
28.335179558826749
 30
0.0
 11
84.239717498145254
 21
38.335179558826752
 31
0.0
  0
LINE
  5
D25
  8
0
 10
74.239717498145254
 20
28.752603863870888
 30
0.0
 11
74.239717498145254
 21
26.835179558826749
 31
0.0
  0
LINE
  5
D26
  8
0
 10
74.239717498145254
 20
26.835179558826749
 30
0.0
 11
73.739717498145254
 21
26.835179558826731
 31
0.0
  0
LINE
  5
D27
  8
0
 10
73.739717498145254
 20
26.835179558826731
 30
0.0
 11
73.739717498145254
 21
28.436200073260409
 31
0.0
  0
LINE
  5
D28
  8
0
 10
78.739717498145254
 20
28.43620007326038
 30
0.0
 11
78.739717498145254
 21
26.835179558826749
 31
0.0
  0
LINE
  5
D29
  8
0
 10
78.739717498145254
 20
26.835179558826749
 30
0.0
 11
78.239717498145268
 21
26.835179558826749
 31
0.0
  0
LINE
  5
D2A
  8
0
 10
78.239717498145268
 20
26.835179558826749
 30
0.0
 11
78.239717498145268
 21
28.75260386387092
 31
0.0
  0
LINE
  5
D2B
  8
0
 10
68.239717498145268
 20
31.08517955882672
 30
0.0
 11
68.239717498145239
 21
35.585179558826731
 31
0.0
  0
LINE
  5
D2C
  8
0
 10
68.989717498145268
 20
30.33517955882672
 30
0.0
 11
68.989717498145239
 21
36.335179558826717
 31
0.0
  0
LINE
  5
D2D
  8
0
 10
68.989717498145268
 20
30.33517955882672
 30
0.0
 11
68.239717498145268
 21
31.08517955882672
 31
0.0
  0
LINE
  5
D2E
  8
0
 10
68.239717498145239
 20
35.585179558826731
 30
0.0
 11
68.989717498145239
 21
36.335179558826717
 31
0.0
  0
LINE
  5
D2F
  8
0
 10
70.239717498145268
 20
30.33517955882672
 30
0.0
 11
68.989717498145268
 21
30.33517955882672
 31
0.0
  0
LINE
  5
D34
  8
0
 10
68.989717498145239
 20
36.335179558826717
 30
0.0
 11
70.239717498145239
 21
36.335179558826717
 31
0.0
  0
LINE
  5
D35
  8
0
 10
70.239717498145239
 20
39.335179558826731
 30
0.0
 11
82.239717498145225
 21
39.335179558826752
 31
0.0
  0
LINE
  5
D37
  8
0
 10
70.239717498145239
 20
39.335179558826731
 30
0.0
 11
70.239717498145268
 21
27.33517955882672
 31
0.0
  0
LINE
  5
D38
  8
0
 10
82.239717498145268
 20
30.013378821181309
 30
0.0
 11
82.239717498145268
 21
27.335179558826749
 31
0.0
  0
CIRCLE
  5
D42
  8
3
 10
76.239717498145239
 20
33.335179558826752
 30
0.0
 40
3.0
  0
LINE
  5
D4B
  8
0
 10
70.239717498145268
 20
27.33517955882672
 30
0.0
 11
73.739717498145254
 21
27.33517955882672
 31
0.0
  0
LINE
  5
D4D
  8
0
 10
78.739717498145239
 20
27.335179558826749
 30
0.0
 11
82.239717498145268
 21
27.335179558826749
 31
0.0
  0
LINE
  5
D4E
  8
0
 10
74.239717498145254
 20
27.335179558826749
 30
0.0
 11
78.239717498145239
 21
27.335179558826749
 31
0.0
  0
LINE
  5
D50
  8
0
 10
82.239717498145268
 20
38.335179558826752
 30
0.0
 11
84.239717498145254
 21
38.335179558826752
 31
0.0
  0
LINE
  5
D51
  8
0
 10
83.941779099996722
 20
36.335179558826759
 30
0.0
 11
80.849489726791717
 21
36.335179558826759
 31
0.0
  0
LINE
  5
D52
  8
0
 10
84.239717498145254
 20
38.335179558826752
 30
0.0
 11
83.941779099996722
 21
36.335179558826759
 31
0.0
  0
LINE
  5
D53
  8
0
 10
80.623282241522304
 20
36.656980296472199
 30
0.0
 11
82.239717498145268
 21
36.656980296472199
 31
0.0
  0
LINE
  5
D54
  8
0
 10
82.239717498145225
 20
39.335179558826752
 30
0.0
 11
82.239717498145225
 21
36.656980296472199
 31
0.0
  0
LINE
  5
D7B
  8
0
 10
155.75593770862591
 20
63.198664223124752
 30
0.0
 11
155.75593770862591
 21
69.198664223124766
 31
0.0
  0
LINE
  5
D7D
  8
0
 10
156.25593770862591
 20
63.198664223124752
 30
0.0
 11
156.25593770862591
 21
69.198664223124766
 31
0.0
  0
LINE
  5
D7E
  8
0
 10
160.25593770862599
 20
63.198664223124752
 30
0.0
 11
160.25593770862599
 21
69.198664223124766
 31
0.0
  0
LINE
  5
D7F
  8
0
 10
160.75593770862599
 20
63.198664223124752
 30
0.0
 11
160.75593770862599
 21
69.198664223124766
 31
0.0
  0
LINE
  5
D81
  8
0
 10
156.25593770862591
 20
69.198664223124766
 30
0.0
 11
152.25593770862599
 21
69.198664223124766
 31
0.0
  0
LINE
  5
D82
  8
0
 10
156.25593770862591
 20
63.198664223124752
 30
0.0
 11
151.25593770862599
 21
63.198664223124752
 31
0.0
  0
LINE
  5
D83
  8
1
 10
86.393585461206385
 20
33.335179558826752
 30
0.0
 11
66.085849535084122
 21
33.335179558826752
 31
0.0
  0
LINE
  5
D84
  8
1
 10
76.239717498145239
 20
43.489047521887862
 30
0.0
 11
76.239717498145239
 21
23.181311595765639
 31
0.0
  0
LINE
  5
DA9
  8
0
 10
84.239717498145254
 20
71.198664223124766
 30
0.0
 11
82.239717498145254
 21
71.198664223124766
 31
0.0
  0
LINE
  5
DAA
  8
0
 10
150.25593770862599
 20
71.198664223124766
 30
0.0
 11
152.25593770862599
 21
71.198664223124766
 31
0.0
  0
TEXT
  5
E55
  8
0
 62
     3
 10
0.0
 20
0.0
 30
0.0
 40
10.0
  1
CJC06-M06
  7
STANDARD1
  0
ENDSEC
  0
EOF
