  0
SECTION
  2
HEADER
  9
$ACADVER
  1
AC1009
  9
$INSBASE
 10
0.0
 20
0.0
 30
0.0
  9
$EXTMIN
 10
0.0
 20
-2.960436562073669
 30
-10.0
  9
$EXTMAX
 10
247.93110603570551
 20
212.0008131698284
 30
0.0
  9
$LIMMIN
 10
0.0
 20
0.0
  9
$LIMMAX
 10
187.5
 20
135.0
  9
$ORTHOMODE
 70
     1
  9
$REGENMODE
 70
     1
  9
$FILLMODE
 70
     1
  9
$QTEXTMODE
 70
     0
  9
$MIRRTEXT
 70
     0
  9
$DRAGMODE
 70
     2
  9
$LTSCALE
 40
5.0
  9
$OSMODE
 70
  3071
  9
$ATTMODE
 70
     1
  9
$TEXTSIZE
 40
0.06
  9
$TRACEWID
 40
0.05
  9
$TEXTSTYLE
  7
STANDARD
  9
$CLAYER
  8
0
  9
$CELTYPE
  6
BYLAYER
  9
$CECOLOR
 62
   256
  9
$DIMSCALE
 40
0.5
  9
$DIMASZ
 40
3.0
  9
$DIMEXO
 40
2.0
  9
$DIMDLI
 40
10.0
  9
$DIMRND
 40
0.0
  9
$DIMDLE
 40
0.0
  9
$DIMEXE
 40
2.0
  9
$DIMTP
 40
0.0
  9
$DIMTM
 40
0.0
  9
$DIMTXT
 40
3.0
  9
$DIMCEN
 40
0.0
  9
$DIMTSZ
 40
0.0
  9
$DIMTOL
 70
     0
  9
$DIMLIM
 70
     0
  9
$DIMTIH
 70
     0
  9
$DIMTOH
 70
     0
  9
$DIMSE1
 70
     0
  9
$DIMSE2
 70
     0
  9
$DIMTAD
 70
     1
  9
$DIMZIN
 70
     8
  9
$DIMBLK
  1

  9
$DIMASO
 70
     0
  9
$DIMSHO
 70
     0
  9
$DIMPOST
  1

  9
$DIMAPOST
  1

  9
$DIMALT
 70
     0
  9
$DIMALTD
 70
     2
  9
$DIMALTF
 40
25.399999999999999
  9
$DIMLFAC
 40
1.0
  9
$DIMTOFL
 70
     1
  9
$DIMTVP
 40
1.6000000000000001
  9
$DIMTIX
 70
     1
  9
$DIMSOXD
 70
     0
  9
$DIMSAH
 70
     0
  9
$DIMBLK1
  1

  9
$DIMBLK2
  1

  9
$DIMSTYLE
  2
STANDARD
  9
$DIMCLRD
 70
     0
  9
$DIMCLRE
 70
     0
  9
$DIMCLRT
 70
     0
  9
$DIMTFAC
 40
1.0
  9
$DIMGAP
 40
0.09
  9
$LUNITS
 70
     2
  9
$LUPREC
 70
     4
  9
$SKETCHINC
 40
0.1
  9
$FILLETRAD
 40
0.4
  9
$AUNITS
 70
     0
  9
$AUPREC
 70
     4
  9
$MENU
  1
E:\r13\win\SUPPORT\ACAD
  9
$ELEVATION
 40
0.0
  9
$PELEVATION
 40
0.0
  9
$THICKNESS
 40
0.0
  9
$LIMCHECK
 70
     0
  9
$BLIPMODE
 70
     0
  9
$CHAMFERA
 40
0.0
  9
$CHAMFERB
 40
0.0
  9
$SKPOLY
 70
     0
  9
$TDCREATE
 40
2449840.5914699072
  9
$TDUPDATE
 40
2456598.5893660532
  9
$TDINDWG
 40
0.300871088
  9
$TDUSRTIMER
 40
0.300871088
  9
$USRTIMER
 70
     1
  9
$ANGBASE
 50
0.0
  9
$ANGDIR
 70
     0
  9
$PDMODE
 70
     0
  9
$PDSIZE
 40
0.0
  9
$PLINEWID
 40
0.0
  9
$COORDS
 70
     1
  9
$SPLFRAME
 70
     0
  9
$SPLINETYPE
 70
     6
  9
$SPLINESEGS
 70
     8
  9
$ATTDIA
 70
     0
  9
$ATTREQ
 70
     1
  9
$HANDLING
 70
     1
  9
$HANDSEED
  5
1DB1
  9
$SURFTAB1
 70
     6
  9
$SURFTAB2
 70
     6
  9
$SURFTYPE
 70
     6
  9
$SURFU
 70
     6
  9
$SURFV
 70
     6
  9
$UCSNAME
  2

  9
$UCSORG
 10
0.0
 20
0.0
 30
0.0
  9
$UCSXDIR
 10
1.0
 20
0.0
 30
0.0
  9
$UCSYDIR
 10
0.0
 20
1.0
 30
0.0
  9
$PUCSNAME
  2

  9
$PUCSORG
 10
0.0
 20
0.0
 30
0.0
  9
$PUCSXDIR
 10
1.0
 20
0.0
 30
0.0
  9
$PUCSYDIR
 10
0.0
 20
1.0
 30
0.0
  9
$USERI1
 70
     3
  9
$USERI2
 70
     1
  9
$USERI3
 70
     0
  9
$USERI4
 70
     0
  9
$USERI5
 70
     0
  9
$USERR1
 40
0.5
  9
$USERR2
 40
3.0
  9
$USERR3
 40
3.0
  9
$USERR4
 40
3.0
  9
$USERR5
 40
10.0
  9
$WORLDVIEW
 70
     1
  9
$SHADEDGE
 70
     3
  9
$SHADEDIF
 70
    70
  9
$TILEMODE
 70
     1
  9
$MAXACTVP
 70
    16
  9
$PLIMCHECK
 70
     0
  9
$PEXTMIN
 10
1.0000000000000000E+020
 20
1.0000000000000000E+020
 30
1.0000000000000000E+020
  9
$PEXTMAX
 10
-1.0000000000000000E+020
 20
-1.0000000000000000E+020
 30
-1.0000000000000000E+020
  9
$PLIMMIN
 10
0.0
 20
0.0
  9
$PLIMMAX
 10
12.0
 20
9.0
  9
$UNITMODE
 70
     0
  9
$VISRETAIN
 70
     0
  9
$PLINEGEN
 70
     0
  9
$PSLTSCALE
 70
     0
  0
ENDSEC
  0
SECTION
  2
TABLES
  0
TABLE
  2
VPORT
 70
     1
  0
VPORT
  2
*ACTIVE
 70
     0
 10
0.0
 20
0.0
 11
1.0
 21
1.0
 12
129.9222416800624
 22
104.5204514489683
 13
0.0
 23
0.0
 14
5.0
 24
5.0
 15
10.0
 25
10.0
 16
0.0
 26
0.0
 36
1.0
 17
0.0
 27
0.0
 37
0.0
 40
216.90167885485221
 41
1.831871345029239
 42
50.0
 43
0.0
 44
0.0
 50
0.0
 51
0.0
 71
     0
 72
   100
 73
     1
 74
     0
 75
     0
 76
     0
 77
     0
 78
     0
  0
ENDTAB
  0
TABLE
  2
LTYPE
 70
     4
  0
LTYPE
  2
CONTINUOUS
 70
     0
  3
Solid Line
 72
    65
 73
     0
 40
0.0
  0
LTYPE
  2
CENTER
 70
     0
  3
____ _ ____ _ ____ _ ____ _ ____ _ ____ _ ____
 72
    65
 73
     4
 40
2.0
 49
1.25
 49
-0.25
 49
0.25
 49
-0.25
  0
LTYPE
  2
HIDDEN
 70
     0
  3
_ _ _ _ _ _ _ _ _ _ _ _ _ _ _ _ _ _ _ _ _ _ _
 72
    65
 73
     2
 40
0.375
 49
0.25
 49
-0.125
  0
LTYPE
  2
PHANTOM2
 70
     0
  3
___ _ _ ___ _ _ ___ _ _ ___ _ _
 72
    65
 73
     6
 40
1.25
 49
0.625
 49
-0.125
 49
0.125
 49
-0.125
 49
0.125
 49
-0.125
  0
ENDTAB
  0
TABLE
  2
LAYER
 70
     4
  0
LAYER
  2
0
 70
     0
 62
     7
  6
CONTINUOUS
  0
LAYER
  2
1
 70
     0
 62
     1
  6
CENTER
  0
LAYER
  2
2
 70
     0
 62
     2
  6
HIDDEN
  0
LAYER
  2
3
 70
     0
 62
     3
  6
CONTINUOUS
  0
ENDTAB
  0
TABLE
  2
STYLE
 70
     2
  0
STYLE
  2
STANDARD
 70
     0
 40
0.0
 41
1.0
 50
0.0
 71
     0
 42
0.06
  3
TXT
  4
BIGFONT
  0
STYLE
  2
STANDARD1
 70
     0
 40
0.0
 41
1.0
 50
0.0
 71
     0
 42
3.0
  3
txt
  4

  0
ENDTAB
  0
TABLE
  2
VIEW
 70
     2
  0
VIEW
  2
OLE1
 70
     0
 40
24.514257897662329
 10
44.901529473115893
 20
103.25177669290009
 41
34.172454060781448
 11
0.0
 21
0.0
 31
1.0
 12
0.0
 22
0.0
 32
0.0
 42
50.0
 43
0.0
 44
0.0
 50
0.0
 71
     0
  0
VIEW
  2
OLE2
 70
     0
 40
111.8251716252055
 10
23.153306359535989
 20
84.753742215946431
 41
155.8823667497492
 11
0.0
 21
0.0
 31
1.0
 12
0.0
 22
0.0
 32
0.0
 42
50.0
 43
0.0
 44
0.0
 50
0.0
 71
     0
  0
ENDTAB
  0
TABLE
  2
UCS
 70
     0
  0
ENDTAB
  0
TABLE
  2
APPID
 70
     3
  0
APPID
  2
ACAD
 70
     0
  0
APPID
  2
ACAD_MLEADERVER
 70
     0
  0
APPID
  2
ACAD_NAV_VCDISPLAY
 70
     0
  0
ENDTAB
  0
TABLE
  2
DIMSTYLE
 70
     1
  0
DIMSTYLE
  2
STANDARD
 70
     0
  3

  4

  5

  6

  7

 40
1.0
 41
0.18
 42
0.0625
 43
0.38
 44
0.18
 45
0.0
 46
0.0
 47
0.0
 48
0.0
140
0.18
141
0.09
142
0.0
143
25.399999999999999
144
1.0
145
0.0
146
1.0
147
0.09
 71
     0
 72
     0
 73
     1
 74
     1
 75
     0
 76
     0
 77
     0
 78
     0
170
     0
171
     2
172
     0
173
     0
174
     0
175
     0
176
     0
177
     0
178
     0
  0
ENDTAB
  0
ENDSEC
  0
SECTION
  2
BLOCKS
  0
BLOCK
  8
0
  2
$MODEL_SPACE
 70
     0
 10
0.0
 20
0.0
 30
0.0
  3
$MODEL_SPACE
  1

  0
ENDBLK
  5
E6
  8
0
  0
BLOCK
 67
     1
  8
0
  2
$PAPER_SPACE
 70
     0
 10
0.0
 20
0.0
 30
0.0
  3
$PAPER_SPACE
  1

  0
ENDBLK
  5
E4
 67
     1
  8
0
  0
ENDSEC
  0
SECTION
  2
ENTITIES
  0
LINE
  5
15AD
  8
0
 10
93.744488340457977
 20
108.9869338048302
 30
0.0
 11
93.744488340457977
 21
98.986933804830201
 31
0.0
  0
LINE
  5
15AE
  8
0
 10
116.24448834045801
 20
144.98693380483019
 30
0.0
 11
113.24448834045801
 21
144.98693380483019
 31
0.0
  0
LINE
  5
15AF
  8
0
 10
91.244488340457977
 20
132.98693380483019
 30
0.0
 11
93.244488340457991
 21
132.98693380483019
 31
0.0
  0
LINE
  5
15B0
  8
2
 10
93.244488340457991
 20
132.98693380483019
 30
0.0
 11
98.244488340457991
 21
132.98693380483019
 31
0.0
  0
LINE
  5
15B1
  8
0
 10
98.244488340457991
 20
132.98693380483019
 30
0.0
 11
108.24448834045801
 21
132.98693380483019
 31
0.0
  0
LINE
  5
15B4
  8
0
 10
108.24448834045801
 20
142.98693380483019
 30
0.0
 11
98.244488340457991
 21
142.98693380483019
 31
0.0
  0
LINE
  5
15B6
  8
0
 10
93.244488340457991
 20
142.98693380483019
 30
0.0
 11
91.244488340457977
 21
142.98693380483019
 31
0.0
  0
LINE
  5
15B7
  8
0
 10
90.244488340457991
 20
133.98693380483019
 30
0.0
 11
91.244488340457977
 21
132.98693380483019
 31
0.0
  0
LINE
  5
15B8
  8
0
 10
91.244488340457977
 20
142.98693380483019
 30
0.0
 11
90.244488340457991
 21
141.98693380483019
 31
0.0
  0
LINE
  5
15BE
  8
0
 10
93.744488340457977
 20
108.9869338048302
 30
0.0
 11
113.24448834045801
 21
108.9869338048302
 31
0.0
  0
LINE
  5
15BF
  8
0
 10
91.244488340457977
 20
132.98693380483019
 30
0.0
 11
91.244488340457977
 21
142.98693380483019
 31
0.0
  0
LINE
  5
15C0
  8
0
 10
90.244488340457991
 20
133.98693380483019
 30
0.0
 11
90.244488340457991
 21
141.98693380483019
 31
0.0
  0
LINE
  5
15C3
  8
0
 10
111.765638497567
 20
98.986933804830201
 30
0.0
 11
111.765638497567
 21
107.6500237455664
 31
0.0
  0
LINE
  5
15C4
  8
0
 10
116.24448834045801
 20
110.9869338048302
 30
0.0
 11
116.24448834045801
 21
144.98693380483019
 31
0.0
  0
LINE
  5
15C5
  8
0
 10
114.24448834045801
 20
98.986933804830201
 30
0.0
 11
116.24448834045801
 21
110.9869338048302
 31
0.0
  0
POLYLINE
  5
15C6
  8
0
 66
     1
 10
0.0
 20
0.0
 30
0.0
  0
VERTEX
  5
1CA3
  8
0
 10
111.113950641581
 20
108.9869338048302
 30
0.0
  0
VERTEX
  5
1CA4
  8
0
 10
111.2331206145389
 20
108.7716810109106
 30
0.0
  0
VERTEX
  5
1CA5
  8
0
 10
111.4589666204666
 20
108.33175207640591
 30
0.0
  0
VERTEX
  5
1CA6
  8
0
 10
111.66776711851649
 20
107.8800221008145
 30
0.0
  0
VERTEX
  5
1CA7
  8
0
 10
111.765638497567
 20
107.6500237455664
 30
0.0
  0
SEQEND
  5
1CA8
  8
0
  0
LINE
  5
15C7
  8
0
 10
93.744488340457977
 20
98.986933804830201
 30
0.0
 11
114.24448834045801
 21
98.986933804830201
 31
0.0
  0
LINE
  5
15C9
  8
0
 10
115.688336663914
 20
107.6500237455664
 30
0.0
 11
111.765638497567
 21
107.6500237455664
 31
0.0
  0
LINE
  5
15CC
  8
0
 10
113.24448834045801
 20
110.9869338048302
 30
0.0
 11
116.24448834045801
 21
110.9869338048302
 31
0.0
  0
LINE
  5
15CF
  8
1
 10
119.69321608316901
 20
137.98693380483019
 30
0.0
 11
86.79576059774692
 21
137.98693380483019
 31
0.0
  0
LINE
  5
15D0
  8
0
 10
112.24448834045801
 20
97.986933804830215
 30
0.0
 11
112.24448834045801
 21
98.986933804830201
 31
0.0
  0
LINE
  5
15D2
  8
0
 10
112.24448834045801
 20
108.9869338048302
 30
0.0
 11
112.24448834045801
 21
112.9869338048302
 31
0.0
  0
LINE
  5
15D3
  8
0
 10
94.244488340457991
 20
112.9869338048302
 30
0.0
 11
94.244488340457991
 21
108.9869338048302
 31
0.0
  0
LINE
  5
15D5
  8
0
 10
94.244488340457991
 20
98.986933804830201
 30
0.0
 11
94.244488340457991
 21
97.986933804830215
 31
0.0
  0
LINE
  5
15D7
  8
0
 10
112.24448834045801
 20
112.9869338048302
 30
0.0
 11
113.24448834045801
 21
113.3707978398656
 31
0.0
  0
LINE
  5
15D8
  8
0
 10
93.244488340457991
 20
113.3707978398656
 30
0.0
 11
94.244488340457991
 21
112.9869338048302
 31
0.0
  0
LINE
  5
15D9
  8
0
 10
98.244488340457991
 20
149.98693380483019
 30
0.0
 11
93.244488340457991
 21
147.65539551405519
 31
0.0
  0
LINE
  5
15DA
  8
2
 10
93.744488340457977
 20
142.98693380483019
 30
0.0
 11
93.244488340457991
 21
143.48693380483019
 31
0.0
  0
LINE
  5
15DB
  8
2
 10
93.244488340457991
 20
132.48693380483019
 30
0.0
 11
93.744488340457977
 21
132.98693380483019
 31
0.0
  0
LINE
  5
15DC
  8
2
 10
98.244488340457991
 20
142.98693380483019
 30
0.0
 11
93.244488340457991
 21
142.98693380483019
 31
0.0
  0
LINE
  5
15E8
  8
0
 10
112.24448834045801
 20
97.986933804830215
 30
0.0
 11
94.244488340457991
 21
97.986933804830215
 31
0.0
  0
LINE
  5
15EF
  8
0
 10
112.24448834045801
 20
112.9869338048302
 30
0.0
 11
94.244488340457991
 21
112.9869338048302
 31
0.0
  0
POLYLINE
  5
15F6
  8
0
 66
     1
 10
0.0
 20
0.0
 30
0.0
  0
VERTEX
  5
1CA9
  8
0
 10
113.24448834045801
 20
114.96081473405491
 30
0.0
  0
VERTEX
  5
1CAA
  8
0
 10
112.4822594020425
 20
114.758017867053
 30
0.0
  0
VERTEX
  5
1CAB
  8
0
 10
111.0818526659359
 20
114.4092596468178
 30
0.0
  0
VERTEX
  5
1CAC
  8
0
 10
109.8156475866826
 20
114.125393977681
 30
0.0
  0
VERTEX
  5
1CAD
  8
0
 10
109.2232434881566
 20
114.0045526192697
 30
0.0
  0
VERTEX
  5
1CAE
  8
0
 10
108.65369367819279
 20
113.8963978764351
 30
0.0
  0
VERTEX
  5
1CAF
  8
0
 10
107.5722558426335
 20
113.7148590119947
 30
0.0
  0
VERTEX
  5
1CB0
  8
0
 10
106.5519711161823
 20
113.575312697835
 30
0.0
  0
VERTEX
  5
1CB1
  8
0
 10
105.5765481160619
 20
113.47379824101751
 30
0.0
  0
VERTEX
  5
1CB2
  8
0
 10
104.6318120795579
 20
113.4075623095802
 30
0.0
  0
VERTEX
  5
1CB3
  8
0
 10
103.7049694778872
 20
113.37486546646539
 30
0.0
  0
VERTEX
  5
1CB4
  8
0
 10
103.24448834045801
 20
113.3707978398656
 30
0.0
  0
VERTEX
  5
1CB5
  8
0
 10
102.78400720302881
 20
113.37486546646539
 30
0.0
  0
VERTEX
  5
1CB6
  8
0
 10
101.85716460135799
 20
113.4075623095802
 30
0.0
  0
VERTEX
  5
1CB7
  8
0
 10
100.912428564854
 20
113.47379824101751
 30
0.0
  0
VERTEX
  5
1CB8
  8
0
 10
99.937005564733653
 20
113.575312697835
 30
0.0
  0
VERTEX
  5
1CB9
  8
0
 10
98.916720838282487
 20
113.7148590119947
 30
0.0
  0
VERTEX
  5
1CBA
  8
0
 10
97.835283002723116
 20
113.8963978764351
 30
0.0
  0
VERTEX
  5
1CBB
  8
0
 10
97.265733192759313
 20
114.0045526192697
 30
0.0
  0
VERTEX
  5
1CBC
  8
0
 10
96.673329094233367
 20
114.125393977681
 30
0.0
  0
VERTEX
  5
1CBD
  8
0
 10
95.407124014980099
 20
114.4092596468178
 30
0.0
  0
VERTEX
  5
1CBE
  8
0
 10
94.006717278873424
 20
114.758017867053
 30
0.0
  0
VERTEX
  5
1CBF
  8
0
 10
93.244488340457991
 20
114.96081473405491
 30
0.0
  0
SEQEND
  5
1CC0
  8
0
  0
POLYLINE
  5
15F8
  8
0
 66
     1
 10
0.0
 20
0.0
 30
0.0
  0
VERTEX
  5
1CC1
  8
0
 10
93.244488340457991
 20
145.72388595159279
 30
0.0
  0
VERTEX
  5
1CC2
  8
0
 10
94.219643290843933
 20
146.03718802089301
 30
0.0
  0
VERTEX
  5
1CC3
  8
0
 10
95.972951354526515
 20
146.55291684559501
 30
0.0
  0
VERTEX
  5
1CC4
  8
0
 10
97.525382312680932
 20
146.94665293088761
 30
0.0
  0
VERTEX
  5
1CC5
  8
0
 10
98.244488340457991
 20
147.10499398528859
 30
0.0
  0
SEQEND
  5
1CC6
  8
0
  0
LINE
  5
1601
  8
2
 10
93.744488340457977
 20
142.98693380483019
 30
0.0
 11
93.744488340457977
 21
132.98693380483019
 31
0.0
  0
LINE
  5
1606
  8
0
 10
98.244488340457991
 20
117.9869338048302
 30
0.0
 11
108.24448834045801
 21
117.9869338048302
 31
0.0
  0
LINE
  5
160C
  8
1
 10
103.24448834045801
 20
154.4356615475412
 30
0.0
 11
103.24448834045801
 21
94.53820606211913
 31
0.0
  0
CIRCLE
  5
161E
  8
0
 10
39.125543364189731
 20
137.98693380483019
 30
-10.0
 40
5.0
  0
POLYLINE
  5
162C
  8
0
 66
     1
 10
0.0
 20
0.0
 30
-10.0
  0
VERTEX
  5
1CC7
  8
0
 10
29.125543364189731
 20
145.72388595159279
 30
-10.0
  0
VERTEX
  5
1CC8
  8
0
 10
29.88777230260516
 20
145.97023810626681
 30
-10.0
  0
VERTEX
  5
1CC9
  8
0
 10
31.288179038711831
 20
146.393900169125
 30
-10.0
  0
VERTEX
  5
1CCA
  8
0
 10
32.5543841179651
 20
146.738732514238
 30
-10.0
  0
VERTEX
  5
1CCB
  8
0
 10
33.146788216491053
 20
146.88552733142839
 30
-10.0
  0
VERTEX
  5
1CCC
  8
0
 10
33.716338026454849
 20
147.01691079079549
 30
-10.0
  0
VERTEX
  5
1CCD
  8
0
 10
34.79777586201422
 20
147.2374392983269
 30
-10.0
  0
VERTEX
  5
1CCE
  8
0
 10
35.818060588465393
 20
147.40695639037219
 30
-10.0
  0
VERTEX
  5
1CCF
  8
0
 10
36.793483588585786
 20
147.5302734096993
 30
-10.0
  0
VERTEX
  5
1CD0
  8
0
 10
37.738219625089812
 20
147.61073502958351
 30
-10.0
  0
VERTEX
  5
1CD1
  8
0
 10
38.665062226760512
 20
147.6504542711647
 30
-10.0
  0
VERTEX
  5
1CD2
  8
0
 10
39.125543364189731
 20
147.65539551405519
 30
-10.0
  0
VERTEX
  5
1CD3
  8
0
 10
39.586024501618937
 20
147.6504542711647
 30
-10.0
  0
VERTEX
  5
1CD4
  8
0
 10
40.512867103289629
 20
147.61073502958351
 30
-10.0
  0
VERTEX
  5
1CD5
  8
0
 10
41.457603139793662
 20
147.5302734096993
 30
-10.0
  0
VERTEX
  5
1CD6
  8
0
 10
42.433026139914062
 20
147.40695639037219
 30
-10.0
  0
VERTEX
  5
1CD7
  8
0
 10
43.453310866365221
 20
147.2374392983269
 30
-10.0
  0
VERTEX
  5
1CD8
  8
0
 10
44.534748701924599
 20
147.01691079079549
 30
-10.0
  0
VERTEX
  5
1CD9
  8
0
 10
45.104298511888402
 20
146.88552733142839
 30
-10.0
  0
VERTEX
  5
1CDA
  8
0
 10
45.696702610414349
 20
146.738732514238
 30
-10.0
  0
VERTEX
  5
1CDB
  8
0
 10
46.96290768966761
 20
146.393900169125
 30
-10.0
  0
VERTEX
  5
1CDC
  8
0
 10
48.363314425774263
 20
145.97023810626681
 30
-10.0
  0
VERTEX
  5
1CDD
  8
0
 10
49.125543364189717
 20
145.72388595159279
 30
-10.0
  0
SEQEND
  5
1CDE
  8
0
  0
POLYLINE
  5
162D
  8
0
 66
     1
 10
0.0
 20
0.0
 30
-10.0
  0
VERTEX
  5
1CDF
  8
0
 10
49.125543364189717
 20
147.10499398528859
 30
-10.0
  0
VERTEX
  5
1CE0
  8
0
 10
47.978911034757999
 20
147.57719581562739
 30
-10.0
  0
VERTEX
  5
1CE1
  8
0
 10
46.135155478599671
 20
148.3034937821586
 30
-10.0
  0
VERTEX
  5
1CE2
  8
0
 10
44.699689089366657
 20
148.82673056689069
 30
-10.0
  0
VERTEX
  5
1CE3
  8
0
 10
44.088252761919847
 20
149.0334518164214
 30
-10.0
  0
VERTEX
  5
1CE4
  8
0
 10
43.530820889442957
 20
149.21108273884269
 30
-10.0
  0
VERTEX
  5
1CE5
  8
0
 10
42.541951229188463
 20
149.49463971153341
 30
-10.0
  0
VERTEX
  5
1CE6
  8
0
 10
41.676360567855703
 20
149.701049850934
 30
-10.0
  0
VERTEX
  5
1CE7
  8
0
 10
40.894438536113768
 20
149.84532687614791
 30
-10.0
  0
VERTEX
  5
1CE8
  8
0
 10
40.166646287970018
 20
149.93692720529211
 30
-10.0
  0
VERTEX
  5
1CE9
  8
0
 10
39.469300838406532
 20
149.98142998064569
 30
-10.0
  0
VERTEX
  5
1CEA
  8
0
 10
39.125543364189731
 20
149.98693380483019
 30
-10.0
  0
VERTEX
  5
1CEB
  8
0
 10
38.781785889972923
 20
149.98142998064569
 30
-10.0
  0
VERTEX
  5
1CEC
  8
0
 10
38.084440440409431
 20
149.93692720529211
 30
-10.0
  0
VERTEX
  5
1CED
  8
0
 10
37.356648192265681
 20
149.84532687614791
 30
-10.0
  0
VERTEX
  5
1CEE
  8
0
 10
36.574726160523738
 20
149.701049850934
 30
-10.0
  0
VERTEX
  5
1CEF
  8
0
 10
35.709135499190978
 20
149.49463971153341
 30
-10.0
  0
VERTEX
  5
1CF0
  8
0
 10
34.720265838936491
 20
149.21108273884269
 30
-10.0
  0
VERTEX
  5
1CF1
  8
0
 10
34.162833966459601
 20
149.0334518164214
 30
-10.0
  0
VERTEX
  5
1CF2
  8
0
 10
33.551397639012777
 20
148.82673056689069
 30
-10.0
  0
VERTEX
  5
1CF3
  8
0
 10
32.115931249779777
 20
148.3034937821586
 30
-10.0
  0
VERTEX
  5
1CF4
  8
0
 10
30.272175693621449
 20
147.57719581562739
 30
-10.0
  0
VERTEX
  5
1CF5
  8
0
 10
29.125543364189731
 20
147.10499398528859
 30
-10.0
  0
SEQEND
  5
1CF6
  8
0
  0
POLYLINE
  5
162E
  8
0
 66
     1
 10
0.0
 20
0.0
 30
-10.0
  0
VERTEX
  5
1CF7
  8
0
 10
49.125543364189717
 20
114.96081473405491
 30
-10.0
  0
VERTEX
  5
1CF8
  8
0
 10
48.363314425774291
 20
114.758017867053
 30
-10.0
  0
VERTEX
  5
1CF9
  8
0
 10
46.96290768966761
 20
114.4092596468178
 30
-10.0
  0
VERTEX
  5
1CFA
  8
0
 10
45.696702610414349
 20
114.125393977681
 30
-10.0
  0
VERTEX
  5
1CFB
  8
0
 10
45.104298511888402
 20
114.0045526192697
 30
-10.0
  0
VERTEX
  5
1CFC
  8
0
 10
44.534748701924599
 20
113.8963978764351
 30
-10.0
  0
VERTEX
  5
1CFD
  8
0
 10
43.453310866365221
 20
113.7148590119947
 30
-10.0
  0
VERTEX
  5
1CFE
  8
0
 10
42.433026139914062
 20
113.575312697835
 30
-10.0
  0
VERTEX
  5
1CFF
  8
0
 10
41.457603139793662
 20
113.47379824101751
 30
-10.0
  0
VERTEX
  5
1D00
  8
0
 10
40.512867103289629
 20
113.4075623095802
 30
-10.0
  0
VERTEX
  5
1D01
  8
0
 10
39.586024501618937
 20
113.37486546646539
 30
-10.0
  0
VERTEX
  5
1D02
  8
0
 10
39.125543364189731
 20
113.3707978398656
 30
-10.0
  0
VERTEX
  5
1D03
  8
0
 10
38.665062226760512
 20
113.37486546646539
 30
-10.0
  0
VERTEX
  5
1D04
  8
0
 10
37.738219625089812
 20
113.4075623095802
 30
-10.0
  0
VERTEX
  5
1D05
  8
0
 10
36.793483588585786
 20
113.47379824101751
 30
-10.0
  0
VERTEX
  5
1D06
  8
0
 10
35.818060588465393
 20
113.575312697835
 30
-10.0
  0
VERTEX
  5
1D07
  8
0
 10
34.79777586201422
 20
113.7148590119947
 30
-10.0
  0
VERTEX
  5
1D08
  8
0
 10
33.716338026454849
 20
113.8963978764351
 30
-10.0
  0
VERTEX
  5
1D09
  8
0
 10
33.146788216491053
 20
114.0045526192697
 30
-10.0
  0
VERTEX
  5
1D0A
  8
0
 10
32.5543841179651
 20
114.125393977681
 30
-10.0
  0
VERTEX
  5
1D0B
  8
0
 10
31.288179038711831
 20
114.4092596468178
 30
-10.0
  0
VERTEX
  5
1D0C
  8
0
 10
29.88777230260516
 20
114.758017867053
 30
-10.0
  0
VERTEX
  5
1D0D
  8
0
 10
29.125543364189731
 20
114.96081473405491
 30
-10.0
  0
SEQEND
  5
1D0E
  8
0
  0
LINE
  5
162F
  8
0
 10
48.125543364189731
 20
112.9869338048302
 30
-10.0
 11
30.125543364189721
 21
112.9869338048302
 31
-10.0
  0
LINE
  5
1636
  8
0
 10
48.125543364189731
 20
97.986933804830187
 30
-10.0
 11
30.125543364189721
 21
97.986933804830187
 31
-10.0
  0
LINE
  5
163D
  8
0
 10
29.125543364189731
 20
113.3707978398656
 30
-10.0
 11
30.125543364189721
 21
112.9869338048302
 31
-10.0
  0
LINE
  5
163E
  8
0
 10
48.125543364189731
 20
112.9869338048302
 30
-10.0
 11
49.125543364189717
 21
113.3707978398656
 31
-10.0
  0
LINE
  5
163F
  8
0
 10
30.125543364189721
 20
98.986933804830187
 30
-10.0
 11
30.125543364189721
 21
97.986933804830187
 31
-10.0
  0
LINE
  5
1641
  8
0
 10
30.125543364189721
 20
112.9869338048302
 30
-10.0
 11
30.125543364189721
 21
108.9869338048302
 31
-10.0
  0
LINE
  5
1642
  8
0
 10
48.125543364189731
 20
108.9869338048302
 30
-10.0
 11
48.125543364189731
 21
112.9869338048302
 31
-10.0
  0
LINE
  5
1644
  8
0
 10
48.125543364189731
 20
97.986933804830187
 30
-10.0
 11
48.125543364189731
 21
98.986933804830187
 31
-10.0
  0
LINE
  5
164C
  8
0
 10
28.625543364189721
 20
98.986933804830187
 30
-10.0
 11
48.625543364189717
 21
98.986933804830187
 31
-10.0
  0
CIRCLE
  5
1655
  8
0
 10
39.125543364189731
 20
137.98693380483019
 30
-10.0
 40
4.0
  0
LINE
  5
1657
  8
0
 10
28.625543364189721
 20
108.9869338048302
 30
-10.0
 11
48.625543364189717
 21
108.9869338048302
 31
-10.0
  0
LINE
  5
1658
  8
0
 10
28.625543364189721
 20
108.9869338048302
 30
-10.0
 11
28.625543364189721
 21
98.986933804830187
 31
-10.0
  0
LINE
  5
1659
  8
0
 10
30.75894309884896
 20
108.9869338048302
 30
-10.0
 11
30.75894309884896
 21
98.986933804830187
 31
-10.0
  0
LINE
  5
165B
  8
0
 10
48.625543364189717
 20
98.986933804830187
 30
-10.0
 11
48.625543364189717
 21
108.9869338048302
 31
-10.0
  0
LINE
  5
1684
  8
0
 10
113.24448834045791
 20
202.55208542711739
 30
0.0
 11
116.24448834045791
 21
202.55208542711739
 31
0.0
  0
LINE
  5
1685
  8
0
 10
116.24448834045791
 20
188.55208542711731
 30
0.0
 11
113.24448834045791
 21
188.55208542711731
 31
0.0
  0
LINE
  5
1696
  8
0
 10
116.24448834045791
 20
202.55208542711739
 30
0.0
 11
116.24448834045791
 21
188.55208542711731
 31
0.0
  0
LINE
  5
1697
  8
0
 10
90.244488340457977
 20
199.55208542711731
 30
0.0
 11
90.244488340457977
 21
191.55208542711731
 31
0.0
  0
LINE
  5
1698
  8
0
 10
91.244488340457963
 20
200.55208542711731
 30
0.0
 11
91.244488340457963
 21
190.55208542711731
 31
0.0
  0
LINE
  5
1699
  8
0
 10
107.74448834045791
 20
205.55208542711731
 30
0.0
 11
107.74448834045791
 21
206.05208542711731
 31
0.0
  0
LINE
  5
169A
  8
0
 10
107.74448834045791
 20
206.05208542711731
 30
0.0
 11
107.24448834045791
 21
206.05208542711731
 31
0.0
  0
LINE
  5
169B
  8
0
 10
107.24448834045791
 20
206.05208542711731
 30
0.0
 11
107.24448834045791
 21
205.55208542711731
 31
0.0
  0
LINE
  5
169C
  8
0
 10
99.244488340457977
 20
205.55208542711731
 30
0.0
 11
99.244488340457977
 21
206.05208542711731
 31
0.0
  0
LINE
  5
169D
  8
0
 10
99.244488340457977
 20
206.05208542711731
 30
0.0
 11
98.744488340457963
 21
206.05208542711731
 31
0.0
  0
LINE
  5
169E
  8
0
 10
98.744488340457963
 20
206.05208542711731
 30
0.0
 11
98.744488340457963
 21
205.55208542711731
 31
0.0
  0
LINE
  5
169F
  8
0
 10
91.244488340457963
 20
200.55208542711731
 30
0.0
 11
90.244488340457977
 21
199.55208542711731
 31
0.0
  0
LINE
  5
16A0
  8
0
 10
90.244488340457977
 20
191.55208542711731
 30
0.0
 11
91.244488340457963
 21
190.55208542711731
 31
0.0
  0
LINE
  5
16A1
  8
0
 10
93.244488340457963
 20
200.55208542711731
 30
0.0
 11
91.244488340457963
 21
200.55208542711731
 31
0.0
  0
LINE
  5
16A2
  8
2
 10
98.244488340457963
 20
200.55208542711731
 30
0.0
 11
93.244488340457963
 21
200.55208542711731
 31
0.0
  0
LINE
  5
16A3
  8
0
 10
108.24448834045791
 20
200.55208542711731
 30
0.0
 11
98.244488340457963
 21
200.55208542711731
 31
0.0
  0
LINE
  5
16A6
  8
0
 10
98.244488340457963
 20
190.55208542711731
 30
0.0
 11
108.24448834045791
 21
190.55208542711731
 31
0.0
  0
LINE
  5
16A8
  8
0
 10
91.244488340457963
 20
190.55208542711731
 30
0.0
 11
93.244488340457963
 21
190.55208542711731
 31
0.0
  0
LINE
  5
17F4
  8
0
 10
108.24448834045801
 20
117.9869338048302
 30
0.0
 11
108.24448834045801
 21
149.98693380483019
 31
0.0
  0
LINE
  5
17F5
  8
0
 10
98.244488340457991
 20
117.9869338048302
 30
0.0
 11
98.244488340457991
 21
149.98693380483019
 31
0.0
  0
LINE
  5
17F7
  8
0
 10
93.244488340457991
 20
113.3707978398656
 30
0.0
 11
93.244488340457991
 21
147.65539551405519
 31
0.0
  0
LINE
  5
17F8
  8
2
 10
112.74448834045801
 20
142.98693380483019
 30
0.0
 11
112.74448834045801
 21
132.98693380483019
 31
0.0
  0
POLYLINE
  5
17F9
  8
0
 66
     1
 10
0.0
 20
0.0
 30
0.0
  0
VERTEX
  5
1D0F
  8
0
 10
113.24448834045801
 20
145.72388595159279
 30
0.0
  0
VERTEX
  5
1D10
  8
0
 10
112.26933339007201
 20
146.03718802089301
 30
0.0
  0
VERTEX
  5
1D11
  8
0
 10
110.5160253263894
 20
146.55291684559501
 30
0.0
  0
VERTEX
  5
1D12
  8
0
 10
108.96359436823499
 20
146.94665293088761
 30
0.0
  0
VERTEX
  5
1D13
  8
0
 10
108.24448834045801
 20
147.10499398528859
 30
0.0
  0
SEQEND
  5
1D14
  8
0
  0
LINE
  5
17FA
  8
2
 10
108.24448834045801
 20
142.98693380483019
 30
0.0
 11
113.24448834045801
 21
142.98693380483019
 31
0.0
  0
LINE
  5
17FB
  8
2
 10
113.24448834045801
 20
132.48693380483019
 30
0.0
 11
112.74448834045801
 21
132.98693380483019
 31
0.0
  0
LINE
  5
17FC
  8
2
 10
112.74448834045801
 20
142.98693380483019
 30
0.0
 11
113.24448834045801
 21
143.48693380483019
 31
0.0
  0
LINE
  5
17FD
  8
0
 10
108.24448834045801
 20
149.98693380483019
 30
0.0
 11
113.24448834045801
 21
147.65539551405519
 31
0.0
  0
LINE
  5
17FE
  8
2
 10
113.24448834045801
 20
132.98693380483019
 30
0.0
 11
108.24448834045801
 21
132.98693380483019
 31
0.0
  0
LINE
  5
17FF
  8
0
 10
113.24448834045801
 20
108.9869338048302
 30
0.0
 11
113.24448834045801
 21
147.65539551405519
 31
0.0
  0
LINE
  5
1819
  8
0
 10
29.125543364189731
 20
113.3707978398656
 30
-10.0
 11
29.125543364189731
 21
147.10499398528859
 31
-10.0
  0
LINE
  5
181A
  8
0
 10
49.125543364189717
 20
113.3707978398656
 30
-10.0
 11
49.125543364189717
 21
147.10499398528859
 31
-10.0
  0
LINE
  5
181B
  8
1
 10
39.125543364189731
 20
154.4356615475412
 30
-10.0
 11
39.125543364189731
 21
94.538206062119116
 31
-10.0
  0
LINE
  5
181C
  8
1
 10
55.574271106900788
 20
137.98693380483019
 30
-10.0
 11
22.676815621478649
 21
137.98693380483019
 31
-10.0
  0
LINE
  5
1825
  8
0
 10
93.244488340457963
 20
205.55208542711731
 30
0.0
 11
113.24448834045791
 21
205.55208542711731
 31
0.0
  0
LINE
  5
1826
  8
0
 10
93.244488340457963
 20
185.55208542711731
 30
0.0
 11
113.24448834045791
 21
185.55208542711731
 31
0.0
  0
LINE
  5
1827
  8
0
 10
93.244488340457963
 20
205.55208542711731
 30
0.0
 11
93.244488340457963
 21
185.55208542711731
 31
0.0
  0
LINE
  5
1830
  8
1
 10
150.9147055740151
 20
137.98693380483019
 30
-10.0
 11
183.8121610594373
 21
137.98693380483019
 31
-10.0
  0
LINE
  5
1831
  8
1
 10
167.3634333167262
 20
154.4356615475412
 30
-10.0
 11
167.3634333167262
 21
94.538206062119116
 31
-10.0
  0
LINE
  5
1832
  8
0
 10
157.3634333167262
 20
113.3707978398656
 30
-10.0
 11
157.3634333167262
 21
147.10499398528859
 31
-10.0
  0
LINE
  5
1833
  8
0
 10
177.3634333167262
 20
113.3707978398656
 30
-10.0
 11
177.3634333167262
 21
147.10499398528859
 31
-10.0
  0
LINE
  5
1834
  8
0
 10
157.8634333167262
 20
98.986933804830187
 30
-10.0
 11
157.8634333167262
 21
108.9869338048302
 31
-10.0
  0
LINE
  5
1835
  8
0
 10
175.73003358206699
 20
108.9869338048302
 30
-10.0
 11
175.73003358206699
 21
98.986933804830187
 31
-10.0
  0
LINE
  5
1836
  8
0
 10
177.8634333167262
 20
108.9869338048302
 30
-10.0
 11
177.8634333167262
 21
98.986933804830187
 31
-10.0
  0
LINE
  5
1837
  8
0
 10
177.8634333167262
 20
108.9869338048302
 30
-10.0
 11
172.68523405437159
 21
108.9869338048302
 31
-10.0
  0
LINE
  5
183A
  8
0
 10
171.56343331672619
 20
107.6500237455664
 30
-10.0
 11
171.56343331672619
 21
98.986933804830187
 31
-10.0
  0
LINE
  5
183B
  8
0
 10
163.16343331672621
 20
98.986933804830187
 30
-10.0
 11
163.16343331672621
 21
107.6500237455664
 31
-10.0
  0
ARC
  5
183C
  8
0
 10
167.3634333167262
 20
137.98693380483019
 30
-10.0
 40
6.9999999999999982
 50
0.000000000000007
 51
180.0
  0
LINE
  5
183D
  8
0
 10
160.3634333167262
 20
110.9869338048302
 30
-10.0
 11
174.3634333167262
 21
110.9869338048302
 31
-10.0
  0
LINE
  5
183E
  8
0
 10
174.3634333167262
 20
110.9869338048302
 30
-10.0
 11
171.56343331672619
 21
107.6500237455664
 31
-10.0
  0
LINE
  5
183F
  8
0
 10
177.8634333167262
 20
98.986933804830187
 30
-10.0
 11
157.8634333167262
 21
98.986933804830187
 31
-10.0
  0
LINE
  5
1840
  8
0
 10
163.16343331672621
 20
107.6500237455664
 30
-10.0
 11
160.3634333167262
 21
110.9869338048302
 31
-10.0
  0
LINE
  5
1841
  8
0
 10
160.3634333167262
 20
110.9869338048302
 30
-10.0
 11
160.3634333167262
 21
137.98693380483019
 31
-10.0
  0
LINE
  5
1842
  8
0
 10
174.3634333167262
 20
110.9869338048302
 30
-10.0
 11
174.3634333167262
 21
137.98693380483019
 31
-10.0
  0
LINE
  5
1843
  8
0
 10
158.3634333167262
 20
97.986933804830187
 30
-10.0
 11
158.3634333167262
 21
98.986933804830187
 31
-10.0
  0
LINE
  5
1844
  8
0
 10
158.3634333167262
 20
108.9869338048302
 30
-10.0
 11
158.3634333167262
 21
112.9869338048302
 31
-10.0
  0
LINE
  5
1845
  8
0
 10
176.3634333167262
 20
112.9869338048302
 30
-10.0
 11
176.3634333167262
 21
108.9869338048302
 31
-10.0
  0
LINE
  5
1846
  8
0
 10
176.3634333167262
 20
98.986933804830187
 30
-10.0
 11
176.3634333167262
 21
97.986933804830187
 31
-10.0
  0
LINE
  5
1847
  8
0
 10
158.3634333167262
 20
112.9869338048302
 30
-10.0
 11
157.3634333167262
 21
113.3707978398656
 31
-10.0
  0
LINE
  5
1848
  8
0
 10
177.3634333167262
 20
113.3707978398656
 30
-10.0
 11
176.3634333167262
 21
112.9869338048302
 31
-10.0
  0
LINE
  5
1849
  8
0
 10
158.3634333167262
 20
97.986933804830187
 30
-10.0
 11
176.3634333167262
 21
97.986933804830187
 31
-10.0
  0
LINE
  5
184A
  8
0
 10
158.3634333167262
 20
112.9869338048302
 30
-10.0
 11
160.3634333167262
 21
112.9869338048302
 31
-10.0
  0
POLYLINE
  5
184B
  8
0
 66
     1
 10
0.0
 20
0.0
 30
-10.0
  0
VERTEX
  5
1D15
  8
0
 10
157.3634333167262
 20
114.96081473405491
 30
-10.0
  0
VERTEX
  5
1D16
  8
0
 10
158.12566225514161
 20
114.758017867053
 30
-10.0
  0
VERTEX
  5
1D17
  8
0
 10
159.52606899124831
 20
114.4092596468178
 30
-10.0
  0
VERTEX
  5
1D18
  8
0
 10
160.3634333167262
 20
114.22153414448189
 30
-10.0
  0
SEQEND
  5
1D19
  8
0
  0
POLYLINE
  5
184C
  8
0
 66
     1
 10
0.0
 20
0.0
 30
-10.0
  0
VERTEX
  5
1D1A
  8
0
 10
157.3634333167262
 20
147.10499398528859
 30
-10.0
  0
VERTEX
  5
1D1B
  8
0
 10
158.5100656461579
 20
147.57719581562739
 30
-10.0
  0
VERTEX
  5
1D1C
  8
0
 10
160.35382120231631
 20
148.3034937821586
 30
-10.0
  0
VERTEX
  5
1D1D
  8
0
 10
161.78928759154931
 20
148.82673056689069
 30
-10.0
  0
VERTEX
  5
1D1E
  8
0
 10
162.40072391899611
 20
149.0334518164214
 30
-10.0
  0
VERTEX
  5
1D1F
  8
0
 10
162.95815579147299
 20
149.21108273884269
 30
-10.0
  0
VERTEX
  5
1D20
  8
0
 10
163.94702545172751
 20
149.49463971153341
 30
-10.0
  0
VERTEX
  5
1D21
  8
0
 10
164.81261611306019
 20
149.701049850934
 30
-10.0
  0
VERTEX
  5
1D22
  8
0
 10
165.59453814480219
 20
149.84532687614791
 30
-10.0
  0
VERTEX
  5
1D23
  8
0
 10
166.3223303929459
 20
149.93692720529211
 30
-10.0
  0
VERTEX
  5
1D24
  8
0
 10
167.0196758425094
 20
149.98142998064569
 30
-10.0
  0
VERTEX
  5
1D25
  8
0
 10
167.3634333167262
 20
149.98693380483019
 30
-10.0
  0
VERTEX
  5
1D26
  8
0
 10
167.707190790943
 20
149.98142998064569
 30
-10.0
  0
VERTEX
  5
1D27
  8
0
 10
168.4045362405065
 20
149.93692720529211
 30
-10.0
  0
VERTEX
  5
1D28
  8
0
 10
169.13232848865019
 20
149.84532687614791
 30
-10.0
  0
VERTEX
  5
1D29
  8
0
 10
169.91425052039219
 20
149.701049850934
 30
-10.0
  0
VERTEX
  5
1D2A
  8
0
 10
170.779841181725
 20
149.49463971153341
 30
-10.0
  0
VERTEX
  5
1D2B
  8
0
 10
171.76871084197941
 20
149.21108273884269
 30
-10.0
  0
VERTEX
  5
1D2C
  8
0
 10
172.3261427144563
 20
149.0334518164214
 30
-10.0
  0
VERTEX
  5
1D2D
  8
0
 10
172.93757904190321
 20
148.82673056689069
 30
-10.0
  0
VERTEX
  5
1D2E
  8
0
 10
174.37304543113621
 20
148.3034937821586
 30
-10.0
  0
VERTEX
  5
1D2F
  8
0
 10
176.2168009872945
 20
147.57719581562739
 30
-10.0
  0
VERTEX
  5
1D30
  8
0
 10
177.3634333167262
 20
147.10499398528859
 30
-10.0
  0
SEQEND
  5
1D31
  8
0
  0
POLYLINE
  5
184D
  8
0
 66
     1
 10
0.0
 20
0.0
 30
-10.0
  0
VERTEX
  5
1D32
  8
0
 10
177.3634333167262
 20
145.72388595159279
 30
-10.0
  0
VERTEX
  5
1D33
  8
0
 10
176.6012043783108
 20
145.97023810626681
 30
-10.0
  0
VERTEX
  5
1D34
  8
0
 10
175.20079764220409
 20
146.393900169125
 30
-10.0
  0
VERTEX
  5
1D35
  8
0
 10
173.9345925629508
 20
146.738732514238
 30
-10.0
  0
VERTEX
  5
1D36
  8
0
 10
173.34218846442491
 20
146.88552733142839
 30
-10.0
  0
VERTEX
  5
1D37
  8
0
 10
172.7726386544611
 20
147.01691079079549
 30
-10.0
  0
VERTEX
  5
1D38
  8
0
 10
171.69120081890171
 20
147.2374392983269
 30
-10.0
  0
VERTEX
  5
1D39
  8
0
 10
170.67091609245051
 20
147.40695639037219
 30
-10.0
  0
VERTEX
  5
1D3A
  8
0
 10
169.69549309233011
 20
147.5302734096993
 30
-10.0
  0
VERTEX
  5
1D3B
  8
0
 10
168.75075705582611
 20
147.61073502958351
 30
-10.0
  0
VERTEX
  5
1D3C
  8
0
 10
167.82391445415541
 20
147.6504542711647
 30
-10.0
  0
VERTEX
  5
1D3D
  8
0
 10
167.3634333167262
 20
147.65539551405519
 30
-10.0
  0
VERTEX
  5
1D3E
  8
0
 10
166.90295217929699
 20
147.6504542711647
 30
-10.0
  0
VERTEX
  5
1D3F
  8
0
 10
165.97610957762629
 20
147.61073502958351
 30
-10.0
  0
VERTEX
  5
1D40
  8
0
 10
165.03137354112229
 20
147.5302734096993
 30
-10.0
  0
VERTEX
  5
1D41
  8
0
 10
164.05595054100189
 20
147.40695639037219
 30
-10.0
  0
VERTEX
  5
1D42
  8
0
 10
163.0356658145507
 20
147.2374392983269
 30
-10.0
  0
VERTEX
  5
1D43
  8
0
 10
161.9542279789913
 20
147.01691079079549
 30
-10.0
  0
VERTEX
  5
1D44
  8
0
 10
161.3846781690275
 20
146.88552733142839
 30
-10.0
  0
VERTEX
  5
1D45
  8
0
 10
160.79227407050161
 20
146.738732514238
 30
-10.0
  0
VERTEX
  5
1D46
  8
0
 10
159.52606899124831
 20
146.393900169125
 30
-10.0
  0
VERTEX
  5
1D47
  8
0
 10
158.12566225514169
 20
145.97023810626681
 30
-10.0
  0
VERTEX
  5
1D48
  8
0
 10
157.3634333167262
 20
145.72388595159279
 30
-10.0
  0
SEQEND
  5
1D49
  8
0
  0
LINE
  5
1890
  8
0
 10
174.3634333167262
 20
112.9869338048302
 30
-10.0
 11
176.3634333167262
 21
112.9869338048302
 31
-10.0
  0
POLYLINE
  5
1891
  8
0
 66
     1
 10
0.0
 20
0.0
 30
-10.0
  0
VERTEX
  5
1D4A
  8
0
 10
174.3634333167262
 20
114.22153414448189
 30
-10.0
  0
VERTEX
  5
1D4B
  8
0
 10
175.20079764220409
 20
114.4092596468178
 30
-10.0
  0
VERTEX
  5
1D4C
  8
0
 10
176.6012043783108
 20
114.758017867053
 30
-10.0
  0
VERTEX
  5
1D4D
  8
0
 10
177.3634333167262
 20
114.96081473405491
 30
-10.0
  0
SEQEND
  5
1D4E
  8
0
  0
LINE
  5
1892
  8
0
 10
162.04163257908081
 20
108.9869338048302
 30
-10.0
 11
157.8634333167262
 21
108.9869338048302
 31
-10.0
  0
LINE
  5
1893
  8
0
 10
221.4823782929945
 20
108.9869338048302
 30
0.0
 11
221.4823782929945
 21
147.65539551405519
 31
0.0
  0
LINE
  5
1895
  8
0
 10
226.4823782929945
 20
149.98693380483019
 30
0.0
 11
221.4823782929945
 21
147.65539551405519
 31
0.0
  0
POLYLINE
  5
1899
  8
0
 66
     1
 10
0.0
 20
0.0
 30
0.0
  0
VERTEX
  5
1D4F
  8
0
 10
221.4823782929945
 20
145.72388595159279
 30
0.0
  0
VERTEX
  5
1D50
  8
0
 10
222.4575332433804
 20
146.03718802089301
 30
0.0
  0
VERTEX
  5
1D51
  8
0
 10
224.21084130706299
 20
146.55291684559501
 30
0.0
  0
VERTEX
  5
1D52
  8
0
 10
225.76327226521741
 20
146.94665293088761
 30
0.0
  0
VERTEX
  5
1D53
  8
0
 10
226.4823782929945
 20
147.10499398528859
 30
0.0
  0
SEQEND
  5
1D54
  8
0
  0
LINE
  5
189B
  8
0
 10
241.4823782929945
 20
113.3707978398656
 30
0.0
 11
241.4823782929945
 21
147.65539551405519
 31
0.0
  0
LINE
  5
189C
  8
0
 10
236.4823782929945
 20
117.9869338048302
 30
0.0
 11
236.4823782929945
 21
149.98693380483019
 31
0.0
  0
LINE
  5
189D
  8
0
 10
226.4823782929945
 20
117.9869338048302
 30
0.0
 11
226.4823782929945
 21
149.98693380483019
 31
0.0
  0
LINE
  5
189E
  8
1
 10
231.4823782929945
 20
154.4356615475412
 30
0.0
 11
231.4823782929945
 21
94.53820606211913
 31
0.0
  0
LINE
  5
18A3
  8
0
 10
236.4823782929945
 20
117.9869338048302
 30
0.0
 11
226.4823782929945
 21
117.9869338048302
 31
0.0
  0
POLYLINE
  5
18A5
  8
0
 66
     1
 10
0.0
 20
0.0
 30
0.0
  0
VERTEX
  5
1D55
  8
0
 10
241.4823782929945
 20
145.72388595159279
 30
0.0
  0
VERTEX
  5
1D56
  8
0
 10
240.50722334260851
 20
146.03718802089301
 30
0.0
  0
VERTEX
  5
1D57
  8
0
 10
238.75391527892589
 20
146.55291684559501
 30
0.0
  0
VERTEX
  5
1D58
  8
0
 10
237.2014843207715
 20
146.94665293088761
 30
0.0
  0
VERTEX
  5
1D59
  8
0
 10
236.4823782929945
 20
147.10499398528859
 30
0.0
  0
SEQEND
  5
1D5A
  8
0
  0
POLYLINE
  5
18A6
  8
0
 66
     1
 10
0.0
 20
0.0
 30
0.0
  0
VERTEX
  5
1D5B
  8
0
 10
221.4823782929945
 20
114.96081473405491
 30
0.0
  0
VERTEX
  5
1D5C
  8
0
 10
222.2446072314099
 20
114.758017867053
 30
0.0
  0
VERTEX
  5
1D5D
  8
0
 10
223.6450139675166
 20
114.4092596468178
 30
0.0
  0
VERTEX
  5
1D5E
  8
0
 10
224.91121904676979
 20
114.125393977681
 30
0.0
  0
VERTEX
  5
1D5F
  8
0
 10
225.50362314529579
 20
114.0045526192697
 30
0.0
  0
VERTEX
  5
1D60
  8
0
 10
226.07317295525959
 20
113.8963978764351
 30
0.0
  0
VERTEX
  5
1D61
  8
0
 10
227.15461079081899
 20
113.7148590119947
 30
0.0
  0
VERTEX
  5
1D62
  8
0
 10
228.1748955172701
 20
113.575312697835
 30
0.0
  0
VERTEX
  5
1D63
  8
0
 10
229.1503185173905
 20
113.47379824101751
 30
0.0
  0
VERTEX
  5
1D64
  8
0
 10
230.0950545538945
 20
113.4075623095802
 30
0.0
  0
VERTEX
  5
1D65
  8
0
 10
231.02189715556531
 20
113.37486546646539
 30
0.0
  0
VERTEX
  5
1D66
  8
0
 10
231.4823782929945
 20
113.3707978398656
 30
0.0
  0
VERTEX
  5
1D67
  8
0
 10
231.94285943042371
 20
113.37486546646539
 30
0.0
  0
VERTEX
  5
1D68
  8
0
 10
232.86970203209441
 20
113.4075623095802
 30
0.0
  0
VERTEX
  5
1D69
  8
0
 10
233.81443806859841
 20
113.47379824101751
 30
0.0
  0
VERTEX
  5
1D6A
  8
0
 10
234.78986106871881
 20
113.575312697835
 30
0.0
  0
VERTEX
  5
1D6B
  8
0
 10
235.81014579517
 20
113.7148590119947
 30
0.0
  0
VERTEX
  5
1D6C
  8
0
 10
236.89158363072929
 20
113.8963978764351
 30
0.0
  0
VERTEX
  5
1D6D
  8
0
 10
237.4611334406932
 20
114.0045526192697
 30
0.0
  0
VERTEX
  5
1D6E
  8
0
 10
238.05353753921909
 20
114.125393977681
 30
0.0
  0
VERTEX
  5
1D6F
  8
0
 10
239.31974261847239
 20
114.4092596468178
 30
0.0
  0
VERTEX
  5
1D70
  8
0
 10
240.72014935457909
 20
114.758017867053
 30
0.0
  0
VERTEX
  5
1D71
  8
0
 10
241.4823782929945
 20
114.96081473405491
 30
0.0
  0
SEQEND
  5
1D72
  8
0
  0
LINE
  5
18A7
  8
0
 10
222.4823782929945
 20
112.9869338048302
 30
0.0
 11
240.4823782929945
 21
112.9869338048302
 31
0.0
  0
LINE
  5
18A8
  8
0
 10
222.4823782929945
 20
97.986933804830215
 30
0.0
 11
240.4823782929945
 21
97.986933804830215
 31
0.0
  0
LINE
  5
18B2
  8
0
 10
236.4823782929945
 20
149.98693380483019
 30
0.0
 11
241.4823782929945
 21
147.65539551405519
 31
0.0
  0
LINE
  5
18B3
  8
0
 10
241.4823782929945
 20
113.3707978398656
 30
0.0
 11
240.4823782929945
 21
112.9869338048302
 31
0.0
  0
LINE
  5
18B4
  8
0
 10
222.4823782929945
 20
112.9869338048302
 30
0.0
 11
221.4823782929945
 21
113.3707978398656
 31
0.0
  0
LINE
  5
18B5
  8
0
 10
240.4823782929945
 20
98.986933804830201
 30
0.0
 11
240.4823782929945
 21
97.986933804830215
 31
0.0
  0
LINE
  5
18B6
  8
0
 10
240.4823782929945
 20
112.9869338048302
 30
0.0
 11
240.4823782929945
 21
108.9869338048302
 31
0.0
  0
LINE
  5
18B7
  8
0
 10
222.4823782929945
 20
108.9869338048302
 30
0.0
 11
222.4823782929945
 21
112.9869338048302
 31
0.0
  0
LINE
  5
18B8
  8
0
 10
222.4823782929945
 20
97.986933804830215
 30
0.0
 11
222.4823782929945
 21
98.986933804830201
 31
0.0
  0
LINE
  5
18B9
  8
1
 10
215.0336505502834
 20
137.98693380483019
 30
0.0
 11
247.93110603570551
 21
137.98693380483019
 31
0.0
  0
LINE
  5
18BA
  8
0
 10
221.4823782929945
 20
110.9869338048302
 30
0.0
 11
218.4823782929945
 21
110.9869338048302
 31
0.0
  0
LINE
  5
18BB
  8
0
 10
219.03852996953839
 20
107.6500237455664
 30
0.0
 11
222.96122813588539
 21
107.6500237455664
 31
0.0
  0
LINE
  5
18BC
  8
0
 10
240.9823782929945
 20
98.986933804830201
 30
0.0
 11
235.48237829299441
 21
98.986933804830201
 31
0.0
  0
POLYLINE
  5
18BD
  8
0
 66
     1
 10
0.0
 20
0.0
 30
0.0
  0
VERTEX
  5
1D73
  8
0
 10
223.61291599187149
 20
108.9869338048302
 30
0.0
  0
VERTEX
  5
1D74
  8
0
 10
223.4937460189135
 20
108.7716810109106
 30
0.0
  0
VERTEX
  5
1D75
  8
0
 10
223.26790001298579
 20
108.33175207640591
 30
0.0
  0
VERTEX
  5
1D76
  8
0
 10
223.05909951493601
 20
107.8800221008145
 30
0.0
  0
VERTEX
  5
1D77
  8
0
 10
222.96122813588539
 20
107.6500237455664
 30
0.0
  0
SEQEND
  5
1D78
  8
0
  0
LINE
  5
18BE
  8
0
 10
220.4823782929945
 20
98.986933804830201
 30
0.0
 11
218.4823782929945
 21
110.9869338048302
 31
0.0
  0
LINE
  5
18BF
  8
0
 10
218.4823782929945
 20
110.9869338048302
 30
0.0
 11
218.4823782929945
 21
144.98693380483019
 31
0.0
  0
LINE
  5
18C0
  8
0
 10
222.96122813588539
 20
98.986933804830201
 30
0.0
 11
222.96122813588539
 21
107.6500237455664
 31
0.0
  0
LINE
  5
18C1
  8
0
 10
244.4823782929945
 20
133.98693380483019
 30
0.0
 11
244.4823782929945
 21
141.98693380483019
 31
0.0
  0
LINE
  5
18C2
  8
0
 10
243.4823782929945
 20
132.98693380483019
 30
0.0
 11
243.4823782929945
 21
142.98693380483019
 31
0.0
  0
LINE
  5
18C3
  8
0
 10
240.9823782929945
 20
108.9869338048302
 30
0.0
 11
235.48237829299441
 21
108.9869338048302
 31
0.0
  0
LINE
  5
18C4
  8
0
 10
243.4823782929945
 20
142.98693380483019
 30
0.0
 11
244.4823782929945
 21
141.98693380483019
 31
0.0
  0
LINE
  5
18C5
  8
0
 10
244.4823782929945
 20
133.98693380483019
 30
0.0
 11
243.4823782929945
 21
132.98693380483019
 31
0.0
  0
LINE
  5
18C6
  8
0
 10
241.4823782929945
 20
142.98693380483019
 30
0.0
 11
243.4823782929945
 21
142.98693380483019
 31
0.0
  0
LINE
  5
18C7
  8
0
 10
226.4823782929945
 20
142.98693380483019
 30
0.0
 11
236.4823782929945
 21
142.98693380483019
 31
0.0
  0
LINE
  5
18C8
  8
0
 10
236.4823782929945
 20
132.98693380483019
 30
0.0
 11
226.4823782929945
 21
132.98693380483019
 31
0.0
  0
LINE
  5
18CA
  8
0
 10
243.4823782929945
 20
132.98693380483019
 30
0.0
 11
241.4823782929945
 21
132.98693380483019
 31
0.0
  0
LINE
  5
18CB
  8
0
 10
218.4823782929945
 20
144.98693380483019
 30
0.0
 11
221.4823782929945
 21
144.98693380483019
 31
0.0
  0
LINE
  5
18CC
  8
0
 10
240.9823782929945
 20
108.9869338048302
 30
0.0
 11
240.9823782929945
 21
98.986933804830201
 31
0.0
  0
LINE
  5
1907
  8
1
 10
103.24448834045791
 20
212.0008131698284
 30
0.0
 11
103.24448834045791
 21
179.10335768440621
 31
0.0
  0
LINE
  5
1908
  8
1
 10
119.69321608316901
 20
195.55208542711731
 30
0.0
 11
86.795760597746892
 21
195.55208542711731
 31
0.0
  0
LINE
  5
196D
  8
0
 10
235.98237829299441
 20
98.986933804830201
 30
0.0
 11
235.98237829299441
 21
108.9869338048302
 31
0.0
  0
LINE
  5
196E
  8
0
 10
235.48237829299441
 20
98.986933804830201
 30
0.0
 11
235.48237829299441
 21
108.9869338048302
 31
0.0
  0
LINE
  5
196F
  8
0
 10
227.4823782929945
 20
98.986933804830201
 30
0.0
 11
227.4823782929945
 21
108.9869338048302
 31
0.0
  0
LINE
  5
1970
  8
0
 10
226.9823782929945
 20
98.986933804830201
 30
0.0
 11
226.9823782929945
 21
108.9869338048302
 31
0.0
  0
LINE
  5
1971
  8
0
 10
227.4823782929945
 20
108.9869338048302
 30
0.0
 11
221.4823782929945
 21
108.9869338048302
 31
0.0
  0
LINE
  5
1972
  8
0
 10
227.4823782929945
 20
98.986933804830201
 30
0.0
 11
220.4823782929945
 21
98.986933804830201
 31
0.0
  0
LINE
  5
197E
  8
1
 10
86.795760597746892
 20
52.421782182543041
 30
-10.0
 11
119.69321608316901
 21
52.421782182543033
 31
-10.0
  0
LINE
  5
197F
  8
1
 10
103.24448834045791
 20
35.973054439831969
 30
-10.0
 11
103.24448834045791
 21
68.870509925254112
 31
-10.0
  0
CIRCLE
  5
19FD
  8
0
 10
103.24448834045791
 20
52.421782182543041
 30
0.0
 40
4.3235000000000241
  0
CIRCLE
  5
1A06
  8
0
 10
103.24448834045791
 20
52.421782182543041
 30
-10.0
 40
9.0
  0
LINE
  5
1A0E
  8
0
 10
113.24448834045791
 20
45.421782182543041
 30
-10.0
 11
116.24448834045791
 21
45.421782182543041
 31
-10.0
  0
LINE
  5
1A0F
  8
0
 10
116.24448834045791
 20
59.421782182543041
 30
-10.0
 11
113.24448834045791
 21
59.421782182543041
 31
-10.0
  0
LINE
  5
1A10
  8
0
 10
113.24448834045791
 20
57.743582920188487
 30
-10.0
 11
111.113950641581
 21
57.743582920188487
 31
-10.0
  0
LINE
  5
1A12
  8
0
 10
115.688336663914
 20
56.621782182543029
 30
-10.0
 11
111.765638497567
 21
56.621782182543029
 31
-10.0
  0
LINE
  5
1A13
  8
0
 10
115.688336663914
 20
56.621782182543029
 30
-10.0
 11
116.24448834045791
 21
59.421782182543041
 31
-10.0
  0
LINE
  5
1A15
  8
0
 10
107.24448834045791
 20
41.921782182543041
 30
-10.0
 11
107.24448834045791
 21
44.35952443424452
 31
-10.0
  0
LINE
  5
1A16
  8
0
 10
107.74448834045791
 20
44.055181917202269
 30
-10.0
 11
107.74448834045791
 21
41.921782182543041
 31
-10.0
  0
ARC
  5
1A17
  8
0
 10
103.24448834045801
 20
52.421782182543012
 30
-10.0
 40
9.4999999999999503
 50
298.2737136313653
 51
333.7617174556716
  0
LINE
  5
1A18
  8
0
 10
114.24448834045791
 20
48.221782182543052
 30
-10.0
 11
114.24448834045791
 21
56.621782182543029
 31
-10.0
  0
ARC
  5
1A19
  8
0
 10
103.24448834045791
 20
52.421782182543041
 30
-10.0
 40
9.5
 50
26.238282544328371
 51
241.7262863686347
  0
LINE
  5
1A1A
  8
0
 10
98.744488340457963
 20
41.921782182543041
 30
-10.0
 11
98.744488340457963
 21
44.055181917202269
 31
-10.0
  0
LINE
  5
1A1B
  8
0
 10
99.244488340457977
 20
44.359524434244491
 30
-10.0
 11
99.244488340457977
 21
41.921782182543041
 31
-10.0
  0
LINE
  5
1A1C
  8
0
 10
116.24448834045791
 20
45.421782182543041
 30
-10.0
 11
115.688336663914
 21
48.221782182543052
 31
-10.0
  0
LINE
  5
1A1D
  8
0
 10
115.688336663914
 20
48.221782182543052
 30
-10.0
 11
111.765638497567
 21
48.221782182543052
 31
-10.0
  0
LINE
  5
1A1F
  8
0
 10
111.113950641581
 20
47.099981444897587
 30
-10.0
 11
113.24448834045791
 21
47.099981444897587
 31
-10.0
  0
LINE
  5
1A20
  8
0
 10
116.24448834045791
 20
45.421782182543041
 30
-10.0
 11
116.24448834045791
 21
59.421782182543041
 31
-10.0
  0
LINE
  5
1A21
  8
0
 10
90.244488340457977
 20
48.421782182543041
 30
-10.0
 11
90.244488340457977
 21
56.421782182543041
 31
-10.0
  0
LINE
  5
1A22
  8
0
 10
91.244488340457963
 20
47.421782182543041
 30
-10.0
 11
91.244488340457963
 21
57.421782182543041
 31
-10.0
  0
LINE
  5
1A24
  8
0
 10
107.74448834045791
 20
41.921782182543041
 30
-10.0
 11
107.24448834045791
 21
41.921782182543041
 31
-10.0
  0
LINE
  5
1A27
  8
0
 10
99.244488340457977
 20
41.921782182543041
 30
-10.0
 11
98.744488340457963
 21
41.921782182543041
 31
-10.0
  0
LINE
  5
1A29
  8
0
 10
91.244488340457963
 20
47.421782182543041
 30
-10.0
 11
90.244488340457977
 21
48.421782182543041
 31
-10.0
  0
LINE
  5
1A2A
  8
0
 10
90.244488340457977
 20
56.421782182543041
 30
-10.0
 11
91.244488340457963
 21
57.421782182543041
 31
-10.0
  0
LINE
  5
1A2B
  8
0
 10
93.244488340457963
 20
47.421782182543041
 30
-10.0
 11
91.244488340457963
 21
47.421782182543041
 31
-10.0
  0
LINE
  5
1A32
  8
0
 10
91.244488340457963
 20
57.421782182543041
 30
-10.0
 11
93.244488340457963
 21
57.421782182543041
 31
-10.0
  0
LINE
  5
1A33
  8
0
 10
93.244488340457963
 20
42.421782182543041
 30
-10.0
 11
98.744488340457949
 21
42.421782182543041
 31
-10.0
  0
LINE
  5
1A34
  8
0
 10
93.244488340457963
 20
62.421782182543041
 30
-10.0
 11
113.24448834045791
 21
62.421782182543041
 31
-10.0
  0
LINE
  5
1A35
  8
0
 10
93.244488340457963
 20
42.421782182543041
 30
-10.0
 11
93.244488340457963
 21
62.421782182543041
 31
-10.0
  0
LINE
  5
1A48
  8
0
 10
98.244488340457963
 20
205.55208542711731
 30
0.0
 11
98.244488340457963
 21
185.55208542711731
 31
0.0
  0
LINE
  5
1A49
  8
0
 10
108.24448834045791
 20
205.55208542711731
 30
0.0
 11
108.24448834045791
 21
185.55208542711731
 31
0.0
  0
LINE
  5
1A4B
  8
2
 10
98.244488340457963
 20
190.55208542711731
 30
0.0
 11
93.244488340457963
 21
190.55208542711731
 31
0.0
  0
LINE
  5
1A4C
  8
0
 10
113.24448834045791
 20
205.55208542711731
 30
0.0
 11
113.24448834045791
 21
185.55208542711731
 31
0.0
  0
LINE
  5
1A4E
  8
2
 10
108.24448834045791
 20
190.55208542711731
 30
0.0
 11
113.24448834045791
 21
190.55208542711731
 31
0.0
  0
LINE
  5
1A4F
  8
2
 10
108.24448834045791
 20
200.55208542711731
 30
0.0
 11
113.24448834045791
 21
200.55208542711731
 31
0.0
  0
CIRCLE
  5
1A74
  8
3
 10
103.24448834045791
 20
52.421782182543041
 30
-10.0
 40
5.0
  0
LINE
  5
1A75
  8
0
 10
113.24448834045791
 20
62.421782182543041
 30
-10.0
 11
113.24448834045791
 21
57.74358292018848
 31
-10.0
  0
LINE
  5
1A76
  8
0
 10
107.74448834045801
 20
42.421782182543041
 30
-10.0
 11
113.24448834045791
 21
42.421782182543041
 31
-10.0
  0
LINE
  5
1A77
  8
0
 10
99.244488340457977
 20
42.421782182543041
 30
-10.0
 11
107.24448834045801
 21
42.421782182543041
 31
-10.0
  0
LINE
  5
1A80
  8
0
 10
113.24448834045801
 20
47.099981444897601
 30
-10.0
 11
113.24448834045791
 21
42.421782182543041
 31
-10.0
  0
LINE
  5
1B2E
  8
2
 10
98.244488340457991
 20
117.9869338048302
 30
0.0
 11
98.920988340457995
 21
117.3104338048302
 31
0.0
  0
LINE
  5
1B2F
  8
2
 10
98.920988340457995
 20
117.3104338048302
 30
0.0
 11
98.920988340457995
 21
98.663433804830206
 31
0.0
  0
LINE
  5
1B30
  8
2
 10
107.567988340458
 20
117.3104338048302
 30
0.0
 11
98.920988340457995
 21
117.3104338048302
 31
0.0
  0
LINE
  5
1B31
  8
2
 10
98.244488340457991
 20
97.986933804830215
 30
0.0
 11
98.244488340457991
 21
117.9869338048302
 31
0.0
  0
LINE
  5
1B32
  8
2
 10
107.567988340458
 20
117.3104338048302
 30
0.0
 11
108.24448834045801
 21
117.9869338048302
 31
0.0
  0
LINE
  5
1B33
  8
2
 10
107.567988340458
 20
98.663433804830206
 30
0.0
 11
107.567988340458
 21
117.3104338048302
 31
0.0
  0
LINE
  5
1B34
  8
2
 10
108.24448834045801
 20
97.986933804830215
 30
0.0
 11
108.24448834045801
 21
117.9869338048302
 31
0.0
  0
LINE
  5
1B35
  8
2
 10
108.24448834045801
 20
97.986933804830215
 30
0.0
 11
107.567988340458
 21
98.663433804830206
 31
0.0
  0
LINE
  5
1B36
  8
2
 10
98.920988340457995
 20
98.663433804830206
 30
0.0
 11
98.244488340457991
 21
97.986933804830215
 31
0.0
  0
LINE
  5
1B38
  8
2
 10
107.567988340458
 20
98.663433804830206
 30
0.0
 11
98.920988340457995
 21
98.663433804830206
 31
0.0
  0
TEXT
  5
1C48
  8
0
 62
     3
 10
0.0
 20
0.0
 30
0.0
 40
10.0
  1
CJC10-M10F
  7
STANDARD1
  0
ENDSEC
  0
EOF
