  0
SECTION
  2
HEADER
  9
$ACADVER
  1
AC1009
  9
$INSBASE
 10
0.0
 20
0.0
 30
0.0
  9
$EXTMIN
 10
0.0
 20
-2.960436562073669
 30
0.0
  9
$EXTMAX
 10
336.72452935140723
 20
257.92168350035831
 30
0.0000000000000008
  9
$LIMMIN
 10
0.0
 20
0.0
  9
$LIMMAX
 10
187.5
 20
135.0
  9
$ORTHOMODE
 70
     1
  9
$REGENMODE
 70
     1
  9
$FILLMODE
 70
     1
  9
$QTEXTMODE
 70
     0
  9
$MIRRTEXT
 70
     0
  9
$DRAGMODE
 70
     2
  9
$LTSCALE
 40
5.0
  9
$OSMODE
 70
  3071
  9
$ATTMODE
 70
     1
  9
$TEXTSIZE
 40
0.06
  9
$TRACEWID
 40
0.05
  9
$TEXTSTYLE
  7
STANDARD
  9
$CLAYER
  8
0
  9
$CELTYPE
  6
BYLAYER
  9
$CECOLOR
 62
   256
  9
$DIMSCALE
 40
0.5
  9
$DIMASZ
 40
3.0
  9
$DIMEXO
 40
2.0
  9
$DIMDLI
 40
10.0
  9
$DIMRND
 40
0.0
  9
$DIMDLE
 40
0.0
  9
$DIMEXE
 40
2.0
  9
$DIMTP
 40
0.0
  9
$DIMTM
 40
0.0
  9
$DIMTXT
 40
3.0
  9
$DIMCEN
 40
0.0
  9
$DIMTSZ
 40
0.0
  9
$DIMTOL
 70
     0
  9
$DIMLIM
 70
     0
  9
$DIMTIH
 70
     0
  9
$DIMTOH
 70
     0
  9
$DIMSE1
 70
     0
  9
$DIMSE2
 70
     0
  9
$DIMTAD
 70
     1
  9
$DIMZIN
 70
     8
  9
$DIMBLK
  1

  9
$DIMASO
 70
     0
  9
$DIMSHO
 70
     0
  9
$DIMPOST
  1

  9
$DIMAPOST
  1

  9
$DIMALT
 70
     0
  9
$DIMALTD
 70
     2
  9
$DIMALTF
 40
25.399999999999999
  9
$DIMLFAC
 40
1.0
  9
$DIMTOFL
 70
     1
  9
$DIMTVP
 40
1.6000000000000001
  9
$DIMTIX
 70
     1
  9
$DIMSOXD
 70
     0
  9
$DIMSAH
 70
     0
  9
$DIMBLK1
  1

  9
$DIMBLK2
  1

  9
$DIMSTYLE
  2
STANDARD
  9
$DIMCLRD
 70
     0
  9
$DIMCLRE
 70
     0
  9
$DIMCLRT
 70
     0
  9
$DIMTFAC
 40
1.0
  9
$DIMGAP
 40
0.09
  9
$LUNITS
 70
     2
  9
$LUPREC
 70
     4
  9
$SKETCHINC
 40
0.1
  9
$FILLETRAD
 40
0.4
  9
$AUNITS
 70
     0
  9
$AUPREC
 70
     4
  9
$MENU
  1
E:\r13\win\SUPPORT\ACAD
  9
$ELEVATION
 40
0.0
  9
$PELEVATION
 40
0.0
  9
$THICKNESS
 40
0.0
  9
$LIMCHECK
 70
     0
  9
$BLIPMODE
 70
     0
  9
$CHAMFERA
 40
0.0
  9
$CHAMFERB
 40
0.0
  9
$SKPOLY
 70
     0
  9
$TDCREATE
 40
2449840.5914699072
  9
$TDUPDATE
 40
2456598.5894615632
  9
$TDINDWG
 40
0.3469249421
  9
$TDUSRTIMER
 40
0.3469249421
  9
$USRTIMER
 70
     1
  9
$ANGBASE
 50
0.0
  9
$ANGDIR
 70
     0
  9
$PDMODE
 70
     0
  9
$PDSIZE
 40
0.0
  9
$PLINEWID
 40
0.0
  9
$COORDS
 70
     1
  9
$SPLFRAME
 70
     0
  9
$SPLINETYPE
 70
     6
  9
$SPLINESEGS
 70
     8
  9
$ATTDIA
 70
     0
  9
$ATTREQ
 70
     1
  9
$HANDLING
 70
     1
  9
$HANDSEED
  5
2772
  9
$SURFTAB1
 70
     6
  9
$SURFTAB2
 70
     6
  9
$SURFTYPE
 70
     6
  9
$SURFU
 70
     6
  9
$SURFV
 70
     6
  9
$UCSNAME
  2

  9
$UCSORG
 10
0.0
 20
0.0
 30
0.0
  9
$UCSXDIR
 10
1.0
 20
0.0
 30
0.0
  9
$UCSYDIR
 10
0.0
 20
1.0
 30
0.0
  9
$PUCSNAME
  2

  9
$PUCSORG
 10
0.0
 20
0.0
 30
0.0
  9
$PUCSXDIR
 10
1.0
 20
0.0
 30
0.0
  9
$PUCSYDIR
 10
0.0
 20
1.0
 30
0.0
  9
$USERI1
 70
     3
  9
$USERI2
 70
     1
  9
$USERI3
 70
     0
  9
$USERI4
 70
     0
  9
$USERI5
 70
     0
  9
$USERR1
 40
0.5
  9
$USERR2
 40
3.0
  9
$USERR3
 40
3.0
  9
$USERR4
 40
3.0
  9
$USERR5
 40
10.0
  9
$WORLDVIEW
 70
     1
  9
$SHADEDGE
 70
     3
  9
$SHADEDIF
 70
    70
  9
$TILEMODE
 70
     1
  9
$MAXACTVP
 70
    16
  9
$PLIMCHECK
 70
     0
  9
$PEXTMIN
 10
1.0000000000000000E+020
 20
1.0000000000000000E+020
 30
1.0000000000000000E+020
  9
$PEXTMAX
 10
-1.0000000000000000E+020
 20
-1.0000000000000000E+020
 30
-1.0000000000000000E+020
  9
$PLIMMIN
 10
0.0
 20
0.0
  9
$PLIMMAX
 10
12.0
 20
9.0
  9
$UNITMODE
 70
     0
  9
$VISRETAIN
 70
     0
  9
$PLINEGEN
 70
     0
  9
$PSLTSCALE
 70
     0
  0
ENDSEC
  0
SECTION
  2
TABLES
  0
TABLE
  2
VPORT
 70
     1
  0
VPORT
  2
*ACTIVE
 70
     0
 10
0.0
 20
0.0
 11
1.0
 21
1.0
 12
175.5917660924905
 22
127.47516370637101
 13
0.0
 23
0.0
 14
5.0
 24
5.0
 15
10.0
 25
10.0
 16
0.0
 26
0.0
 36
1.0
 17
0.0
 27
0.0
 37
0.0
 40
263.2487721651998
 41
1.831871345029239
 42
50.0
 43
0.0
 44
0.0
 50
0.0
 51
0.0
 71
     0
 72
   100
 73
     1
 74
     0
 75
     0
 76
     0
 77
     0
 78
     0
  0
ENDTAB
  0
TABLE
  2
LTYPE
 70
     4
  0
LTYPE
  2
CONTINUOUS
 70
     0
  3
Solid Line
 72
    65
 73
     0
 40
0.0
  0
LTYPE
  2
CENTER
 70
     0
  3
____ _ ____ _ ____ _ ____ _ ____ _ ____ _ ____
 72
    65
 73
     4
 40
2.0
 49
1.25
 49
-0.25
 49
0.25
 49
-0.25
  0
LTYPE
  2
HIDDEN
 70
     0
  3
_ _ _ _ _ _ _ _ _ _ _ _ _ _ _ _ _ _ _ _ _ _ _
 72
    65
 73
     2
 40
0.375
 49
0.25
 49
-0.125
  0
LTYPE
  2
PHANTOM2
 70
     0
  3
___ _ _ ___ _ _ ___ _ _ ___ _ _
 72
    65
 73
     6
 40
1.25
 49
0.625
 49
-0.125
 49
0.125
 49
-0.125
 49
0.125
 49
-0.125
  0
ENDTAB
  0
TABLE
  2
LAYER
 70
     4
  0
LAYER
  2
0
 70
     0
 62
     7
  6
CONTINUOUS
  0
LAYER
  2
1
 70
     0
 62
     1
  6
CENTER
  0
LAYER
  2
2
 70
     0
 62
     2
  6
HIDDEN
  0
LAYER
  2
3
 70
     0
 62
     3
  6
CONTINUOUS
  0
ENDTAB
  0
TABLE
  2
STYLE
 70
     2
  0
STYLE
  2
STANDARD
 70
     0
 40
0.0
 41
1.0
 50
0.0
 71
     0
 42
0.06
  3
TXT
  4
BIGFONT
  0
STYLE
  2
STANDARD1
 70
     0
 40
0.0
 41
1.0
 50
0.0
 71
     0
 42
3.0
  3
txt
  4

  0
ENDTAB
  0
TABLE
  2
VIEW
 70
     2
  0
VIEW
  2
OLE1
 70
     0
 40
24.514257897662329
 10
44.901529473115893
 20
103.25177669290009
 41
34.172454060781448
 11
0.0
 21
0.0
 31
1.0
 12
0.0
 22
0.0
 32
0.0
 42
50.0
 43
0.0
 44
0.0
 50
0.0
 71
     0
  0
VIEW
  2
OLE2
 70
     0
 40
111.8251716252055
 10
23.153306359535989
 20
84.753742215946431
 41
155.8823667497492
 11
0.0
 21
0.0
 31
1.0
 12
0.0
 22
0.0
 32
0.0
 42
50.0
 43
0.0
 44
0.0
 50
0.0
 71
     0
  0
ENDTAB
  0
TABLE
  2
UCS
 70
     0
  0
ENDTAB
  0
TABLE
  2
APPID
 70
     3
  0
APPID
  2
ACAD
 70
     0
  0
APPID
  2
ACAD_MLEADERVER
 70
     0
  0
APPID
  2
ACAD_NAV_VCDISPLAY
 70
     0
  0
ENDTAB
  0
TABLE
  2
DIMSTYLE
 70
     1
  0
DIMSTYLE
  2
STANDARD
 70
     0
  3

  4

  5

  6

  7

 40
1.0
 41
0.18
 42
0.0625
 43
0.38
 44
0.18
 45
0.0
 46
0.0
 47
0.0
 48
0.0
140
0.18
141
0.09
142
0.0
143
25.399999999999999
144
1.0
145
0.0
146
1.0
147
0.09
 71
     0
 72
     0
 73
     1
 74
     1
 75
     0
 76
     0
 77
     0
 78
     0
170
     0
171
     2
172
     0
173
     0
174
     0
175
     0
176
     0
177
     0
178
     0
  0
ENDTAB
  0
ENDSEC
  0
SECTION
  2
BLOCKS
  0
BLOCK
  8
0
  2
$MODEL_SPACE
 70
     0
 10
0.0
 20
0.0
 30
0.0
  3
$MODEL_SPACE
  1

  0
ENDBLK
  5
E6
  8
0
  0
BLOCK
 67
     1
  8
0
  2
$PAPER_SPACE
 70
     0
 10
0.0
 20
0.0
 30
0.0
  3
$PAPER_SPACE
  1

  0
ENDBLK
  5
E4
 67
     1
  8
0
  0
ENDSEC
  0
SECTION
  2
ENTITIES
  0
LINE
  5
20F2
  8
0
 10
124.64843015832
 20
123.1223031142011
 30
0.0
 11
124.64843015832
 21
109.1223031142011
 31
0.0
  0
LINE
  5
20F3
  8
0
 10
153.64843015832
 20
171.12230311420109
 30
0.0
 11
150.64843015832
 21
171.12230311420109
 31
0.0
  0
LINE
  5
20F4
  8
0
 10
121.14843015832
 20
154.12230311420109
 30
0.0
 11
123.64843015832
 21
154.12230311420109
 31
0.0
  0
LINE
  5
20FB
  8
0
 10
123.64843015832
 20
168.12230311420109
 30
0.0
 11
121.14843015832
 21
168.12230311420109
 31
0.0
  0
LINE
  5
20FC
  8
0
 10
119.64843015832
 20
155.62230311420109
 30
0.0
 11
121.14843015832
 21
154.12230311420109
 31
0.0
  0
LINE
  5
20FD
  8
0
 10
121.14843015832
 20
168.12230311420109
 30
0.0
 11
119.64843015832
 21
166.62230311420109
 31
0.0
  0
LINE
  5
2104
  8
0
 10
124.64843015832
 20
123.1223031142011
 30
0.0
 11
150.64843015832
 21
123.1223031142011
 31
0.0
  0
LINE
  5
2105
  8
0
 10
121.14843015832
 20
154.12230311420109
 30
0.0
 11
121.14843015832
 21
168.12230311420109
 31
0.0
  0
LINE
  5
2106
  8
0
 10
119.64843015832
 20
155.62230311420109
 30
0.0
 11
119.64843015832
 21
166.62230311420109
 31
0.0
  0
LINE
  5
2108
  8
0
 10
148.11428625805061
 20
109.1223031142011
 30
0.0
 11
148.11428625805061
 21
120.3552887438242
 31
0.0
  0
LINE
  5
2109
  8
0
 10
153.64843015832
 20
125.1223031142011
 30
0.0
 11
153.64843015832
 21
171.12230311420109
 31
0.0
  0
LINE
  5
210A
  8
0
 10
151.64843015832
 20
109.1223031142011
 30
0.0
 11
153.64843015832
 21
125.1223031142011
 31
0.0
  0
POLYLINE
  5
210B
  8
0
 66
     1
 10
0.0
 20
0.0
 30
0.0
  0
VERTEX
  5
2664
  8
0
 10
146.4756822983087
 20
123.1223031142011
 30
0.0
  0
VERTEX
  5
2665
  8
0
 10
146.7848833051066
 20
122.6931595395818
 30
0.0
  0
VERTEX
  5
2666
  8
0
 10
147.36117955177789
 20
121.79447122140409
 30
0.0
  0
VERTEX
  5
2667
  8
0
 10
147.87860018785639
 20
120.846264007748
 30
0.0
  0
VERTEX
  5
2668
  8
0
 10
148.11428625805061
 20
120.3552887438242
 30
0.0
  0
SEQEND
  5
2669
  8
0
  0
LINE
  5
210C
  8
0
 10
124.64843015832
 20
109.1223031142011
 30
0.0
 11
151.64843015832
 21
109.1223031142011
 31
0.0
  0
LINE
  5
210E
  8
0
 10
153.05255336202291
 20
120.3552887438242
 30
0.0
 11
148.11428625805061
 21
120.3552887438242
 31
0.0
  0
LINE
  5
2111
  8
0
 10
150.64843015832
 20
125.1223031142011
 30
0.0
 11
153.64843015832
 21
125.1223031142011
 31
0.0
  0
LINE
  5
2114
  8
1
 10
159.8640520800856
 20
161.12230311420109
 30
0.0
 11
114.43280823655439
 21
161.12230311420109
 31
0.0
  0
LINE
  5
2115
  8
0
 10
149.14843015832
 20
105.1223031142011
 30
0.0
 11
149.14843015832
 21
109.1223031142011
 31
0.0
  0
LINE
  5
2117
  8
0
 10
149.14843015832
 20
123.1223031142011
 30
0.0
 11
149.14843015832
 21
127.6223031142011
 31
0.0
  0
LINE
  5
2118
  8
0
 10
125.14843015832
 20
127.6223031142011
 30
0.0
 11
125.14843015832
 21
123.1223031142011
 31
0.0
  0
LINE
  5
211A
  8
0
 10
125.14843015832
 20
109.1223031142011
 30
0.0
 11
125.14843015832
 21
105.1223031142011
 31
0.0
  0
LINE
  5
211C
  8
0
 10
149.14843015832
 20
127.6223031142011
 30
0.0
 11
150.64843015832
 21
128.19809916675419
 31
0.0
  0
LINE
  5
211D
  8
0
 10
123.64843015832
 20
128.19809916675419
 30
0.0
 11
125.14843015832
 21
127.6223031142011
 31
0.0
  0
LINE
  5
211E
  8
0
 10
130.14843015832
 20
177.12230311420109
 30
0.0
 11
123.64843015832
 21
174.09130333619359
 31
0.0
  0
LINE
  5
211F
  8
2
 10
124.14843015832
 20
168.12230311420109
 30
0.0
 11
123.64843015832
 21
168.62230311420109
 31
0.0
  0
LINE
  5
2120
  8
2
 10
123.64843015832
 20
153.62230311420109
 30
0.0
 11
124.14843015832
 21
154.12230311420109
 31
0.0
  0
LINE
  5
2121
  8
2
 10
130.14843015832
 20
168.12230311420109
 30
0.0
 11
123.64843015832
 21
168.12230311420109
 31
0.0
  0
LINE
  5
2122
  8
2
 10
123.64843015832
 20
154.12230311420109
 30
0.0
 11
130.14843015832
 21
154.12230311420109
 31
0.0
  0
LINE
  5
2127
  8
2
 10
143.60693015832001
 20
132.5808031142011
 30
0.0
 11
144.14843015832
 21
133.12230311420109
 31
0.0
  0
LINE
  5
2128
  8
2
 10
130.14843015832
 20
133.12230311420109
 30
0.0
 11
130.68993015832001
 21
132.5808031142011
 31
0.0
  0
LINE
  5
2129
  8
2
 10
143.60693015832001
 20
105.663803114201
 30
0.0
 11
143.60693015832001
 21
132.5808031142011
 31
0.0
  0
LINE
  5
212A
  8
2
 10
130.68993015832001
 20
132.5808031142011
 30
0.0
 11
130.68993015832001
 21
105.663803114201
 31
0.0
  0
LINE
  5
212B
  8
2
 10
144.14843015832
 20
105.1223031142011
 30
0.0
 11
143.60693015832001
 21
105.663803114201
 31
0.0
  0
LINE
  5
212C
  8
2
 10
130.68993015832001
 20
105.663803114201
 30
0.0
 11
130.14843015832
 21
105.1223031142011
 31
0.0
  0
LINE
  5
212D
  8
0
 10
149.14843015832
 20
105.1223031142011
 30
0.0
 11
125.14843015832
 21
105.1223031142011
 31
0.0
  0
LINE
  5
2134
  8
0
 10
149.14843015832
 20
127.6223031142011
 30
0.0
 11
125.14843015832
 21
127.6223031142011
 31
0.0
  0
POLYLINE
  5
213B
  8
0
 66
     1
 10
0.0
 20
0.0
 30
0.0
  0
VERTEX
  5
266A
  8
0
 10
150.64843015832
 20
130.34462197390971
 30
0.0
  0
VERTEX
  5
266B
  8
0
 10
149.6194210914592
 20
130.07084620345719
 30
0.0
  0
VERTEX
  5
266C
  8
0
 10
147.7288719977152
 20
129.6000226061397
 30
0.0
  0
VERTEX
  5
266D
  8
0
 10
146.01949514072319
 20
129.21680395280501
 30
0.0
  0
VERTEX
  5
266E
  8
0
 10
145.2197496077132
 20
129.05366811894979
 30
0.0
  0
VERTEX
  5
266F
  8
0
 10
144.45085736426211
 20
128.90765921612299
 30
0.0
  0
VERTEX
  5
2670
  8
0
 10
142.99091628625689
 20
128.66258174912849
 30
0.0
  0
VERTEX
  5
2671
  8
0
 10
141.61353190554789
 20
128.47419422501289
 30
0.0
  0
VERTEX
  5
2672
  8
0
 10
140.2967108553853
 20
128.33714970830931
 30
0.0
  0
VERTEX
  5
2673
  8
0
 10
139.0213172061049
 20
128.247731200869
 30
0.0
  0
VERTEX
  5
2674
  8
0
 10
137.7700796938494
 20
128.20359046266401
 30
0.0
  0
VERTEX
  5
2675
  8
0
 10
137.14843015832
 20
128.19809916675419
 30
0.0
  0
VERTEX
  5
2676
  8
0
 10
136.5267806227906
 20
128.20359046266401
 30
0.0
  0
VERTEX
  5
2677
  8
0
 10
135.2755431105351
 20
128.247731200869
 30
0.0
  0
VERTEX
  5
2678
  8
0
 10
134.00014946125469
 20
128.33714970830931
 30
0.0
  0
VERTEX
  5
2679
  8
0
 10
132.68332841109211
 20
128.47419422501289
 30
0.0
  0
VERTEX
  5
267A
  8
0
 10
131.30594403038299
 20
128.66258174912849
 30
0.0
  0
VERTEX
  5
267B
  8
0
 10
129.84600295237789
 20
128.90765921612299
 30
0.0
  0
VERTEX
  5
267C
  8
0
 10
129.0771107089268
 20
129.05366811894979
 30
0.0
  0
VERTEX
  5
267D
  8
0
 10
128.27736517591671
 20
129.21680395280501
 30
0.0
  0
VERTEX
  5
267E
  8
0
 10
126.5679883189249
 20
129.6000226061397
 30
0.0
  0
VERTEX
  5
267F
  8
0
 10
124.6774392251809
 20
130.07084620345719
 30
0.0
  0
VERTEX
  5
2680
  8
0
 10
123.64843015832
 20
130.34462197390971
 30
0.0
  0
SEQEND
  5
2681
  8
0
  0
POLYLINE
  5
213D
  8
0
 66
     1
 10
0.0
 20
0.0
 30
0.0
  0
VERTEX
  5
2682
  8
0
 10
123.64843015832
 20
171.48376542686941
 30
0.0
  0
VERTEX
  5
2683
  8
0
 10
124.9094882901031
 20
171.8893932764957
 30
0.0
  0
VERTEX
  5
2684
  8
0
 10
127.186140174789
 20
172.5628032840963
 30
0.0
  0
VERTEX
  5
2685
  8
0
 10
129.20960717922651
 20
173.08349354693109
 30
0.0
  0
VERTEX
  5
2686
  8
0
 10
130.14843015832
 20
173.29535984474521
 30
0.0
  0
SEQEND
  5
2687
  8
0
  0
LINE
  5
2146
  8
2
 10
124.14843015832
 20
168.12230311420109
 30
0.0
 11
124.14843015832
 21
154.12230311420109
 31
0.0
  0
LINE
  5
214B
  8
0
 10
130.14843015832
 20
133.12230311420109
 30
0.0
 11
144.14843015832
 21
133.12230311420109
 31
0.0
  0
LINE
  5
214C
  8
2
 10
143.60693015832001
 20
132.5808031142011
 30
0.0
 11
130.68993015832001
 21
132.5808031142011
 31
0.0
  0
LINE
  5
214E
  8
2
 10
143.60693015832001
 20
105.663803114201
 30
0.0
 11
130.68993015832001
 21
105.663803114201
 31
0.0
  0
LINE
  5
214F
  8
2
 10
144.14843015832
 20
105.1223031142011
 30
0.0
 11
144.14843015832
 21
133.12230311420109
 31
0.0
  0
LINE
  5
2150
  8
2
 10
130.14843015832
 20
105.1223031142011
 30
0.0
 11
130.14843015832
 21
133.12230311420109
 31
0.0
  0
LINE
  5
2151
  8
1
 10
137.14843015832
 20
183.83792503596669
 30
0.0
 11
137.14843015832
 21
98.906681192435485
 31
0.0
  0
POINT
  5
2154
  8
2
 10
123.64843015832
 20
161.12230311420109
 30
0.0000000000000008
210
1.0
220
0.0000000000000001
230
-0.0000000000000001
  0
CIRCLE
  5
2163
  8
0
 10
48.718191522659247
 20
161.122303114201
 30
0.0
 40
7.0
  0
POLYLINE
  5
2171
  8
0
 66
     1
 10
0.0
 20
0.0
 30
0.0
  0
VERTEX
  5
2688
  8
0
 10
35.218191522659247
 20
171.48376542686941
 30
0.0
  0
VERTEX
  5
2689
  8
0
 10
36.247200589520112
 20
171.8163408356792
 30
0.0
  0
VERTEX
  5
268A
  8
0
 10
38.137749683264111
 20
172.3882846205378
 30
0.0
  0
VERTEX
  5
268B
  8
0
 10
39.847126540255999
 20
172.85380828644031
 30
0.0
  0
VERTEX
  5
268C
  8
0
 10
40.646872073266039
 20
173.05198128964739
 30
0.0
  0
VERTEX
  5
268D
  8
0
 10
41.415764316717151
 20
173.22934895979299
 30
0.0
  0
VERTEX
  5
268E
  8
0
 10
42.875705394722303
 20
173.52706244496031
 30
0.0
  0
VERTEX
  5
268F
  8
0
 10
44.253089775431377
 20
173.75591051922149
 30
0.0
  0
VERTEX
  5
2690
  8
0
 10
45.569910825593936
 20
173.9223884953131
 30
0.0
  0
VERTEX
  5
2691
  8
0
 10
46.845304474874382
 20
174.0310116821567
 30
0.0
  0
VERTEX
  5
2692
  8
0
 10
48.096541987129832
 20
174.0846326582915
 30
0.0
  0
VERTEX
  5
2693
  8
0
 10
48.718191522659247
 20
174.0913033361935
 30
0.0
  0
VERTEX
  5
2694
  8
0
 10
49.339841058188682
 20
174.0846326582915
 30
0.0
  0
VERTEX
  5
2695
  8
0
 10
50.591078570444132
 20
174.0310116821567
 30
0.0
  0
VERTEX
  5
2696
  8
0
 10
51.866472219724557
 20
173.9223884953131
 30
0.0
  0
VERTEX
  5
2697
  8
0
 10
53.18329326988713
 20
173.75591051922149
 30
0.0
  0
VERTEX
  5
2698
  8
0
 10
54.560677650596197
 20
173.52706244496031
 30
0.0
  0
VERTEX
  5
2699
  8
0
 10
56.020618728601328
 20
173.22934895979299
 30
0.0
  0
VERTEX
  5
269A
  8
0
 10
56.789510972052483
 20
173.05198128964739
 30
0.0
  0
VERTEX
  5
269B
  8
0
 10
57.589256505062508
 20
172.85380828644031
 30
0.0
  0
VERTEX
  5
269C
  8
0
 10
59.298633362054403
 20
172.3882846205378
 30
0.0
  0
VERTEX
  5
269D
  8
0
 10
61.189182455798402
 20
171.8163408356792
 30
0.0
  0
VERTEX
  5
269E
  8
0
 10
62.218191522659261
 20
171.4837654268693
 30
0.0
  0
SEQEND
  5
269F
  8
0
  0
POLYLINE
  5
2172
  8
0
 66
     1
 10
0.0
 20
0.0
 30
0.0
  0
VERTEX
  5
26A0
  8
0
 10
62.218191522659261
 20
173.29535984474521
 30
0.0
  0
VERTEX
  5
26A1
  8
0
 10
60.708882294673849
 20
173.91205296241711
 30
0.0
  0
VERTEX
  5
26A2
  8
0
 10
58.259213354615007
 20
174.8684173559582
 30
0.0
  0
VERTEX
  5
26A3
  8
0
 10
56.332768540716472
 20
175.56334342079739
 30
0.0
  0
VERTEX
  5
26A4
  8
0
 10
55.507206877403831
 20
175.8392820466419
 30
0.0
  0
VERTEX
  5
26A5
  8
0
 10
54.752049637471117
 20
176.07702097545771
 30
0.0
  0
VERTEX
  5
26A6
  8
0
 10
53.406812571880216
 20
176.45774434504011
 30
0.0
  0
VERTEX
  5
26A7
  8
0
 10
52.223911121920132
 20
176.73582850442759
 30
0.0
  0
VERTEX
  5
26A8
  8
0
 10
51.151714919882721
 20
176.9306785054342
 30
0.0
  0
VERTEX
  5
26A9
  8
0
 10
50.15138187312759
 20
177.05459029734209
 30
0.0
  0
VERTEX
  5
26AA
  8
0
 10
49.191557338768312
 20
177.11484820011071
 30
0.0
  0
VERTEX
  5
26AB
  8
0
 10
48.718191522659247
 20
177.12230311420109
 30
0.0
  0
VERTEX
  5
26AC
  8
0
 10
48.244825706550202
 20
177.11484820011071
 30
0.0
  0
VERTEX
  5
26AD
  8
0
 10
47.285001172190931
 20
177.05459029734209
 30
0.0
  0
VERTEX
  5
26AE
  8
0
 10
46.2846681254358
 20
176.9306785054342
 30
0.0
  0
VERTEX
  5
26AF
  8
0
 10
45.212471923398383
 20
176.73582850442759
 30
0.0
  0
VERTEX
  5
26B0
  8
0
 10
44.029570473438277
 20
176.45774434504011
 30
0.0
  0
VERTEX
  5
26B1
  8
0
 10
42.684333407847397
 20
176.07702097545771
 30
0.0
  0
VERTEX
  5
26B2
  8
0
 10
41.92917616791469
 20
175.8392820466419
 30
0.0
  0
VERTEX
  5
26B3
  8
0
 10
41.103614504602028
 20
175.56334342079739
 30
0.0
  0
VERTEX
  5
26B4
  8
0
 10
39.177169690703501
 20
174.8684173559582
 30
0.0
  0
VERTEX
  5
26B5
  8
0
 10
36.727500750644637
 20
173.91205296241711
 30
0.0
  0
VERTEX
  5
26B6
  8
0
 10
35.218191522659268
 20
173.29535984474521
 30
0.0
  0
SEQEND
  5
26B7
  8
0
  0
POLYLINE
  5
2173
  8
0
 66
     1
 10
0.0
 20
0.0
 30
0.0
  0
VERTEX
  5
26B8
  8
0
 10
62.218191522659261
 20
130.34462197390971
 30
0.0
  0
VERTEX
  5
26B9
  8
0
 10
61.189182455798402
 20
130.07084620345711
 30
0.0
  0
VERTEX
  5
26BA
  8
0
 10
59.298633362054403
 20
129.60002260613959
 30
0.0
  0
VERTEX
  5
26BB
  8
0
 10
57.589256505062508
 20
129.21680395280501
 30
0.0
  0
VERTEX
  5
26BC
  8
0
 10
56.789510972052483
 20
129.05366811894979
 30
0.0
  0
VERTEX
  5
26BD
  8
0
 10
56.020618728601328
 20
128.90765921612299
 30
0.0
  0
VERTEX
  5
26BE
  8
0
 10
54.560677650596197
 20
128.66258174912849
 30
0.0
  0
VERTEX
  5
26BF
  8
0
 10
53.18329326988713
 20
128.47419422501289
 30
0.0
  0
VERTEX
  5
26C0
  8
0
 10
51.866472219724557
 20
128.33714970830931
 30
0.0
  0
VERTEX
  5
26C1
  8
0
 10
50.591078570444132
 20
128.24773120086891
 30
0.0
  0
VERTEX
  5
26C2
  8
0
 10
49.339841058188682
 20
128.2035904626639
 30
0.0
  0
VERTEX
  5
26C3
  8
0
 10
48.718191522659247
 20
128.19809916675419
 30
0.0
  0
VERTEX
  5
26C4
  8
0
 10
48.096541987129832
 20
128.2035904626639
 30
0.0
  0
VERTEX
  5
26C5
  8
0
 10
46.845304474874382
 20
128.24773120086891
 30
0.0
  0
VERTEX
  5
26C6
  8
0
 10
45.569910825593936
 20
128.33714970830931
 30
0.0
  0
VERTEX
  5
26C7
  8
0
 10
44.253089775431377
 20
128.47419422501289
 30
0.0
  0
VERTEX
  5
26C8
  8
0
 10
42.87570539472231
 20
128.66258174912849
 30
0.0
  0
VERTEX
  5
26C9
  8
0
 10
41.415764316717173
 20
128.90765921612299
 30
0.0
  0
VERTEX
  5
26CA
  8
0
 10
40.646872073266039
 20
129.05366811894979
 30
0.0
  0
VERTEX
  5
26CB
  8
0
 10
39.847126540255999
 20
129.21680395280501
 30
0.0
  0
VERTEX
  5
26CC
  8
0
 10
38.137749683264111
 20
129.60002260613959
 30
0.0
  0
VERTEX
  5
26CD
  8
0
 10
36.247200589520119
 20
130.07084620345711
 30
0.0
  0
VERTEX
  5
26CE
  8
0
 10
35.218191522659247
 20
130.34462197390971
 30
0.0
  0
SEQEND
  5
26CF
  8
0
  0
LINE
  5
2174
  8
0
 10
60.718191522659247
 20
127.6223031142011
 30
0.0
 11
36.718191522659247
 21
127.6223031142011
 31
0.0
  0
LINE
  5
217A
  8
0
 10
60.718191522659247
 20
105.122303114201
 30
0.0
 11
36.718191522659247
 21
105.122303114201
 31
0.0
  0
LINE
  5
2181
  8
0
 10
35.218191522659247
 20
128.19809916675419
 30
0.0
 11
36.718191522659247
 21
127.6223031142011
 31
0.0
  0
LINE
  5
2182
  8
0
 10
60.718191522659247
 20
127.6223031142011
 30
0.0
 11
62.218191522659261
 21
128.19809916675419
 31
0.0
  0
LINE
  5
2183
  8
0
 10
36.718191522659247
 20
109.122303114201
 30
0.0
 11
36.718191522659247
 21
105.122303114201
 31
0.0
  0
LINE
  5
2185
  8
0
 10
36.718191522659247
 20
127.6223031142011
 30
0.0
 11
36.718191522659247
 21
123.122303114201
 31
0.0
  0
LINE
  5
2186
  8
0
 10
60.718191522659247
 20
123.122303114201
 30
0.0
 11
60.718191522659247
 21
127.6223031142011
 31
0.0
  0
LINE
  5
2188
  8
0
 10
60.718191522659247
 20
105.122303114201
 30
0.0
 11
60.718191522659247
 21
109.122303114201
 31
0.0
  0
LINE
  5
218F
  8
0
 10
35.218191522659247
 20
109.122303114201
 30
0.0
 11
61.218191522659247
 21
109.122303114201
 31
0.0
  0
LINE
  5
2197
  8
0
 10
37.493219362337442
 20
123.122303114201
 30
0.0
 11
37.493219362337442
 21
109.122303114201
 31
0.0
  0
CIRCLE
  5
219B
  8
0
 10
48.718191522659247
 20
161.122303114201
 30
0.0
 40
5.5
  0
LINE
  5
219D
  8
0
 10
35.218191522659247
 20
123.122303114201
 30
0.0
 11
61.218191522659247
 21
123.122303114201
 31
0.0
  0
LINE
  5
219E
  8
0
 10
35.218191522659247
 20
123.122303114201
 30
0.0
 11
35.218191522659247
 21
109.122303114201
 31
0.0
  0
LINE
  5
21A1
  8
0
 10
61.218191522659247
 20
109.122303114201
 30
0.0
 11
61.218191522659247
 21
123.122303114201
 31
0.0
  0
LINE
  5
21CA
  8
0
 10
150.64843015832059
 20
245.20606157859271
 30
0.0
 11
153.64843015832059
 21
245.20606157859271
 31
0.0
  0
LINE
  5
21CB
  8
0
 10
153.64843015832059
 20
225.20606157859271
 30
0.0
 11
150.64843015832059
 21
225.20606157859271
 31
0.0
  0
LINE
  5
21D7
  8
0
 10
153.64843015832059
 20
245.20606157859271
 30
0.0
 11
153.64843015832059
 21
225.20606157859271
 31
0.0
  0
LINE
  5
21D9
  8
0
 10
119.64843015832059
 20
240.7060615785928
 30
0.0
 11
119.64843015832059
 21
229.70606157859271
 31
0.0
  0
LINE
  5
21DA
  8
0
 10
121.14843015832059
 20
242.20606157859271
 30
0.0
 11
121.14843015832059
 21
228.2060615785928
 31
0.0
  0
LINE
  5
21E1
  8
0
 10
121.14843015832059
 20
242.20606157859271
 30
0.0
 11
119.64843015832059
 21
240.7060615785928
 31
0.0
  0
LINE
  5
21E2
  8
0
 10
119.64843015832059
 20
229.70606157859271
 30
0.0
 11
121.14843015832059
 21
228.2060615785928
 31
0.0
  0
LINE
  5
21E3
  8
0
 10
123.64843015832059
 20
242.20606157859271
 30
0.0
 11
121.14843015832059
 21
242.20606157859271
 31
0.0
  0
LINE
  5
21E5
  8
0
 10
144.14843015832059
 20
242.20606157859271
 30
0.0
 11
130.14843015832059
 21
242.20606157859271
 31
0.0
  0
LINE
  5
21E8
  8
0
 10
130.14843015832059
 20
228.2060615785928
 30
0.0
 11
144.14843015832059
 21
228.20606157859271
 31
0.0
  0
LINE
  5
21EA
  8
0
 10
121.14843015832059
 20
228.2060615785928
 30
0.0
 11
123.64843015832059
 21
228.2060615785928
 31
0.0
  0
LINE
  5
23AD
  8
0
 10
123.64843015832
 20
128.19809916675419
 30
0.0
 11
123.64843015832
 21
174.09130333619359
 31
0.0
  0
LINE
  5
23AE
  8
0
 10
130.14843015832
 20
133.12230311420109
 30
0.0
 11
130.14843015832
 21
177.12230311420109
 31
0.0
  0
LINE
  5
23B0
  8
2
 10
150.14843015832
 20
168.12230311420109
 30
0.0
 11
150.14843015832
 21
154.12230311420109
 31
0.0
  0
POLYLINE
  5
23B1
  8
0
 66
     1
 10
0.0
 20
0.0
 30
0.0
  0
VERTEX
  5
26D0
  8
0
 10
150.64843015832
 20
171.48376542686941
 30
0.0
  0
VERTEX
  5
26D1
  8
0
 10
149.38737202653689
 20
171.8893932764957
 30
0.0
  0
VERTEX
  5
26D2
  8
0
 10
147.110720141851
 20
172.5628032840963
 30
0.0
  0
VERTEX
  5
26D3
  8
0
 10
145.08725313741351
 20
173.08349354693109
 30
0.0
  0
VERTEX
  5
26D4
  8
0
 10
144.14843015832
 20
173.29535984474521
 30
0.0
  0
SEQEND
  5
26D5
  8
0
  0
LINE
  5
23B2
  8
2
 10
150.64843015832
 20
154.12230311420109
 30
0.0
 11
144.14843015832
 21
154.12230311420109
 31
0.0
  0
LINE
  5
23B3
  8
2
 10
144.14843015832
 20
168.12230311420109
 30
0.0
 11
150.64843015832
 21
168.12230311420109
 31
0.0
  0
LINE
  5
23B4
  8
2
 10
150.64843015832
 20
153.62230311420109
 30
0.0
 11
150.14843015832
 21
154.12230311420109
 31
0.0
  0
LINE
  5
23B5
  8
2
 10
150.14843015832
 20
168.12230311420109
 30
0.0
 11
150.64843015832
 21
168.62230311420109
 31
0.0
  0
LINE
  5
23B6
  8
0
 10
144.14843015832
 20
177.12230311420109
 30
0.0
 11
150.64843015832
 21
174.09130333619359
 31
0.0
  0
LINE
  5
23B7
  8
0
 10
150.64843015832
 20
123.1223031142011
 30
0.0
 11
150.64843015832
 21
174.09130333619359
 31
0.0
  0
LINE
  5
23B8
  8
0
 10
144.14843015832
 20
133.12230311420109
 30
0.0
 11
144.14843015832
 21
177.12230311420109
 31
0.0
  0
LINE
  5
23B9
  8
0
 10
130.14843015832
 20
168.12230311420109
 30
0.0
 11
144.14843015832
 21
168.12230311420109
 31
0.0
  0
LINE
  5
23BA
  8
0
 10
130.14843015832
 20
154.12230311420109
 30
0.0
 11
144.14843015832
 21
154.12230311420109
 31
0.0
  0
LINE
  5
23DD
  8
0
 10
35.218191522659247
 20
128.19809916675419
 30
0.0
 11
35.218191522659268
 21
173.29535984474521
 31
0.0
  0
LINE
  5
23DE
  8
0
 10
62.218191522659261
 20
128.19809916675419
 30
0.0
 11
62.218191522659261
 21
173.29535984474521
 31
0.0
  0
LINE
  5
23DF
  8
1
 10
48.718191522659247
 20
183.83792503596661
 30
0.0
 11
48.718191522659247
 21
98.906681192435457
 31
0.0
  0
LINE
  5
23E0
  8
1
 10
71.433813444424857
 20
161.122303114201
 30
0.0
 11
26.002569600893651
 21
161.122303114201
 31
0.0
  0
LINE
  5
23E2
  8
1
 10
202.86304687221519
 20
161.122303114201
 30
0.0
 11
248.2942907157464
 21
161.122303114201
 31
0.0
  0
LINE
  5
23E3
  8
1
 10
225.5786687939808
 20
183.83792503596661
 30
0.0
 11
225.5786687939808
 21
98.906681192435457
 31
0.0
  0
LINE
  5
23E4
  8
0
 10
212.0786687939808
 20
128.19809916675419
 30
0.0
 11
212.0786687939808
 21
173.29535984474521
 31
0.0
  0
LINE
  5
23E5
  8
0
 10
239.0786687939808
 20
128.19809916675419
 30
0.0
 11
239.0786687939808
 21
173.29535984474521
 31
0.0
  0
LINE
  5
23E6
  8
0
 10
213.0786687939808
 20
109.122303114201
 30
0.0
 11
213.0786687939808
 21
123.122303114201
 31
0.0
  0
LINE
  5
23E7
  8
0
 10
239.0786687939808
 20
123.122303114201
 30
0.0
 11
239.0786687939808
 21
109.122303114201
 31
0.0
  0
LINE
  5
23E8
  8
0
 10
239.0786687939808
 20
123.122303114201
 30
0.0
 11
233.90046953162619
 21
123.122303114201
 31
0.0
  0
LINE
  5
23EA
  8
0
 10
239.0786687939808
 20
123.122303114201
 30
0.0
 11
233.9004695316263
 21
123.122303114201
 31
0.0
  0
LINE
  5
23EB
  8
0
 10
236.80364095430261
 20
123.122303114201
 30
0.0
 11
236.80364095430261
 21
109.122303114201
 31
0.0
  0
LINE
  5
23EC
  8
0
 10
231.5786687939808
 20
120.3552887438242
 30
0.0
 11
231.5786687939808
 21
109.122303114201
 31
0.0
  0
LINE
  5
23ED
  8
0
 10
219.5786687939808
 20
109.122303114201
 30
0.0
 11
219.5786687939808
 21
120.3552887438242
 31
0.0
  0
ARC
  5
23EE
  8
0
 10
225.5786687939808
 20
161.122303114201
 30
0.0
 40
10.0
 50
0.000000000000007
 51
180.0
  0
LINE
  5
23EF
  8
0
 10
215.5786687939808
 20
125.122303114201
 30
0.0
 11
235.5786687939808
 21
125.122303114201
 31
0.0
  0
LINE
  5
23F0
  8
0
 10
235.5786687939808
 20
125.122303114201
 30
0.0
 11
231.5786687939808
 21
120.3552887438242
 31
0.0
  0
LINE
  5
23F2
  8
0
 10
239.0786687939808
 20
109.122303114201
 30
0.0
 11
213.0786687939808
 21
109.122303114201
 31
0.0
  0
LINE
  5
23F3
  8
0
 10
219.5786687939808
 20
120.3552887438242
 30
0.0
 11
215.5786687939808
 21
125.122303114201
 31
0.0
  0
LINE
  5
23F4
  8
0
 10
215.5786687939808
 20
125.122303114201
 30
0.0
 11
215.5786687939808
 21
161.122303114201
 31
0.0
  0
LINE
  5
23F5
  8
0
 10
235.5786687939808
 20
125.122303114201
 30
0.0
 11
235.5786687939808
 21
161.122303114201
 31
0.0
  0
LINE
  5
23F6
  8
0
 10
213.5786687939808
 20
105.122303114201
 30
0.0
 11
213.5786687939808
 21
109.122303114201
 31
0.0
  0
LINE
  5
23F8
  8
0
 10
213.5786687939808
 20
123.122303114201
 30
0.0
 11
213.5786687939808
 21
127.6223031142011
 31
0.0
  0
LINE
  5
23F9
  8
0
 10
237.5786687939808
 20
127.6223031142011
 30
0.0
 11
237.5786687939808
 21
123.122303114201
 31
0.0
  0
LINE
  5
23FA
  8
0
 10
237.5786687939808
 20
109.122303114201
 30
0.0
 11
237.5786687939808
 21
105.122303114201
 31
0.0
  0
LINE
  5
23FB
  8
0
 10
213.5786687939808
 20
127.6223031142011
 30
0.0
 11
212.0786687939808
 21
128.19809916675419
 31
0.0
  0
LINE
  5
23FC
  8
0
 10
239.0786687939808
 20
128.19809916675419
 30
0.0
 11
237.5786687939808
 21
127.6223031142011
 31
0.0
  0
LINE
  5
23FD
  8
0
 10
213.5786687939808
 20
105.122303114201
 30
0.0
 11
237.5786687939808
 21
105.122303114201
 31
0.0
  0
POLYLINE
  5
23FE
  8
0
 66
     1
 10
0.0
 20
0.0
 30
0.0
  0
VERTEX
  5
26D6
  8
0
 10
239.0786687939808
 20
130.34462197390971
 30
0.0
  0
VERTEX
  5
26D7
  8
0
 10
238.04965972711989
 20
130.07084620345711
 30
0.0
  0
VERTEX
  5
26D8
  8
0
 10
236.15911063337589
 20
129.60002260613959
 30
0.0
  0
VERTEX
  5
26D9
  8
0
 10
235.5786687939808
 20
129.46989557234821
 30
0.0
  0
SEQEND
  5
26DA
  8
0
  0
LINE
  5
23FF
  8
0
 10
213.5786687939808
 20
127.6223031142011
 30
0.0
 11
215.5786687939808
 21
127.6223031142011
 31
0.0
  0
POLYLINE
  5
2401
  8
0
 66
     1
 10
0.0
 20
0.0
 30
0.0
  0
VERTEX
  5
26DB
  8
0
 10
212.0786687939808
 20
173.29535984474521
 30
0.0
  0
VERTEX
  5
26DC
  8
0
 10
213.58797802196619
 20
173.91205296241711
 30
0.0
  0
VERTEX
  5
26DD
  8
0
 10
216.03764696202501
 20
174.8684173559582
 30
0.0
  0
VERTEX
  5
26DE
  8
0
 10
217.96409177592361
 20
175.56334342079739
 30
0.0
  0
VERTEX
  5
26DF
  8
0
 10
218.78965343923619
 20
175.8392820466419
 30
0.0
  0
VERTEX
  5
26E0
  8
0
 10
219.54481067916899
 20
176.07702097545771
 30
0.0
  0
VERTEX
  5
26E1
  8
0
 10
220.8900477447599
 20
176.45774434504011
 30
0.0
  0
VERTEX
  5
26E2
  8
0
 10
222.07294919471991
 20
176.73582850442759
 30
0.0
  0
VERTEX
  5
26E3
  8
0
 10
223.1451453967573
 20
176.9306785054342
 30
0.0
  0
VERTEX
  5
26E4
  8
0
 10
224.14547844351239
 20
177.05459029734209
 30
0.0
  0
VERTEX
  5
26E5
  8
0
 10
225.1053029778717
 20
177.11484820011071
 30
0.0
  0
VERTEX
  5
26E6
  8
0
 10
225.5786687939808
 20
177.12230311420109
 30
0.0
  0
VERTEX
  5
26E7
  8
0
 10
226.05203461008981
 20
177.11484820011071
 30
0.0
  0
VERTEX
  5
26E8
  8
0
 10
227.01185914444909
 20
177.05459029734209
 30
0.0
  0
VERTEX
  5
26E9
  8
0
 10
228.01219219120421
 20
176.9306785054342
 30
0.0
  0
VERTEX
  5
26EA
  8
0
 10
229.08438839324171
 20
176.73582850442759
 30
0.0
  0
VERTEX
  5
26EB
  8
0
 10
230.2672898432017
 20
176.45774434504011
 30
0.0
  0
VERTEX
  5
26EC
  8
0
 10
231.6125269087926
 20
176.07702097545771
 30
0.0
  0
VERTEX
  5
26ED
  8
0
 10
232.36768414872529
 20
175.8392820466419
 30
0.0
  0
VERTEX
  5
26EE
  8
0
 10
233.19324581203799
 20
175.56334342079739
 30
0.0
  0
VERTEX
  5
26EF
  8
0
 10
235.11969062593661
 20
174.8684173559582
 30
0.0
  0
VERTEX
  5
26F0
  8
0
 10
237.5693595659954
 20
173.91205296241711
 30
0.0
  0
VERTEX
  5
26F1
  8
0
 10
239.0786687939808
 20
173.29535984474521
 30
0.0
  0
SEQEND
  5
26F2
  8
0
  0
POLYLINE
  5
2402
  8
0
 66
     1
 10
0.0
 20
0.0
 30
0.0
  0
VERTEX
  5
26F3
  8
0
 10
239.0786687939808
 20
171.48376542686941
 30
0.0
  0
VERTEX
  5
26F4
  8
0
 10
238.04965972711989
 20
171.8163408356792
 30
0.0
  0
VERTEX
  5
26F5
  8
0
 10
236.15911063337589
 20
172.3882846205378
 30
0.0
  0
VERTEX
  5
26F6
  8
0
 10
234.44973377638399
 20
172.85380828644031
 30
0.0
  0
VERTEX
  5
26F7
  8
0
 10
233.649988243374
 20
173.05198128964739
 30
0.0
  0
VERTEX
  5
26F8
  8
0
 10
232.88109599992291
 20
173.22934895979299
 30
0.0
  0
VERTEX
  5
26F9
  8
0
 10
231.42115492191769
 20
173.52706244496031
 30
0.0
  0
VERTEX
  5
26FA
  8
0
 10
230.04377054120869
 20
173.75591051922149
 30
0.0
  0
VERTEX
  5
26FB
  8
0
 10
228.7269494910461
 20
173.9223884953131
 30
0.0
  0
VERTEX
  5
26FC
  8
0
 10
227.4515558417657
 20
174.0310116821567
 30
0.0
  0
VERTEX
  5
26FD
  8
0
 10
226.2003183295102
 20
174.0846326582915
 30
0.0
  0
VERTEX
  5
26FE
  8
0
 10
225.5786687939808
 20
174.0913033361935
 30
0.0
  0
VERTEX
  5
26FF
  8
0
 10
224.95701925845131
 20
174.0846326582915
 30
0.0
  0
VERTEX
  5
2700
  8
0
 10
223.7057817461959
 20
174.0310116821567
 30
0.0
  0
VERTEX
  5
2701
  8
0
 10
222.43038809691549
 20
173.9223884953131
 30
0.0
  0
VERTEX
  5
2702
  8
0
 10
221.11356704675291
 20
173.75591051922149
 30
0.0
  0
VERTEX
  5
2703
  8
0
 10
219.7361826660439
 20
173.52706244496031
 30
0.0
  0
VERTEX
  5
2704
  8
0
 10
218.27624158803869
 20
173.22934895979299
 30
0.0
  0
VERTEX
  5
2705
  8
0
 10
217.50734934458751
 20
173.05198128964739
 30
0.0
  0
VERTEX
  5
2706
  8
0
 10
216.7076038115776
 20
172.85380828644031
 30
0.0
  0
VERTEX
  5
2707
  8
0
 10
214.99822695458559
 20
172.3882846205378
 30
0.0
  0
VERTEX
  5
2708
  8
0
 10
213.1076778608417
 20
171.8163408356792
 30
0.0
  0
VERTEX
  5
2709
  8
0
 10
212.0786687939808
 20
171.4837654268693
 30
0.0
  0
SEQEND
  5
270A
  8
0
  0
POLYLINE
  5
240C
  8
0
 66
     1
 10
0.0
 20
0.0
 30
0.0
  0
VERTEX
  5
270B
  8
0
 10
215.5786687939808
 20
129.46989557234821
 30
0.0
  0
VERTEX
  5
270C
  8
0
 10
214.99822695458559
 20
129.60002260613959
 30
0.0
  0
VERTEX
  5
270D
  8
0
 10
213.1076778608417
 20
130.07084620345719
 30
0.0
  0
VERTEX
  5
270E
  8
0
 10
212.0786687939808
 20
130.34462197390971
 30
0.0
  0
SEQEND
  5
270F
  8
0
  0
LINE
  5
240D
  8
0
 10
235.5786687939808
 20
127.6223031142011
 30
0.0
 11
237.5786687939808
 21
127.6223031142011
 31
0.0
  0
LINE
  5
240E
  8
0
 10
217.25686805633541
 20
123.122303114201
 30
0.0
 11
213.5786687939808
 21
123.122303114201
 31
0.0
  0
LINE
  5
240F
  8
0
 10
217.25686805633529
 20
123.122303114201
 30
0.0
 11
213.0786687939808
 21
123.122303114201
 31
0.0
  0
LINE
  5
2418
  8
0
 10
321.00890742964162
 20
154.12230311420109
 30
0.0
 11
307.00890742964162
 21
154.12230311420109
 31
0.0
  0
LINE
  5
2419
  8
0
 10
321.00890742964162
 20
168.12230311420109
 30
0.0
 11
307.00890742964162
 21
168.12230311420109
 31
0.0
  0
LINE
  5
241A
  8
0
 10
307.00890742964162
 20
133.12230311420109
 30
0.0
 11
307.00890742964162
 21
177.12230311420109
 31
0.0
  0
LINE
  5
241B
  8
0
 10
300.50890742964162
 20
123.1223031142011
 30
0.0
 11
300.50890742964162
 21
174.09130333619359
 31
0.0
  0
LINE
  5
241C
  8
0
 10
307.00890742964162
 20
177.12230311420109
 30
0.0
 11
300.50890742964162
 21
174.09130333619359
 31
0.0
  0
POLYLINE
  5
2421
  8
0
 66
     1
 10
0.0
 20
0.0
 30
0.0
  0
VERTEX
  5
2710
  8
0
 10
300.50890742964162
 20
171.48376542686941
 30
0.0
  0
VERTEX
  5
2711
  8
0
 10
301.76996556142478
 20
171.8893932764957
 30
0.0
  0
VERTEX
  5
2712
  8
0
 10
304.04661744611059
 20
172.5628032840963
 30
0.0
  0
VERTEX
  5
2713
  8
0
 10
306.07008445054822
 20
173.08349354693109
 30
0.0
  0
VERTEX
  5
2714
  8
0
 10
307.00890742964162
 20
173.29535984474521
 30
0.0
  0
SEQEND
  5
2715
  8
0
  0
LINE
  5
2423
  8
0
 10
321.00890742964162
 20
133.12230311420109
 30
0.0
 11
321.00890742964162
 21
177.12230311420109
 31
0.0
  0
LINE
  5
2424
  8
0
 10
327.50890742964162
 20
128.19809916675419
 30
0.0
 11
327.50890742964162
 21
174.09130333619359
 31
0.0
  0
LINE
  5
2426
  8
1
 10
314.00890742964162
 20
183.83792503596669
 30
0.0
 11
314.00890742964162
 21
98.906681192435485
 31
0.0
  0
LINE
  5
242B
  8
0
 10
321.00890742964162
 20
133.12230311420109
 30
0.0
 11
307.00890742964162
 21
133.12230311420109
 31
0.0
  0
POLYLINE
  5
242D
  8
0
 66
     1
 10
0.0
 20
0.0
 30
0.0
  0
VERTEX
  5
2716
  8
0
 10
327.50890742964162
 20
171.48376542686941
 30
0.0
  0
VERTEX
  5
2717
  8
0
 10
326.24784929785852
 20
171.8893932764957
 30
0.0
  0
VERTEX
  5
2718
  8
0
 10
323.9711974131726
 20
172.5628032840963
 30
0.0
  0
VERTEX
  5
2719
  8
0
 10
321.94773040873508
 20
173.08349354693109
 30
0.0
  0
VERTEX
  5
271A
  8
0
 10
321.00890742964162
 20
173.29535984474521
 30
0.0
  0
SEQEND
  5
271B
  8
0
  0
POLYLINE
  5
242E
  8
0
 66
     1
 10
0.0
 20
0.0
 30
0.0
  0
VERTEX
  5
271C
  8
0
 10
300.50890742964162
 20
130.34462197390971
 30
0.0
  0
VERTEX
  5
271D
  8
0
 10
301.53791649650248
 20
130.07084620345719
 30
0.0
  0
VERTEX
  5
271E
  8
0
 10
303.42846559024639
 20
129.6000226061397
 30
0.0
  0
VERTEX
  5
271F
  8
0
 10
305.13784244723843
 20
129.21680395280501
 30
0.0
  0
VERTEX
  5
2720
  8
0
 10
305.9375879802484
 20
129.05366811894979
 30
0.0
  0
VERTEX
  5
2721
  8
0
 10
306.70648022369949
 20
128.90765921612299
 30
0.0
  0
VERTEX
  5
2722
  8
0
 10
308.1664213017047
 20
128.66258174912849
 30
0.0
  0
VERTEX
  5
2723
  8
0
 10
309.54380568241368
 20
128.47419422501289
 30
0.0
  0
VERTEX
  5
2724
  8
0
 10
310.86062673257629
 20
128.33714970830931
 30
0.0
  0
VERTEX
  5
2725
  8
0
 10
312.13602038185672
 20
128.247731200869
 30
0.0
  0
VERTEX
  5
2726
  8
0
 10
313.38725789411222
 20
128.20359046266401
 30
0.0
  0
VERTEX
  5
2727
  8
0
 10
314.00890742964162
 20
128.19809916675419
 30
0.0
  0
VERTEX
  5
2728
  8
0
 10
314.63055696517108
 20
128.20359046266401
 30
0.0
  0
VERTEX
  5
2729
  8
0
 10
315.88179447742652
 20
128.247731200869
 30
0.0
  0
VERTEX
  5
272A
  8
0
 10
317.15718812670701
 20
128.33714970830931
 30
0.0
  0
VERTEX
  5
272B
  8
0
 10
318.47400917686952
 20
128.47419422501289
 30
0.0
  0
VERTEX
  5
272C
  8
0
 10
319.8513935575786
 20
128.66258174912849
 30
0.0
  0
VERTEX
  5
272D
  8
0
 10
321.31133463558371
 20
128.90765921612299
 30
0.0
  0
VERTEX
  5
272E
  8
0
 10
322.08022687903491
 20
129.05366811894979
 30
0.0
  0
VERTEX
  5
272F
  8
0
 10
322.87997241204488
 20
129.21680395280501
 30
0.0
  0
VERTEX
  5
2730
  8
0
 10
324.5893492690368
 20
129.6000226061397
 30
0.0
  0
VERTEX
  5
2731
  8
0
 10
326.47989836278077
 20
130.07084620345719
 30
0.0
  0
VERTEX
  5
2732
  8
0
 10
327.50890742964162
 20
130.34462197390971
 30
0.0
  0
SEQEND
  5
2733
  8
0
  0
LINE
  5
242F
  8
0
 10
302.00890742964162
 20
127.6223031142011
 30
0.0
 11
326.00890742964162
 21
127.6223031142011
 31
0.0
  0
LINE
  5
2430
  8
0
 10
302.00890742964162
 20
105.1223031142011
 30
0.0
 11
326.00890742964162
 21
105.1223031142011
 31
0.0
  0
LINE
  5
243B
  8
0
 10
321.00890742964162
 20
177.12230311420109
 30
0.0
 11
327.50890742964162
 21
174.09130333619359
 31
0.0
  0
LINE
  5
243C
  8
0
 10
327.50890742964162
 20
128.19809916675419
 30
0.0
 11
326.00890742964162
 21
127.6223031142011
 31
0.0
  0
LINE
  5
243D
  8
0
 10
302.00890742964162
 20
127.6223031142011
 30
0.0
 11
300.50890742964162
 21
128.19809916675419
 31
0.0
  0
LINE
  5
243E
  8
0
 10
326.00890742964162
 20
109.1223031142011
 30
0.0
 11
326.00890742964162
 21
105.1223031142011
 31
0.0
  0
LINE
  5
243F
  8
0
 10
326.00890742964162
 20
127.6223031142011
 30
0.0
 11
326.00890742964162
 21
123.1223031142011
 31
0.0
  0
LINE
  5
2440
  8
0
 10
302.00890742964162
 20
123.1223031142011
 30
0.0
 11
302.00890742964162
 21
127.6223031142011
 31
0.0
  0
LINE
  5
2441
  8
0
 10
302.00890742964162
 20
105.1223031142011
 30
0.0
 11
302.00890742964162
 21
109.1223031142011
 31
0.0
  0
LINE
  5
2442
  8
1
 10
291.29328550787602
 20
161.12230311420109
 30
0.0
 11
336.72452935140723
 21
161.12230311420109
 31
0.0
  0
LINE
  5
2443
  8
0
 10
300.50890742964162
 20
125.1223031142011
 30
0.0
 11
297.50890742964162
 21
125.1223031142011
 31
0.0
  0
POLYLINE
  5
2444
  8
0
 66
     1
 10
0.0
 20
0.0
 30
0.0
  0
VERTEX
  5
2734
  8
0
 10
303.04305132991101
 20
120.3552887438242
 30
0.0
  0
VERTEX
  5
2735
  8
0
 10
303.27873740010517
 20
120.846264007748
 30
0.0
  0
VERTEX
  5
2736
  8
0
 10
303.79615803618378
 20
121.79447122140409
 30
0.0
  0
VERTEX
  5
2737
  8
0
 10
304.37245428285507
 20
122.6931595395818
 30
0.0
  0
VERTEX
  5
2738
  8
0
 10
304.68165528965289
 20
123.1223031142011
 30
0.0
  0
SEQEND
  5
2739
  8
0
  0
LINE
  5
2445
  8
0
 10
298.10478422593872
 20
120.3552887438242
 30
0.0
 11
303.04305132991101
 21
120.3552887438242
 31
0.0
  0
LINE
  5
2446
  8
0
 10
326.50890742964162
 20
109.1223031142011
 30
0.0
 11
319.00890742964231
 21
109.1223031142011
 31
0.0
  0
LINE
  5
2448
  8
0
 10
299.50890742964162
 20
109.1223031142011
 30
0.0
 11
297.50890742964162
 21
125.1223031142011
 31
0.0
  0
LINE
  5
2449
  8
0
 10
297.50890742964162
 20
125.1223031142011
 30
0.0
 11
297.50890742964162
 21
171.12230311420109
 31
0.0
  0
LINE
  5
244A
  8
0
 10
303.04305132991101
 20
109.1223031142011
 30
0.0
 11
303.04305132991101
 21
120.3552887438242
 31
0.0
  0
LINE
  5
244B
  8
0
 10
331.50890742964162
 20
155.62230311420109
 30
0.0
 11
331.50890742964162
 21
166.62230311420109
 31
0.0
  0
LINE
  5
244C
  8
0
 10
330.00890742964162
 20
154.12230311420109
 30
0.0
 11
330.00890742964162
 21
168.12230311420109
 31
0.0
  0
LINE
  5
244D
  8
0
 10
326.50890742964162
 20
123.1223031142011
 30
0.0
 11
319.00890742964231
 21
123.1223031142011
 31
0.0
  0
LINE
  5
244E
  8
0
 10
330.00890742964162
 20
168.12230311420109
 30
0.0
 11
331.50890742964162
 21
166.62230311420109
 31
0.0
  0
LINE
  5
244F
  8
0
 10
331.50890742964162
 20
155.62230311420109
 30
0.0
 11
330.00890742964162
 21
154.12230311420109
 31
0.0
  0
LINE
  5
2450
  8
0
 10
327.50890742964162
 20
168.12230311420109
 30
0.0
 11
330.00890742964162
 21
168.12230311420109
 31
0.0
  0
LINE
  5
2451
  8
0
 10
330.00890742964162
 20
154.12230311420109
 30
0.0
 11
327.50890742964162
 21
154.12230311420109
 31
0.0
  0
LINE
  5
2452
  8
0
 10
297.50890742964162
 20
171.12230311420109
 30
0.0
 11
300.50890742964162
 21
171.12230311420109
 31
0.0
  0
LINE
  5
2453
  8
0
 10
326.50890742964162
 20
123.1223031142011
 30
0.0
 11
326.50890742964162
 21
109.1223031142011
 31
0.0
  0
LINE
  5
2481
  8
1
 10
137.14843015832059
 20
257.92168350035831
 30
0.0
 11
137.14843015832059
 21
212.49043965682711
 31
0.0
  0
LINE
  5
2482
  8
1
 10
159.8640520800862
 20
235.20606157859271
 30
0.0
 11
114.432808236555
 21
235.20606157859271
 31
0.0
  0
LINE
  5
248C
  8
0
 10
123.64843015832059
 20
248.70606157859271
 30
0.0
 11
150.64843015832059
 21
248.70606157859271
 31
0.0
  0
LINE
  5
248D
  8
0
 10
123.64843015832059
 20
248.70606157859271
 30
0.0
 11
123.64843015832059
 21
221.7060615785928
 31
0.0
  0
LINE
  5
24A8
  8
0
 10
123.64843015832059
 20
33.538544649809438
 30
0.0
 11
123.64843015832059
 21
60.538544649809431
 31
0.0
  0
LINE
  5
24A9
  8
0
 10
123.64843015832059
 20
33.538544649809438
 30
0.0
 11
150.64843015832059
 21
33.538544649809438
 31
0.0
  0
LINE
  5
24AA
  8
1
 10
159.8640520800862
 20
47.03854464980941
 30
0.0
 11
114.432808236555
 21
47.03854464980941
 31
0.0
  0
LINE
  5
24AB
  8
1
 10
137.14843015832059
 20
24.322922728043839
 30
0.0
 11
137.14843015832059
 21
69.754166571575013
 31
0.0
  0
LINE
  5
24AC
  8
0
 10
121.14843015832059
 20
54.03854464980941
 30
0.0
 11
123.64843015832059
 21
54.03854464980941
 31
0.0
  0
LINE
  5
24B3
  8
0
 10
123.64843015832059
 20
40.03854464980941
 30
0.0
 11
121.14843015832059
 21
40.03854464980941
 31
0.0
  0
LINE
  5
24B4
  8
0
 10
119.64843015832059
 20
52.53854464980941
 30
0.0
 11
121.14843015832059
 21
54.03854464980941
 31
0.0
  0
LINE
  5
24B5
  8
0
 10
121.14843015832059
 20
40.03854464980941
 30
0.0
 11
119.64843015832059
 21
41.538544649809403
 31
0.0
  0
LINE
  5
24B6
  8
0
 10
130.64843015832059
 20
33.538544649809438
 30
0.0
 11
130.64843015832059
 21
36.361466397778123
 31
0.0
  0
LINE
  5
24B7
  8
0
 10
131.14843015832059
 20
36.646239804396181
 30
0.0
 11
131.14843015832059
 21
33.538544649809438
 31
0.0
  0
LINE
  5
24B8
  8
0
 10
142.14843015832059
 20
33.538544649809438
 30
0.0
 11
142.14843015832059
 21
36.12983253517374
 31
0.0
  0
LINE
  5
24B9
  8
0
 10
142.64843015832059
 20
35.813572489487598
 30
0.0
 11
142.64843015832059
 21
33.538544649809438
 31
0.0
  0
LINE
  5
24BA
  8
0
 10
121.14843015832059
 20
40.03854464980941
 30
0.0
 11
121.14843015832059
 21
54.03854464980941
 31
0.0
  0
LINE
  5
24BB
  8
0
 10
119.64843015832059
 20
41.538544649809403
 30
0.0
 11
119.64843015832059
 21
52.53854464980941
 31
0.0
  0
LINE
  5
24BC
  8
0
 10
153.64843015832059
 20
37.038544649809438
 30
0.0
 11
153.64843015832059
 21
57.038544649809438
 31
0.0
  0
ARC
  5
24C1
  8
0
 10
137.14843015832059
 20
47.03854464980941
 30
0.0
 40
12.499999999999989
 50
28.68540201411836
 51
238.66774850240549
  0
LINE
  5
24C2
  8
0
 10
151.64843015832059
 20
41.038544649809431
 30
0.0
 11
151.64843015832059
 21
53.038544649809431
 31
0.0
  0
ARC
  5
24C3
  8
0
 10
137.14843015832059
 20
47.03854464980941
 30
0.0
 40
12.5
 50
296.10388113733939
 51
331.31459798588168
  0
LINE
  5
24C4
  8
0
 10
153.0525533620235
 20
53.038544649809431
 30
0.0
 11
153.64843015832059
 21
57.038544649809438
 31
0.0
  0
LINE
  5
24C5
  8
0
 10
153.0525533620235
 20
53.038544649809431
 30
0.0
 11
148.11428625805129
 21
53.038544649809431
 31
0.0
  0
LINE
  5
24C7
  8
0
 10
150.64843015832059
 20
55.360345387454892
 30
0.0
 11
146.47568229830929
 21
55.360345387454892
 31
0.0
  0
LINE
  5
24C8
  8
0
 10
153.64843015832059
 20
57.038544649809438
 30
0.0
 11
150.64843015832059
 21
57.038544649809438
 31
0.0
  0
CIRCLE
  5
24D1
  8
0
 10
137.14843015832059
 20
47.03854464980941
 30
0.0
 40
12.0
  0
CIRCLE
  5
24DE
  8
0
 10
137.14843015832059
 20
47.03854464980941
 30
0.0
 40
6.458499999999999
  0
LINE
  5
24E2
  8
0
 10
150.64843015832059
 20
248.70606157859271
 30
0.0
 11
150.64843015832059
 21
221.70606157859271
 31
0.0
  0
LINE
  5
24E3
  8
2
 10
130.14843015832059
 20
242.20606157859271
 30
0.0
 11
123.64843015832059
 21
242.20606157859271
 31
0.0
  0
LINE
  5
24E4
  8
2
 10
130.14843015832059
 20
228.20606157859271
 30
0.0
 11
123.64843015832059
 21
228.20606157859271
 31
0.0
  0
LINE
  5
24E5
  8
2
 10
144.14843015832059
 20
242.20606157859271
 30
0.0
 11
150.64843015832059
 21
242.20606157859271
 31
0.0
  0
LINE
  5
24E6
  8
2
 10
144.14843015832059
 20
228.20606157859271
 30
0.0
 11
150.64843015832059
 21
228.20606157859271
 31
0.0
  0
LINE
  5
24E7
  8
0
 10
123.64843015832059
 20
221.7060615785928
 30
0.0
 11
150.64843015832059
 21
221.7060615785928
 31
0.0
  0
LINE
  5
24E8
  8
0
 10
144.14843015832059
 20
248.70606157859271
 30
0.0
 11
144.14843015832059
 21
221.70606157859271
 31
0.0
  0
LINE
  5
24E9
  8
0
 10
130.14843015832059
 20
248.70606157859271
 30
0.0
 11
130.14843015832059
 21
221.70606157859271
 31
0.0
  0
LINE
  5
250C
  8
0
 10
123.64843015832059
 20
60.538544649809431
 30
0.0
 11
150.64843015832059
 21
60.538544649809431
 31
0.0
  0
CIRCLE
  5
250D
  8
3
 10
137.14843015832059
 20
47.03854464980941
 30
0.0
 40
7.0000000000000142
  0
LINE
  5
2511
  8
0
 10
150.64843015832059
 20
60.538544649809431
 30
0.0
 11
150.64843015832059
 21
55.360345387454892
 31
0.0
  0
LINE
  5
2512
  8
0
 10
150.64843015832051
 20
33.538544649809467
 30
0.0
 11
150.64843015832051
 21
38.71674391216402
 31
0.0
  0
LINE
  5
2513
  8
0
 10
153.64843015832051
 20
37.038544649809438
 30
0.0
 11
150.64843015832051
 21
37.038544649809467
 31
0.0
  0
LINE
  5
2514
  8
0
 10
150.64843015832051
 20
38.71674391216402
 30
0.0
 11
146.47568229830921
 21
38.716743912164048
 31
0.0
  0
LINE
  5
2515
  8
0
 10
153.0525533620235
 20
41.038544649809438
 30
0.0
 11
148.11428625805121
 21
41.038544649809481
 31
0.0
  0
LINE
  5
2516
  8
0
 10
153.0525533620235
 20
41.038544649809438
 30
0.0
 11
153.64843015832051
 21
37.038544649809438
 31
0.0
  0
LINE
  5
2543
  8
0
 10
319.50890742964231
 20
109.1223031142011
 30
0.0
 11
319.50890742964231
 21
123.1223031142011
 31
0.0
  0
LINE
  5
2544
  8
0
 10
319.00890742964231
 20
109.1223031142011
 30
0.0
 11
319.00890742964231
 21
123.1223031142011
 31
0.0
  0
LINE
  5
2545
  8
0
 10
308.00890742964219
 20
109.1223031142011
 30
0.0
 11
308.00890742964219
 21
123.1223031142011
 31
0.0
  0
LINE
  5
2546
  8
0
 10
307.50890742964219
 20
109.1223031142011
 30
0.0
 11
307.50890742964219
 21
123.1223031142011
 31
0.0
  0
LINE
  5
2547
  8
0
 10
308.00890742964231
 20
123.1223031142011
 30
0.0
 11
300.50890742964162
 21
123.1223031142011
 31
0.0
  0
LINE
  5
2548
  8
0
 10
308.00890742964219
 20
109.1223031142011
 30
0.0
 11
299.50890742964162
 21
109.1223031142011
 31
0.0
  0
TEXT
  5
2609
  8
0
 62
     3
 10
0.0
 20
0.0
 30
0.0
 40
10.0
  1
CJC14-M14
  7
STANDARD1
  0
ENDSEC
  0
EOF
