  0
SECTION
  2
HEADER
  9
$ACADVER
  1
AC1009
  9
$INSBASE
 10
0.0
 20
0.0
 30
0.0
  9
$EXTMIN
 10
0.0
 20
-2.960436562073669
 30
-8.0
  9
$EXTMAX
 10
153.6000460895051
 20
169.17112194960441
 30
0.0
  9
$LIMMIN
 10
0.0
 20
0.0
  9
$LIMMAX
 10
187.5
 20
135.0
  9
$ORTHOMODE
 70
     1
  9
$REGENMODE
 70
     1
  9
$FILLMODE
 70
     1
  9
$QTEXTMODE
 70
     0
  9
$MIRRTEXT
 70
     0
  9
$DRAGMODE
 70
     2
  9
$LTSCALE
 40
5.0
  9
$OSMODE
 70
  3071
  9
$ATTMODE
 70
     1
  9
$TEXTSIZE
 40
0.06
  9
$TRACEWID
 40
0.05
  9
$TEXTSTYLE
  7
STANDARD
  9
$CLAYER
  8
0
  9
$CELTYPE
  6
BYLAYER
  9
$CECOLOR
 62
   256
  9
$DIMSCALE
 40
0.5
  9
$DIMASZ
 40
3.0
  9
$DIMEXO
 40
2.0
  9
$DIMDLI
 40
10.0
  9
$DIMRND
 40
0.0
  9
$DIMDLE
 40
0.0
  9
$DIMEXE
 40
2.0
  9
$DIMTP
 40
0.0
  9
$DIMTM
 40
0.0
  9
$DIMTXT
 40
3.0
  9
$DIMCEN
 40
0.0
  9
$DIMTSZ
 40
0.0
  9
$DIMTOL
 70
     0
  9
$DIMLIM
 70
     0
  9
$DIMTIH
 70
     0
  9
$DIMTOH
 70
     0
  9
$DIMSE1
 70
     0
  9
$DIMSE2
 70
     0
  9
$DIMTAD
 70
     1
  9
$DIMZIN
 70
     8
  9
$DIMBLK
  1

  9
$DIMASO
 70
     0
  9
$DIMSHO
 70
     0
  9
$DIMPOST
  1

  9
$DIMAPOST
  1

  9
$DIMALT
 70
     0
  9
$DIMALTD
 70
     2
  9
$DIMALTF
 40
25.399999999999999
  9
$DIMLFAC
 40
1.0
  9
$DIMTOFL
 70
     1
  9
$DIMTVP
 40
1.6000000000000001
  9
$DIMTIX
 70
     1
  9
$DIMSOXD
 70
     0
  9
$DIMSAH
 70
     0
  9
$DIMBLK1
  1

  9
$DIMBLK2
  1

  9
$DIMSTYLE
  2
STANDARD
  9
$DIMCLRD
 70
     0
  9
$DIMCLRE
 70
     0
  9
$DIMCLRT
 70
     0
  9
$DIMTFAC
 40
1.0
  9
$DIMGAP
 40
0.09
  9
$LUNITS
 70
     2
  9
$LUPREC
 70
     4
  9
$SKETCHINC
 40
0.1
  9
$FILLETRAD
 40
0.4
  9
$AUNITS
 70
     0
  9
$AUPREC
 70
     4
  9
$MENU
  1
E:\r13\win\SUPPORT\ACAD
  9
$ELEVATION
 40
0.0
  9
$PELEVATION
 40
0.0
  9
$THICKNESS
 40
0.0
  9
$LIMCHECK
 70
     0
  9
$BLIPMODE
 70
     0
  9
$CHAMFERA
 40
0.0
  9
$CHAMFERB
 40
0.0
  9
$SKPOLY
 70
     0
  9
$TDCREATE
 40
2449840.5914699072
  9
$TDUPDATE
 40
2456598.5895245601
  9
$TDINDWG
 40
0.2924233912
  9
$TDUSRTIMER
 40
0.2924233912
  9
$USRTIMER
 70
     1
  9
$ANGBASE
 50
0.0
  9
$ANGDIR
 70
     0
  9
$PDMODE
 70
     0
  9
$PDSIZE
 40
0.0
  9
$PLINEWID
 40
0.0
  9
$COORDS
 70
     1
  9
$SPLFRAME
 70
     0
  9
$SPLINETYPE
 70
     6
  9
$SPLINESEGS
 70
     8
  9
$ATTDIA
 70
     0
  9
$ATTREQ
 70
     1
  9
$HANDLING
 70
     1
  9
$HANDSEED
  5
1D16
  9
$SURFTAB1
 70
     6
  9
$SURFTAB2
 70
     6
  9
$SURFTYPE
 70
     6
  9
$SURFU
 70
     6
  9
$SURFV
 70
     6
  9
$UCSNAME
  2

  9
$UCSORG
 10
0.0
 20
0.0
 30
0.0
  9
$UCSXDIR
 10
1.0
 20
0.0
 30
0.0
  9
$UCSYDIR
 10
0.0
 20
1.0
 30
0.0
  9
$PUCSNAME
  2

  9
$PUCSORG
 10
0.0
 20
0.0
 30
0.0
  9
$PUCSXDIR
 10
1.0
 20
0.0
 30
0.0
  9
$PUCSYDIR
 10
0.0
 20
1.0
 30
0.0
  9
$USERI1
 70
     3
  9
$USERI2
 70
     1
  9
$USERI3
 70
     0
  9
$USERI4
 70
     0
  9
$USERI5
 70
     0
  9
$USERR1
 40
0.5
  9
$USERR2
 40
3.0
  9
$USERR3
 40
3.0
  9
$USERR4
 40
3.0
  9
$USERR5
 40
10.0
  9
$WORLDVIEW
 70
     1
  9
$SHADEDGE
 70
     3
  9
$SHADEDIF
 70
    70
  9
$TILEMODE
 70
     1
  9
$MAXACTVP
 70
    16
  9
$PLIMCHECK
 70
     0
  9
$PEXTMIN
 10
1.0000000000000000E+020
 20
1.0000000000000000E+020
 30
1.0000000000000000E+020
  9
$PEXTMAX
 10
-1.0000000000000000E+020
 20
-1.0000000000000000E+020
 30
-1.0000000000000000E+020
  9
$PLIMMIN
 10
0.0
 20
0.0
  9
$PLIMMAX
 10
12.0
 20
9.0
  9
$UNITMODE
 70
     0
  9
$VISRETAIN
 70
     0
  9
$PLINEGEN
 70
     0
  9
$PSLTSCALE
 70
     0
  0
ENDSEC
  0
SECTION
  2
TABLES
  0
TABLE
  2
VPORT
 70
     1
  0
VPORT
  2
*ACTIVE
 70
     0
 10
0.0
 20
0.0
 11
1.0
 21
1.0
 12
98.516872047804085
 22
83.10774051558235
 13
0.0
 23
0.0
 14
5.0
 24
5.0
 15
10.0
 25
10.0
 16
0.0
 26
0.0
 36
1.0
 17
0.0
 27
0.0
 37
0.0
 40
173.6809194366744
 41
1.831871345029239
 42
50.0
 43
0.0
 44
0.0
 50
0.0
 51
0.0
 71
     0
 72
   100
 73
     1
 74
     0
 75
     0
 76
     0
 77
     0
 78
     0
  0
ENDTAB
  0
TABLE
  2
LTYPE
 70
     4
  0
LTYPE
  2
CONTINUOUS
 70
     0
  3
Solid Line
 72
    65
 73
     0
 40
0.0
  0
LTYPE
  2
CENTER
 70
     0
  3
____ _ ____ _ ____ _ ____ _ ____ _ ____ _ ____
 72
    65
 73
     4
 40
2.0
 49
1.25
 49
-0.25
 49
0.25
 49
-0.25
  0
LTYPE
  2
HIDDEN
 70
     0
  3
_ _ _ _ _ _ _ _ _ _ _ _ _ _ _ _ _ _ _ _ _ _ _
 72
    65
 73
     2
 40
0.375
 49
0.25
 49
-0.125
  0
LTYPE
  2
PHANTOM2
 70
     0
  3
___ _ _ ___ _ _ ___ _ _ ___ _ _
 72
    65
 73
     6
 40
1.25
 49
0.625
 49
-0.125
 49
0.125
 49
-0.125
 49
0.125
 49
-0.125
  0
ENDTAB
  0
TABLE
  2
LAYER
 70
     4
  0
LAYER
  2
0
 70
     0
 62
     7
  6
CONTINUOUS
  0
LAYER
  2
1
 70
     0
 62
     1
  6
CENTER
  0
LAYER
  2
2
 70
     0
 62
     2
  6
HIDDEN
  0
LAYER
  2
3
 70
     0
 62
     3
  6
CONTINUOUS
  0
ENDTAB
  0
TABLE
  2
STYLE
 70
     2
  0
STYLE
  2
STANDARD
 70
     0
 40
0.0
 41
1.0
 50
0.0
 71
     0
 42
0.06
  3
TXT
  4
BIGFONT
  0
STYLE
  2
STANDARD1
 70
     0
 40
0.0
 41
1.0
 50
0.0
 71
     0
 42
3.0
  3
txt
  4

  0
ENDTAB
  0
TABLE
  2
VIEW
 70
     2
  0
VIEW
  2
OLE1
 70
     0
 40
24.514257897662329
 10
44.901529473115893
 20
103.25177669290009
 41
34.172454060781448
 11
0.0
 21
0.0
 31
1.0
 12
0.0
 22
0.0
 32
0.0
 42
50.0
 43
0.0
 44
0.0
 50
0.0
 71
     0
  0
VIEW
  2
OLE2
 70
     0
 40
111.8251716252055
 10
23.153306359535989
 20
84.753742215946431
 41
155.8823667497492
 11
0.0
 21
0.0
 31
1.0
 12
0.0
 22
0.0
 32
0.0
 42
50.0
 43
0.0
 44
0.0
 50
0.0
 71
     0
  0
ENDTAB
  0
TABLE
  2
UCS
 70
     0
  0
ENDTAB
  0
TABLE
  2
APPID
 70
     3
  0
APPID
  2
ACAD
 70
     0
  0
APPID
  2
ACAD_MLEADERVER
 70
     0
  0
APPID
  2
ACAD_NAV_VCDISPLAY
 70
     0
  0
ENDTAB
  0
TABLE
  2
DIMSTYLE
 70
     1
  0
DIMSTYLE
  2
STANDARD
 70
     0
  3

  4

  5

  6

  7

 40
1.0
 41
0.18
 42
0.0625
 43
0.38
 44
0.18
 45
0.0
 46
0.0
 47
0.0
 48
0.0
140
0.18
141
0.09
142
0.0
143
25.399999999999999
144
1.0
145
0.0
146
1.0
147
0.09
 71
     0
 72
     0
 73
     1
 74
     1
 75
     0
 76
     0
 77
     0
 78
     0
170
     0
171
     2
172
     0
173
     0
174
     0
175
     0
176
     0
177
     0
178
     0
  0
ENDTAB
  0
ENDSEC
  0
SECTION
  2
BLOCKS
  0
BLOCK
  8
0
  2
$MODEL_SPACE
 70
     0
 10
0.0
 20
0.0
 30
0.0
  3
$MODEL_SPACE
  1

  0
ENDBLK
  5
E6
  8
0
  0
BLOCK
 67
     1
  8
0
  2
$PAPER_SPACE
 70
     0
 10
0.0
 20
0.0
 30
0.0
  3
$PAPER_SPACE
  1

  0
ENDBLK
  5
E4
 67
     1
  8
0
  0
ENDSEC
  0
SECTION
  2
ENTITIES
  0
LINE
  5
EC0
  8
0
 10
79.791762243584316
 20
95.360323891283556
 30
0.0
 11
87.791762243584316
 21
95.360323891283556
 31
0.0
  0
LINE
  5
EC3
  8
0
 10
87.791762243584316
 20
103.3603238912835
 30
0.0
 11
79.791762243584316
 21
103.3603238912835
 31
0.0
  0
LINE
  5
EDE
  8
1
 10
97.758411417411438
 20
99.360323891283571
 30
0.0
 11
69.825113069757194
 21
99.360323891283571
 31
0.0
  0
LINE
  5
EE6
  8
0
 10
90.791762243584316
 20
79.360323891283542
 30
0.0
 11
91.791762243584316
 21
79.744187926318958
 31
0.0
  0
LINE
  5
EE7
  8
0
 10
75.791762243584316
 20
79.744187926318958
 30
0.0
 11
76.791762243584316
 21
79.360323891283542
 31
0.0
  0
LINE
  5
EE8
  8
0
 10
79.791762243584316
 20
109.3603238912835
 30
0.0
 11
75.791762243584316
 21
107.4950932586635
 31
0.0
  0
LINE
  5
EF7
  8
0
 10
90.791762243584316
 20
67.360323891283556
 30
0.0
 11
76.791762243584316
 21
67.360323891283556
 31
0.0
  0
POLYLINE
  5
EFA
  8
0
 66
     1
 10
0.0
 20
0.0
 30
0.0
  0
VERTEX
  5
1BA6
  8
0
 10
87.791762243584316
 20
107.0547720356503
 30
0.0
  0
VERTEX
  5
1BA7
  8
0
 10
87.791762243584316
 20
108.0135718731463
 30
0.0
  0
VERTEX
  5
1BA8
  8
0
 10
87.791762243584316
 20
108.6712759623026
 30
0.0
  0
VERTEX
  5
1BA9
  8
0
 10
87.791762243584316
 20
108.80302409628921
 30
0.0
  0
VERTEX
  5
1BAA
  8
0
 10
87.791762243584316
 20
108.9161586764329
 30
0.0
  0
VERTEX
  5
1BAB
  8
0
 10
87.791762243584316
 20
108.9664886166461
 30
0.0
  0
VERTEX
  5
1BAC
  8
0
 10
87.791762243584316
 20
109.0129936677862
 30
0.0
  0
VERTEX
  5
1BAD
  8
0
 10
87.791762243584316
 20
109.09537402064539
 30
0.0
  0
VERTEX
  5
1BAE
  8
0
 10
87.791762243584316
 20
109.1647738231807
 30
0.0
  0
VERTEX
  5
1BAF
  8
0
 10
87.791762243584316
 20
109.2223686134644
 30
0.0
  0
VERTEX
  5
1BB0
  8
0
 10
87.791762243584316
 20
109.26908901430519
 30
0.0
  0
VERTEX
  5
1BB1
  8
0
 10
87.791762243584316
 20
109.3056605749354
 30
0.0
  0
VERTEX
  5
1BB2
  8
0
 10
87.791762243584316
 20
109.32031861165309
 30
0.0
  0
VERTEX
  5
1BB3
  8
0
 10
87.791762243584316
 20
109.3326331829693
 30
0.0
  0
VERTEX
  5
1BB4
  8
0
 10
87.791762243584316
 20
109.35040236980019
 30
0.0
  0
VERTEX
  5
1BB5
  8
0
 10
87.791762243584316
 20
109.3592241000085
 30
0.0
  0
VERTEX
  5
1BB6
  8
0
 10
87.791762243584316
 20
109.3603238912835
 30
0.0
  0
SEQEND
  5
1BB7
  8
0
  0
POLYLINE
  5
EFB
  8
0
 66
     1
 10
0.0
 20
0.0
 30
0.0
  0
VERTEX
  5
1BB8
  8
0
 10
87.791762243584316
 20
109.3603238912835
 30
0.0
  0
VERTEX
  5
1BB9
  8
0
 10
87.791762243584316
 20
109.3592241000085
 30
0.0
  0
VERTEX
  5
1BBA
  8
0
 10
87.791762243584316
 20
109.35040236980019
 30
0.0
  0
VERTEX
  5
1BBB
  8
0
 10
87.791762243584316
 20
109.3326331829693
 30
0.0
  0
VERTEX
  5
1BBC
  8
0
 10
87.791762243584316
 20
109.32031861165309
 30
0.0
  0
VERTEX
  5
1BBD
  8
0
 10
87.791762243584316
 20
109.3056605749354
 30
0.0
  0
VERTEX
  5
1BBE
  8
0
 10
87.791762243584316
 20
109.26908901430519
 30
0.0
  0
VERTEX
  5
1BBF
  8
0
 10
87.791762243584316
 20
109.2223686134644
 30
0.0
  0
VERTEX
  5
1BC0
  8
0
 10
87.791762243584316
 20
109.1647738231807
 30
0.0
  0
VERTEX
  5
1BC1
  8
0
 10
87.791762243584316
 20
109.09537402064539
 30
0.0
  0
VERTEX
  5
1BC2
  8
0
 10
87.791762243584316
 20
109.0129936677862
 30
0.0
  0
VERTEX
  5
1BC3
  8
0
 10
87.791762243584316
 20
108.9664886166461
 30
0.0
  0
VERTEX
  5
1BC4
  8
0
 10
87.791762243584316
 20
108.9161586764329
 30
0.0
  0
VERTEX
  5
1BC5
  8
0
 10
87.791762243584316
 20
108.80302409628921
 30
0.0
  0
VERTEX
  5
1BC6
  8
0
 10
87.791762243584316
 20
108.6712759623026
 30
0.0
  0
VERTEX
  5
1BC7
  8
0
 10
87.791762243584316
 20
108.5179966390038
 30
0.0
  0
VERTEX
  5
1BC8
  8
0
 10
87.791762243584316
 20
108.33947749653539
 30
0.0
  0
VERTEX
  5
1BC9
  8
0
 10
87.791762243584316
 20
108.130953873387
 30
0.0
  0
VERTEX
  5
1BCA
  8
0
 10
87.791762243584316
 20
108.0135718731463
 30
0.0
  0
VERTEX
  5
1BCB
  8
0
 10
87.791762243584316
 20
107.8862225434696
 30
0.0
  0
VERTEX
  5
1BCC
  8
0
 10
87.791762243584316
 20
107.59707666835421
 30
0.0
  0
VERTEX
  5
1BCD
  8
0
 10
87.791762243584316
 20
107.2524484455914
 30
0.0
  0
VERTEX
  5
1BCE
  8
0
 10
87.791762243584316
 20
107.0547720356503
 30
0.0
  0
SEQEND
  5
1BCF
  8
0
  0
LINE
  5
EFE
  8
0
 10
90.791762243584316
 20
79.360323891283542
 30
0.0
 11
76.791762243584316
 21
79.360323891283542
 31
0.0
  0
POLYLINE
  5
F01
  8
0
 66
     1
 10
0.0
 20
0.0
 30
0.0
  0
VERTEX
  5
1BD0
  8
0
 10
79.791762243584316
 20
107.0547720356503
 30
0.0
  0
VERTEX
  5
1BD1
  8
0
 10
79.791762243584316
 20
108.0135718731463
 30
0.0
  0
VERTEX
  5
1BD2
  8
0
 10
79.791762243584316
 20
108.6712759623026
 30
0.0
  0
VERTEX
  5
1BD3
  8
0
 10
79.791762243584316
 20
108.80302409628921
 30
0.0
  0
VERTEX
  5
1BD4
  8
0
 10
79.791762243584316
 20
108.9161586764329
 30
0.0
  0
VERTEX
  5
1BD5
  8
0
 10
79.791762243584316
 20
108.9664886166461
 30
0.0
  0
VERTEX
  5
1BD6
  8
0
 10
79.791762243584316
 20
109.0129936677862
 30
0.0
  0
VERTEX
  5
1BD7
  8
0
 10
79.791762243584316
 20
109.09537402064539
 30
0.0
  0
VERTEX
  5
1BD8
  8
0
 10
79.791762243584316
 20
109.1647738231807
 30
0.0
  0
VERTEX
  5
1BD9
  8
0
 10
79.791762243584316
 20
109.2223686134644
 30
0.0
  0
VERTEX
  5
1BDA
  8
0
 10
79.791762243584316
 20
109.26908901430519
 30
0.0
  0
VERTEX
  5
1BDB
  8
0
 10
79.791762243584316
 20
109.3056605749354
 30
0.0
  0
VERTEX
  5
1BDC
  8
0
 10
79.791762243584316
 20
109.32031861165309
 30
0.0
  0
VERTEX
  5
1BDD
  8
0
 10
79.791762243584316
 20
109.3326331829693
 30
0.0
  0
VERTEX
  5
1BDE
  8
0
 10
79.791762243584316
 20
109.35040236980019
 30
0.0
  0
VERTEX
  5
1BDF
  8
0
 10
79.791762243584316
 20
109.3592241000085
 30
0.0
  0
VERTEX
  5
1BE0
  8
0
 10
79.791762243584316
 20
109.3603238912835
 30
0.0
  0
SEQEND
  5
1BE1
  8
0
  0
POLYLINE
  5
F02
  8
0
 66
     1
 10
0.0
 20
0.0
 30
0.0
  0
VERTEX
  5
1BE2
  8
0
 10
79.791762243584316
 20
109.3603238912835
 30
0.0
  0
VERTEX
  5
1BE3
  8
0
 10
79.791762243584316
 20
109.3592241000085
 30
0.0
  0
VERTEX
  5
1BE4
  8
0
 10
79.791762243584316
 20
109.35040236980019
 30
0.0
  0
VERTEX
  5
1BE5
  8
0
 10
79.791762243584316
 20
109.3326331829693
 30
0.0
  0
VERTEX
  5
1BE6
  8
0
 10
79.791762243584316
 20
109.32031861165309
 30
0.0
  0
VERTEX
  5
1BE7
  8
0
 10
79.791762243584316
 20
109.3056605749354
 30
0.0
  0
VERTEX
  5
1BE8
  8
0
 10
79.791762243584316
 20
109.26908901430519
 30
0.0
  0
VERTEX
  5
1BE9
  8
0
 10
79.791762243584316
 20
109.2223686134644
 30
0.0
  0
VERTEX
  5
1BEA
  8
0
 10
79.791762243584316
 20
109.1647738231807
 30
0.0
  0
VERTEX
  5
1BEB
  8
0
 10
79.791762243584316
 20
109.09537402064539
 30
0.0
  0
VERTEX
  5
1BEC
  8
0
 10
79.791762243584316
 20
109.0129936677862
 30
0.0
  0
VERTEX
  5
1BED
  8
0
 10
79.791762243584316
 20
108.9664886166461
 30
0.0
  0
VERTEX
  5
1BEE
  8
0
 10
79.791762243584316
 20
108.9161586764329
 30
0.0
  0
VERTEX
  5
1BEF
  8
0
 10
79.791762243584316
 20
108.80302409628921
 30
0.0
  0
VERTEX
  5
1BF0
  8
0
 10
79.791762243584316
 20
108.6712759623026
 30
0.0
  0
VERTEX
  5
1BF1
  8
0
 10
79.791762243584316
 20
108.5179966390038
 30
0.0
  0
VERTEX
  5
1BF2
  8
0
 10
79.791762243584316
 20
108.33947749653539
 30
0.0
  0
VERTEX
  5
1BF3
  8
0
 10
79.791762243584316
 20
108.130953873387
 30
0.0
  0
VERTEX
  5
1BF4
  8
0
 10
79.791762243584316
 20
108.0135718731463
 30
0.0
  0
VERTEX
  5
1BF5
  8
0
 10
79.791762243584316
 20
107.8862225434696
 30
0.0
  0
VERTEX
  5
1BF6
  8
0
 10
79.791762243584316
 20
107.59707666835421
 30
0.0
  0
VERTEX
  5
1BF7
  8
0
 10
79.791762243584316
 20
107.2524484455914
 30
0.0
  0
VERTEX
  5
1BF8
  8
0
 10
79.791762243584316
 20
107.0547720356503
 30
0.0
  0
SEQEND
  5
1BF9
  8
0
  0
POLYLINE
  5
F05
  8
0
 66
     1
 10
0.0
 20
0.0
 30
0.0
  0
VERTEX
  5
1BFA
  8
0
 10
91.791762243584316
 20
81.016201441670404
 30
0.0
  0
VERTEX
  5
1BFB
  8
0
 10
91.181979092851947
 20
80.853963948068881
 30
0.0
  0
VERTEX
  5
1BFC
  8
0
 10
90.061653703966627
 20
80.574957371880728
 30
0.0
  0
VERTEX
  5
1BFD
  8
0
 10
89.048689640564035
 20
80.347864836571276
 30
0.0
  0
VERTEX
  5
1BFE
  8
0
 10
88.574766361743244
 20
80.251191749842278
 30
0.0
  0
VERTEX
  5
1BFF
  8
0
 10
88.119126513772216
 20
80.164667955574572
 30
0.0
  0
VERTEX
  5
1C00
  8
0
 10
87.253976245324736
 20
80.019436864022254
 30
0.0
  0
VERTEX
  5
1C01
  8
0
 10
86.437748464163803
 20
79.907799812694464
 30
0.0
  0
VERTEX
  5
1C02
  8
0
 10
85.657410064067435
 20
79.826588247240508
 30
0.0
  0
VERTEX
  5
1C03
  8
0
 10
84.901621234864265
 20
79.773599502090676
 30
0.0
  0
VERTEX
  5
1C04
  8
0
 10
84.160147153527674
 20
79.747442027598808
 30
0.0
  0
VERTEX
  5
1C05
  8
0
 10
83.791762243584316
 20
79.744187926318958
 30
0.0
  0
VERTEX
  5
1C06
  8
0
 10
83.423377333640957
 20
79.747442027598808
 30
0.0
  0
VERTEX
  5
1C07
  8
0
 10
82.68190325230438
 20
79.773599502090676
 30
0.0
  0
VERTEX
  5
1C08
  8
0
 10
81.926114423101183
 20
79.826588247240508
 30
0.0
  0
VERTEX
  5
1C09
  8
0
 10
81.145776023004828
 20
79.907799812694464
 30
0.0
  0
VERTEX
  5
1C0A
  8
0
 10
80.329548241843895
 20
80.019436864022254
 30
0.0
  0
VERTEX
  5
1C0B
  8
0
 10
79.464397973396416
 20
80.164667955574544
 30
0.0
  0
VERTEX
  5
1C0C
  8
0
 10
79.008758125425373
 20
80.251191749842278
 30
0.0
  0
VERTEX
  5
1C0D
  8
0
 10
78.53483484660461
 20
80.347864836571276
 30
0.0
  0
VERTEX
  5
1C0E
  8
0
 10
77.52187078320199
 20
80.574957371880728
 30
0.0
  0
VERTEX
  5
1C0F
  8
0
 10
76.401545394316685
 20
80.853963948068881
 30
0.0
  0
VERTEX
  5
1C10
  8
0
 10
75.791762243584316
 20
81.016201441670404
 30
0.0
  0
SEQEND
  5
1C11
  8
0
  0
POLYLINE
  5
F07
  8
0
 66
     1
 10
0.0
 20
0.0
 30
0.0
  0
VERTEX
  5
1C12
  8
0
 10
75.791762243584316
 20
105.94988560869361
 30
0.0
  0
VERTEX
  5
1C13
  8
0
 10
76.571886203893087
 20
106.2005272641338
 30
0.0
  0
VERTEX
  5
1C14
  8
0
 10
77.974532654839123
 20
106.6131103238954
 30
0.0
  0
VERTEX
  5
1C15
  8
0
 10
79.216477421362669
 20
106.92809919212949
 30
0.0
  0
VERTEX
  5
1C16
  8
0
 10
79.791762243584316
 20
107.0547720356503
 30
0.0
  0
SEQEND
  5
1C17
  8
0
  0
LINE
  5
F08
  8
0
 10
79.791762243584316
 20
107.0547720356503
 30
0.0
 11
79.791762243584316
 21
83.360323891283556
 31
0.0
  0
LINE
  5
F09
  8
0
 10
87.791762243584316
 20
83.360323891283556
 30
0.0
 11
87.791762243584316
 21
107.0547720356503
 31
0.0
  0
POLYLINE
  5
F0A
  8
0
 66
     1
 10
0.0
 20
0.0
 30
0.0
  0
VERTEX
  5
1C18
  8
0
 10
87.791762243584316
 20
107.0547720356503
 30
0.0
  0
VERTEX
  5
1C19
  8
0
 10
88.367047065805991
 20
106.92809919212949
 30
0.0
  0
VERTEX
  5
1C1A
  8
0
 10
89.608991832329508
 20
106.6131103238953
 30
0.0
  0
VERTEX
  5
1C1B
  8
0
 10
91.011638283275573
 20
106.2005272641338
 30
0.0
  0
VERTEX
  5
1C1C
  8
0
 10
91.791762243584316
 20
105.94988560869361
 30
0.0
  0
SEQEND
  5
1C1D
  8
0
  0
LINE
  5
F15
  8
0
 10
79.791762243584316
 20
83.360323891283556
 30
0.0
 11
87.791762243584316
 21
83.360323891283556
 31
0.0
  0
LINE
  5
F1B
  8
1
 10
83.791762243584316
 20
113.32697306511071
 30
0.0
 11
83.791762243584287
 21
64.393674717456435
 31
0.0
  0
POLYLINE
  5
F3B
  8
0
 66
     1
 10
0.0
 20
0.0
 30
-8.0
  0
VERTEX
  5
1C1E
  8
0
 10
19.950127571490601
 20
105.94988560869361
 30
-8.0
  0
VERTEX
  5
1C1F
  8
0
 10
20.559910722222948
 20
106.14696733243279
 30
-8.0
  0
VERTEX
  5
1C20
  8
0
 10
21.68023611110829
 20
106.4858969827194
 30
-8.0
  0
VERTEX
  5
1C21
  8
0
 10
22.693200174510888
 20
106.7617628588098
 30
-8.0
  0
VERTEX
  5
1C22
  8
0
 10
23.167123453331651
 20
106.8791987125621
 30
-8.0
  0
VERTEX
  5
1C23
  8
0
 10
23.622763301302701
 20
106.98430548005589
 30
-8.0
  0
VERTEX
  5
1C24
  8
0
 10
24.487913569750191
 20
107.1607282860809
 30
-8.0
  0
VERTEX
  5
1C25
  8
0
 10
25.30414135091112
 20
107.2963419597172
 30
-8.0
  0
VERTEX
  5
1C26
  8
0
 10
26.08447975100745
 20
107.3949955751788
 30
-8.0
  0
VERTEX
  5
1C27
  8
0
 10
26.84026858021068
 20
107.45936487108619
 30
-8.0
  0
VERTEX
  5
1C28
  8
0
 10
27.581742661547231
 20
107.4911402643512
 30
-8.0
  0
VERTEX
  5
1C29
  8
0
 10
27.950127571490601
 20
107.4950932586635
 30
-8.0
  0
VERTEX
  5
1C2A
  8
0
 10
28.318512481433959
 20
107.4911402643512
 30
-8.0
  0
VERTEX
  5
1C2B
  8
0
 10
29.059986562770519
 20
107.45936487108619
 30
-8.0
  0
VERTEX
  5
1C2C
  8
0
 10
29.815775391973741
 20
107.3949955751788
 30
-8.0
  0
VERTEX
  5
1C2D
  8
0
 10
30.596113792070071
 20
107.2963419597172
 30
-8.0
  0
VERTEX
  5
1C2E
  8
0
 10
31.412341573231011
 20
107.1607282860809
 30
-8.0
  0
VERTEX
  5
1C2F
  8
0
 10
32.277491841678483
 20
106.9843054800558
 30
-8.0
  0
VERTEX
  5
1C30
  8
0
 10
32.733131689649532
 20
106.8791987125621
 30
-8.0
  0
VERTEX
  5
1C31
  8
0
 10
33.207054968470288
 20
106.7617628588098
 30
-8.0
  0
VERTEX
  5
1C32
  8
0
 10
34.220019031872901
 20
106.4858969827194
 30
-8.0
  0
VERTEX
  5
1C33
  8
0
 10
35.340344420758242
 20
106.14696733243279
 30
-8.0
  0
VERTEX
  5
1C34
  8
0
 10
35.95012757149059
 20
105.94988560869361
 30
-8.0
  0
SEQEND
  5
1C35
  8
0
  0
POLYLINE
  5
F3C
  8
0
 66
     1
 10
0.0
 20
0.0
 30
-8.0
  0
VERTEX
  5
1C36
  8
0
 10
35.950127571490597
 20
107.0547720356503
 30
-8.0
  0
VERTEX
  5
1C37
  8
0
 10
35.032821707945217
 20
107.43253349992131
 30
-8.0
  0
VERTEX
  5
1C38
  8
0
 10
33.557817263018549
 20
108.0135718731463
 30
-8.0
  0
VERTEX
  5
1C39
  8
0
 10
32.409444151632158
 20
108.43216130093199
 30
-8.0
  0
VERTEX
  5
1C3A
  8
0
 10
31.92029508967471
 20
108.59753830055649
 30
-8.0
  0
VERTEX
  5
1C3B
  8
0
 10
31.474349591693191
 20
108.7396430384935
 30
-8.0
  0
VERTEX
  5
1C3C
  8
0
 10
30.683253863489579
 20
108.9664886166461
 30
-8.0
  0
VERTEX
  5
1C3D
  8
0
 10
29.990781334423371
 20
109.13161672816661
 30
-8.0
  0
VERTEX
  5
1C3E
  8
0
 10
29.36524370902983
 20
109.2470383483377
 30
-8.0
  0
VERTEX
  5
1C3F
  8
0
 10
28.783009910514838
 20
109.32031861165309
 30
-8.0
  0
VERTEX
  5
1C40
  8
0
 10
28.22513355086403
 20
109.3559208319359
 30
-8.0
  0
VERTEX
  5
1C41
  8
0
 10
27.950127571490601
 20
109.3603238912835
 30
-8.0
  0
VERTEX
  5
1C42
  8
0
 10
27.675121592117151
 20
109.3559208319359
 30
-8.0
  0
VERTEX
  5
1C43
  8
0
 10
27.11724523246636
 20
109.32031861165309
 30
-8.0
  0
VERTEX
  5
1C44
  8
0
 10
26.535011433951361
 20
109.2470383483377
 30
-8.0
  0
VERTEX
  5
1C45
  8
0
 10
25.909473808557809
 20
109.13161672816661
 30
-8.0
  0
VERTEX
  5
1C46
  8
0
 10
25.217001279491601
 20
108.9664886166461
 30
-8.0
  0
VERTEX
  5
1C47
  8
0
 10
24.425905551288
 20
108.7396430384936
 30
-8.0
  0
VERTEX
  5
1C48
  8
0
 10
23.979960053306481
 20
108.59753830055649
 30
-8.0
  0
VERTEX
  5
1C49
  8
0
 10
23.49081099134904
 20
108.43216130093199
 30
-8.0
  0
VERTEX
  5
1C4A
  8
0
 10
22.342437879962631
 20
108.0135718731463
 30
-8.0
  0
VERTEX
  5
1C4B
  8
0
 10
20.867433435035959
 20
107.43253349992131
 30
-8.0
  0
VERTEX
  5
1C4C
  8
0
 10
19.950127571490601
 20
107.0547720356503
 30
-8.0
  0
SEQEND
  5
1C4D
  8
0
  0
POLYLINE
  5
F3D
  8
0
 66
     1
 10
0.0
 20
0.0
 30
-8.0
  0
VERTEX
  5
1C4E
  8
0
 10
35.950127571490597
 20
81.01620144167039
 30
-8.0
  0
VERTEX
  5
1C4F
  8
0
 10
35.340344420758228
 20
80.853963948068881
 30
-8.0
  0
VERTEX
  5
1C50
  8
0
 10
34.220019031872908
 20
80.574957371880714
 30
-8.0
  0
VERTEX
  5
1C51
  8
0
 10
33.207054968470288
 20
80.347864836571276
 30
-8.0
  0
VERTEX
  5
1C52
  8
0
 10
32.733131689649539
 20
80.251191749842278
 30
-8.0
  0
VERTEX
  5
1C53
  8
0
 10
32.277491841678497
 20
80.164667955574544
 30
-8.0
  0
VERTEX
  5
1C54
  8
0
 10
31.412341573231011
 20
80.019436864022254
 30
-8.0
  0
VERTEX
  5
1C55
  8
0
 10
30.596113792070071
 20
79.907799812694464
 30
-8.0
  0
VERTEX
  5
1C56
  8
0
 10
29.815775391973741
 20
79.826588247240494
 30
-8.0
  0
VERTEX
  5
1C57
  8
0
 10
29.059986562770519
 20
79.773599502090676
 30
-8.0
  0
VERTEX
  5
1C58
  8
0
 10
28.318512481433959
 20
79.747442027598808
 30
-8.0
  0
VERTEX
  5
1C59
  8
0
 10
27.950127571490579
 20
79.744187926318958
 30
-8.0
  0
VERTEX
  5
1C5A
  8
0
 10
27.581742661547231
 20
79.747442027598808
 30
-8.0
  0
VERTEX
  5
1C5B
  8
0
 10
26.84026858021068
 20
79.773599502090661
 30
-8.0
  0
VERTEX
  5
1C5C
  8
0
 10
26.08447975100745
 20
79.826588247240508
 30
-8.0
  0
VERTEX
  5
1C5D
  8
0
 10
25.304141350911109
 20
79.907799812694464
 30
-8.0
  0
VERTEX
  5
1C5E
  8
0
 10
24.48791356975018
 20
80.019436864022254
 30
-8.0
  0
VERTEX
  5
1C5F
  8
0
 10
23.62276330130268
 20
80.164667955574544
 30
-8.0
  0
VERTEX
  5
1C60
  8
0
 10
23.167123453331641
 20
80.251191749842278
 30
-8.0
  0
VERTEX
  5
1C61
  8
0
 10
22.693200174510881
 20
80.347864836571276
 30
-8.0
  0
VERTEX
  5
1C62
  8
0
 10
21.680236111108272
 20
80.574957371880714
 30
-8.0
  0
VERTEX
  5
1C63
  8
0
 10
20.559910722222948
 20
80.853963948068881
 30
-8.0
  0
VERTEX
  5
1C64
  8
0
 10
19.950127571490579
 20
81.016201441670404
 30
-8.0
  0
SEQEND
  5
1C65
  8
0
  0
LINE
  5
F3E
  8
0
 10
34.950127571490611
 20
79.360323891283528
 30
-8.0
 11
20.950127571490611
 21
79.360323891283528
 31
-8.0
  0
POLYLINE
  5
F3F
  8
0
 66
     1
 10
0.0
 20
0.0
 30
-8.0
  0
VERTEX
  5
1C66
  8
0
 10
19.950127571490579
 20
81.01620144167039
 30
-8.0
  0
VERTEX
  5
1C67
  8
0
 10
20.559910722222948
 20
80.853963948068881
 30
-8.0
  0
VERTEX
  5
1C68
  8
0
 10
21.68023611110829
 20
80.574957371880714
 30
-8.0
  0
VERTEX
  5
1C69
  8
0
 10
22.693200174510888
 20
80.347864836571276
 30
-8.0
  0
VERTEX
  5
1C6A
  8
0
 10
23.167123453331651
 20
80.251191749842263
 30
-8.0
  0
VERTEX
  5
1C6B
  8
0
 10
23.62276330130268
 20
80.164667955574544
 30
-8.0
  0
VERTEX
  5
1C6C
  8
0
 10
24.487913569750191
 20
80.019436864022254
 30
-8.0
  0
VERTEX
  5
1C6D
  8
0
 10
25.304141350911109
 20
79.907799812694464
 30
-8.0
  0
VERTEX
  5
1C6E
  8
0
 10
26.08447975100745
 20
79.826588247240494
 30
-8.0
  0
VERTEX
  5
1C6F
  8
0
 10
26.84026858021068
 20
79.773599502090676
 30
-8.0
  0
VERTEX
  5
1C70
  8
0
 10
27.581742661547231
 20
79.747442027598808
 30
-8.0
  0
VERTEX
  5
1C71
  8
0
 10
27.950127571490601
 20
79.744187926318958
 30
-8.0
  0
VERTEX
  5
1C72
  8
0
 10
28.31851248143397
 20
79.747442027598808
 30
-8.0
  0
VERTEX
  5
1C73
  8
0
 10
29.059986562770519
 20
79.773599502090676
 30
-8.0
  0
VERTEX
  5
1C74
  8
0
 10
29.815775391973741
 20
79.826588247240494
 30
-8.0
  0
VERTEX
  5
1C75
  8
0
 10
30.596113792070071
 20
79.907799812694464
 30
-8.0
  0
VERTEX
  5
1C76
  8
0
 10
31.412341573231011
 20
80.019436864022254
 30
-8.0
  0
VERTEX
  5
1C77
  8
0
 10
32.277491841678497
 20
80.164667955574544
 30
-8.0
  0
VERTEX
  5
1C78
  8
0
 10
32.733131689649539
 20
80.251191749842278
 30
-8.0
  0
VERTEX
  5
1C79
  8
0
 10
33.207054968470302
 20
80.347864836571276
 30
-8.0
  0
VERTEX
  5
1C7A
  8
0
 10
34.220019031872908
 20
80.574957371880714
 30
-8.0
  0
VERTEX
  5
1C7B
  8
0
 10
35.340344420758242
 20
80.853963948068881
 30
-8.0
  0
VERTEX
  5
1C7C
  8
0
 10
35.950127571490597
 20
81.01620144167039
 30
-8.0
  0
SEQEND
  5
1C7D
  8
0
  0
LINE
  5
F43
  8
0
 10
34.950127571490611
 20
67.360323891283556
 30
-8.0
 11
20.950127571490611
 21
67.360323891283556
 31
-8.0
  0
LINE
  5
F4A
  8
0
 10
19.950127571490579
 20
79.744187926318958
 30
-8.0
 11
20.950127571490579
 21
79.360323891283528
 31
-8.0
  0
LINE
  5
F4B
  8
0
 10
34.950127571490611
 20
79.360323891283528
 30
-8.0
 11
35.950127571490611
 21
79.744187926318958
 31
-8.0
  0
LINE
  5
F4E
  8
0
 10
20.950127571490611
 20
79.360323891283528
 30
-8.0
 11
20.950127571490611
 21
67.360323891283556
 31
-8.0
  0
LINE
  5
F4F
  8
0
 10
34.950127571490611
 20
67.360323891283556
 30
-8.0
 11
34.950127571490611
 21
79.360323891283528
 31
-8.0
  0
LINE
  5
FB0
  8
0
 10
87.791762243584316
 20
159.15992728475109
 30
0.0
 11
79.791762243584316
 21
159.15992728475109
 31
0.0
  0
LINE
  5
FB3
  8
0
 10
79.791762243584287
 20
151.15992728475109
 30
0.0
 11
87.791762243584273
 21
151.15992728475109
 31
0.0
  0
CIRCLE
  5
11A8
  8
0
 10
83.791762243584287
 20
27.189086654924221
 30
0.0
 40
6.9999999999999991
  0
CIRCLE
  5
11BD
  8
0
 10
83.791762243584287
 20
27.189086654924221
 30
0.0
 40
3.458499999999999
  0
LINE
  5
11C5
  8
0
 10
75.791762243584287
 20
35.189086654924253
 30
0.0
 11
91.791762243584273
 21
35.189086654924253
 31
0.0
  0
LINE
  5
1213
  8
2
 10
75.791762243584316
 20
103.3603238912835
 30
0.0
 11
79.791762243584316
 21
103.3603238912835
 31
0.0
  0
LINE
  5
1214
  8
2
 10
75.791762243584316
 20
95.360323891283556
 30
0.0
 11
79.791762243584316
 21
95.360323891283556
 31
0.0
  0
LINE
  5
1215
  8
2
 10
91.791762243584316
 20
95.360323891283556
 30
0.0
 11
87.791762243584316
 21
95.360323891283556
 31
0.0
  0
LINE
  5
1216
  8
2
 10
91.791762243584316
 20
103.3603238912835
 30
0.0
 11
87.791762243584316
 21
103.3603238912835
 31
0.0
  0
LINE
  5
1217
  8
2
 10
91.291762243584316
 20
103.3603238912835
 30
0.0
 11
91.291762243584316
 21
95.360323891283556
 31
0.0
  0
LINE
  5
1218
  8
2
 10
91.791762243584316
 20
94.860323891283556
 30
0.0
 11
91.291762243584316
 21
95.360323891283556
 31
0.0
  0
LINE
  5
1219
  8
2
 10
91.291762243584316
 20
103.3603238912835
 30
0.0
 11
91.791762243584316
 21
103.8603238912835
 31
0.0
  0
LINE
  5
121A
  8
0
 10
87.791762243584316
 20
109.3603238912835
 30
0.0
 11
91.791762243584316
 21
107.4950932586635
 31
0.0
  0
LINE
  5
1253
  8
0
 10
35.950127571490597
 20
107.0547720356503
 30
-8.0
 11
35.950127571490611
 21
79.744187926318958
 31
-8.0
  0
LINE
  5
1254
  8
0
 10
19.950127571490619
 20
107.0547720356503
 30
-8.0
 11
19.950127571490611
 21
79.744187926318958
 31
-8.0
  0
LINE
  5
1255
  8
1
 10
27.950127571490579
 20
113.32697306511071
 30
-8.0
 11
27.950127571490569
 21
64.393674717456435
 31
-8.0
  0
LINE
  5
1256
  8
1
 10
41.916776745317698
 20
99.360323891283571
 30
-8.0
 11
13.983478397663459
 21
99.360323891283571
 31
-8.0
  0
LINE
  5
12C3
  8
0
 10
75.791762243584316
 20
107.4950932586635
 30
0.0
 11
75.791762243584316
 21
79.744187926318958
 31
0.0
  0
LINE
  5
137D
  8
0
 10
75.791762243584287
 20
147.15992728475109
 30
0.0
 11
91.791762243584273
 21
147.15992728475109
 31
0.0
  0
LINE
  5
13B0
  8
1
 10
83.791762243584287
 20
169.17112194960441
 30
0.0
 11
83.791762243584287
 21
141.23768197942491
 31
0.0
  0
LINE
  5
13B1
  8
1
 10
97.758411417411409
 20
155.15992728475129
 30
0.0
 11
69.825113069757194
 21
155.15992728475121
 31
0.0
  0
LINE
  5
13B6
  8
0
 10
75.791762243584316
 20
163.15992728475109
 30
0.0
 11
91.791762243584316
 21
163.15992728475109
 31
0.0
  0
LINE
  5
13B7
  8
0
 10
75.791762243584316
 20
163.15992728475109
 30
0.0
 11
75.791762243584287
 21
147.15992728475109
 31
0.0
  0
LINE
  5
13B8
  8
0
 10
79.791762243584316
 20
163.15992728475109
 30
0.0
 11
79.791762243584287
 21
147.15992728475109
 31
0.0
  0
LINE
  5
13B9
  8
2
 10
87.791762243584273
 20
151.15992728475109
 30
0.0
 11
91.791762243584273
 21
151.15992728475109
 31
0.0
  0
LINE
  5
13BA
  8
2
 10
87.791762243584273
 20
159.15992728475109
 30
0.0
 11
91.791762243584273
 21
159.15992728475109
 31
0.0
  0
LINE
  5
13BD
  8
2
 10
79.791762243584316
 20
159.15992728475109
 30
0.0
 11
75.79176224358433
 21
159.15992728475109
 31
0.0
  0
LINE
  5
13BE
  8
2
 10
79.791762243584301
 20
151.15992728475109
 30
0.0
 11
75.791762243584301
 21
151.15992728475109
 31
0.0
  0
LINE
  5
13C7
  8
0
 10
91.791762243584316
 20
163.15992728475109
 30
0.0
 11
91.791762243584316
 21
147.15992728475109
 31
0.0
  0
LINE
  5
13C8
  8
0
 10
87.791762243584273
 20
163.15992728475109
 30
0.0
 11
87.791762243584301
 21
147.15992728475109
 31
0.0
  0
LINE
  5
13F5
  8
1
 10
97.758411417411438
 20
27.189086654924409
 30
0.0
 11
69.825113069757222
 21
27.189086654924381
 31
0.0
  0
LINE
  5
13F6
  8
1
 10
83.79176224358433
 20
41.200281319777531
 30
0.0
 11
83.79176224358433
 21
13.266841349598019
 31
0.0
  0
LINE
  5
1402
  8
0
 10
91.791762243584273
 20
35.189086654924253
 30
0.0
 11
91.791762243584301
 21
19.189086654924299
 31
0.0
  0
CIRCLE
  5
140E
  8
3
 10
83.79176224358433
 20
27.189086654924221
 30
0.0
 40
3.9999999999999849
  0
LINE
  5
1430
  8
0
 10
75.791762243584287
 20
35.189086654924253
 30
0.0
 11
75.791762243584316
 21
19.189086654924239
 31
0.0
  0
LINE
  5
1581
  8
0
 10
91.791762243584316
 20
107.4950932586635
 30
0.0
 11
91.791762243584316
 21
79.744187926318958
 31
0.0
  0
LINE
  5
1582
  8
0
 10
76.791762243584316
 20
79.360323891283542
 30
0.0
 11
76.791762243584316
 21
67.360323891283556
 31
0.0
  0
LINE
  5
1583
  8
0
 10
90.791762243584316
 20
79.360323891283542
 30
0.0
 11
90.791762243584301
 21
67.360323891283556
 31
0.0
  0
LINE
  5
1584
  8
0
 10
75.791762243584316
 20
19.189086654924239
 30
0.0
 11
91.791762243584273
 21
19.189086654924299
 31
0.0
  0
LINE
  5
1585
  8
1
 10
125.6667477418509
 20
99.360323891283571
 30
-8.0
 11
153.6000460895051
 21
99.360323891283571
 31
-8.0
  0
LINE
  5
1586
  8
1
 10
139.63339691567799
 20
113.32697306511071
 30
-8.0
 11
139.63339691567811
 21
64.393674717456435
 31
-8.0
  0
LINE
  5
1587
  8
0
 10
147.63339691567799
 20
107.0547720356503
 30
-8.0
 11
147.63339691567799
 21
79.744187926318958
 31
-8.0
  0
LINE
  5
1588
  8
0
 10
131.63339691567799
 20
107.0547720356503
 30
-8.0
 11
131.63339691567799
 21
79.744187926318958
 31
-8.0
  0
LINE
  5
158A
  8
0
 10
132.63339691567799
 20
67.360323891283556
 30
-8.0
 11
132.63339691567799
 21
79.360323891283528
 31
-8.0
  0
LINE
  5
158B
  8
0
 10
146.63339691567799
 20
79.360323891283528
 30
-8.0
 11
146.63339691567799
 21
67.360323891283556
 31
-8.0
  0
LINE
  5
158C
  8
0
 10
132.63339691567799
 20
79.360323891283528
 30
-8.0
 11
131.63339691567799
 21
79.744187926318958
 31
-8.0
  0
LINE
  5
158D
  8
0
 10
147.63339691567799
 20
79.744187926318958
 30
-8.0
 11
146.63339691567799
 21
79.360323891283528
 31
-8.0
  0
LINE
  5
158E
  8
0
 10
132.63339691567799
 20
67.360323891283556
 30
-8.0
 11
146.63339691567799
 21
67.360323891283556
 31
-8.0
  0
POLYLINE
  5
158F
  8
0
 66
     1
 10
0.0
 20
0.0
 30
-8.0
  0
VERTEX
  5
1C7E
  8
0
 10
147.63339691567799
 20
81.01620144167039
 30
-8.0
  0
VERTEX
  5
1C7F
  8
0
 10
147.02361376494571
 20
80.853963948068881
 30
-8.0
  0
VERTEX
  5
1C80
  8
0
 10
145.90328837606029
 20
80.574957371880714
 30
-8.0
  0
VERTEX
  5
1C81
  8
0
 10
144.8903243126577
 20
80.347864836571276
 30
-8.0
  0
VERTEX
  5
1C82
  8
0
 10
144.41640103383691
 20
80.251191749842263
 30
-8.0
  0
VERTEX
  5
1C83
  8
0
 10
143.96076118586589
 20
80.164667955574544
 30
-8.0
  0
VERTEX
  5
1C84
  8
0
 10
143.09561091741841
 20
80.019436864022254
 30
-8.0
  0
VERTEX
  5
1C85
  8
0
 10
142.27938313625751
 20
79.907799812694464
 30
-8.0
  0
VERTEX
  5
1C86
  8
0
 10
141.49904473616121
 20
79.826588247240494
 30
-8.0
  0
VERTEX
  5
1C87
  8
0
 10
140.7432559069579
 20
79.773599502090676
 30
-8.0
  0
VERTEX
  5
1C88
  8
0
 10
140.00178182562141
 20
79.747442027598808
 30
-8.0
  0
VERTEX
  5
1C89
  8
0
 10
139.63339691567799
 20
79.744187926318958
 30
-8.0
  0
VERTEX
  5
1C8A
  8
0
 10
139.2650120057346
 20
79.747442027598808
 30
-8.0
  0
VERTEX
  5
1C8B
  8
0
 10
138.52353792439811
 20
79.773599502090676
 30
-8.0
  0
VERTEX
  5
1C8C
  8
0
 10
137.76774909519489
 20
79.826588247240494
 30
-8.0
  0
VERTEX
  5
1C8D
  8
0
 10
136.9874106950985
 20
79.907799812694464
 30
-8.0
  0
VERTEX
  5
1C8E
  8
0
 10
136.1711829139376
 20
80.019436864022254
 30
-8.0
  0
VERTEX
  5
1C8F
  8
0
 10
135.30603264549009
 20
80.164667955574544
 30
-8.0
  0
VERTEX
  5
1C90
  8
0
 10
134.85039279751899
 20
80.251191749842278
 30
-8.0
  0
VERTEX
  5
1C91
  8
0
 10
134.37646951869829
 20
80.347864836571276
 30
-8.0
  0
VERTEX
  5
1C92
  8
0
 10
133.36350545529569
 20
80.574957371880714
 30
-8.0
  0
VERTEX
  5
1C93
  8
0
 10
132.24318006641039
 20
80.853963948068881
 30
-8.0
  0
VERTEX
  5
1C94
  8
0
 10
131.63339691567799
 20
81.01620144167039
 30
-8.0
  0
SEQEND
  5
1C95
  8
0
  0
LINE
  5
1590
  8
0
 10
132.63339691567799
 20
79.360323891283528
 30
-8.0
 11
146.63339691567799
 21
79.360323891283528
 31
-8.0
  0
POLYLINE
  5
1591
  8
0
 66
     1
 10
0.0
 20
0.0
 30
-8.0
  0
VERTEX
  5
1C96
  8
0
 10
131.63339691567799
 20
81.01620144167039
 30
-8.0
  0
VERTEX
  5
1C97
  8
0
 10
132.24318006641039
 20
80.853963948068881
 30
-8.0
  0
VERTEX
  5
1C98
  8
0
 10
133.36350545529569
 20
80.574957371880714
 30
-8.0
  0
VERTEX
  5
1C99
  8
0
 10
134.37646951869829
 20
80.347864836571276
 30
-8.0
  0
VERTEX
  5
1C9A
  8
0
 10
134.85039279751899
 20
80.251191749842278
 30
-8.0
  0
VERTEX
  5
1C9B
  8
0
 10
135.30603264549009
 20
80.164667955574544
 30
-8.0
  0
VERTEX
  5
1C9C
  8
0
 10
136.1711829139376
 20
80.019436864022254
 30
-8.0
  0
VERTEX
  5
1C9D
  8
0
 10
136.9874106950985
 20
79.907799812694464
 30
-8.0
  0
VERTEX
  5
1C9E
  8
0
 10
137.76774909519489
 20
79.826588247240494
 30
-8.0
  0
VERTEX
  5
1C9F
  8
0
 10
138.52353792439811
 20
79.773599502090676
 30
-8.0
  0
VERTEX
  5
1CA0
  8
0
 10
139.2650120057346
 20
79.747442027598808
 30
-8.0
  0
VERTEX
  5
1CA1
  8
0
 10
139.63339691567799
 20
79.744187926318958
 30
-8.0
  0
VERTEX
  5
1CA2
  8
0
 10
140.00178182562141
 20
79.747442027598808
 30
-8.0
  0
VERTEX
  5
1CA3
  8
0
 10
140.7432559069579
 20
79.773599502090661
 30
-8.0
  0
VERTEX
  5
1CA4
  8
0
 10
141.49904473616121
 20
79.826588247240508
 30
-8.0
  0
VERTEX
  5
1CA5
  8
0
 10
142.27938313625751
 20
79.907799812694464
 30
-8.0
  0
VERTEX
  5
1CA6
  8
0
 10
143.09561091741841
 20
80.019436864022254
 30
-8.0
  0
VERTEX
  5
1CA7
  8
0
 10
143.96076118586589
 20
80.164667955574544
 30
-8.0
  0
VERTEX
  5
1CA8
  8
0
 10
144.41640103383699
 20
80.251191749842278
 30
-8.0
  0
VERTEX
  5
1CA9
  8
0
 10
144.8903243126577
 20
80.347864836571276
 30
-8.0
  0
VERTEX
  5
1CAA
  8
0
 10
145.90328837606029
 20
80.574957371880714
 30
-8.0
  0
VERTEX
  5
1CAB
  8
0
 10
147.02361376494571
 20
80.853963948068881
 30
-8.0
  0
VERTEX
  5
1CAC
  8
0
 10
147.63339691567799
 20
81.016201441670404
 30
-8.0
  0
SEQEND
  5
1CAD
  8
0
  0
POLYLINE
  5
1592
  8
0
 66
     1
 10
0.0
 20
0.0
 30
-8.0
  0
VERTEX
  5
1CAE
  8
0
 10
131.63339691567799
 20
107.0547720356503
 30
-8.0
  0
VERTEX
  5
1CAF
  8
0
 10
132.5507027792234
 20
107.43253349992131
 30
-8.0
  0
VERTEX
  5
1CB0
  8
0
 10
134.0257072241501
 20
108.0135718731463
 30
-8.0
  0
VERTEX
  5
1CB1
  8
0
 10
135.1740803355365
 20
108.43216130093199
 30
-8.0
  0
VERTEX
  5
1CB2
  8
0
 10
135.66322939749389
 20
108.59753830055649
 30
-8.0
  0
VERTEX
  5
1CB3
  8
0
 10
136.10917489547541
 20
108.7396430384935
 30
-8.0
  0
VERTEX
  5
1CB4
  8
0
 10
136.90027062367901
 20
108.9664886166461
 30
-8.0
  0
VERTEX
  5
1CB5
  8
0
 10
137.59274315274519
 20
109.13161672816661
 30
-8.0
  0
VERTEX
  5
1CB6
  8
0
 10
138.21828077813879
 20
109.2470383483377
 30
-8.0
  0
VERTEX
  5
1CB7
  8
0
 10
138.8005145766538
 20
109.32031861165309
 30
-8.0
  0
VERTEX
  5
1CB8
  8
0
 10
139.3583909363046
 20
109.3559208319359
 30
-8.0
  0
VERTEX
  5
1CB9
  8
0
 10
139.63339691567799
 20
109.3603238912835
 30
-8.0
  0
VERTEX
  5
1CBA
  8
0
 10
139.90840289505149
 20
109.3559208319359
 30
-8.0
  0
VERTEX
  5
1CBB
  8
0
 10
140.46627925470219
 20
109.32031861165309
 30
-8.0
  0
VERTEX
  5
1CBC
  8
0
 10
141.04851305321731
 20
109.2470383483377
 30
-8.0
  0
VERTEX
  5
1CBD
  8
0
 10
141.6740506786108
 20
109.13161672816661
 30
-8.0
  0
VERTEX
  5
1CBE
  8
0
 10
142.36652320767701
 20
108.9664886166461
 30
-8.0
  0
VERTEX
  5
1CBF
  8
0
 10
143.15761893588061
 20
108.7396430384936
 30
-8.0
  0
VERTEX
  5
1CC0
  8
0
 10
143.60356443386209
 20
108.59753830055649
 30
-8.0
  0
VERTEX
  5
1CC1
  8
0
 10
144.09271349581959
 20
108.43216130093199
 30
-8.0
  0
VERTEX
  5
1CC2
  8
0
 10
145.241086607206
 20
108.0135718731463
 30
-8.0
  0
VERTEX
  5
1CC3
  8
0
 10
146.7160910521327
 20
107.43253349992131
 30
-8.0
  0
VERTEX
  5
1CC4
  8
0
 10
147.63339691567799
 20
107.0547720356503
 30
-8.0
  0
SEQEND
  5
1CC5
  8
0
  0
POLYLINE
  5
1593
  8
0
 66
     1
 10
0.0
 20
0.0
 30
-8.0
  0
VERTEX
  5
1CC6
  8
0
 10
147.63339691567799
 20
105.94988560869361
 30
-8.0
  0
VERTEX
  5
1CC7
  8
0
 10
147.02361376494571
 20
106.14696733243279
 30
-8.0
  0
VERTEX
  5
1CC8
  8
0
 10
145.90328837606029
 20
106.4858969827194
 30
-8.0
  0
VERTEX
  5
1CC9
  8
0
 10
144.8903243126577
 20
106.7617628588098
 30
-8.0
  0
VERTEX
  5
1CCA
  8
0
 10
144.41640103383691
 20
106.8791987125621
 30
-8.0
  0
VERTEX
  5
1CCB
  8
0
 10
143.96076118586589
 20
106.98430548005589
 30
-8.0
  0
VERTEX
  5
1CCC
  8
0
 10
143.09561091741841
 20
107.1607282860809
 30
-8.0
  0
VERTEX
  5
1CCD
  8
0
 10
142.27938313625751
 20
107.2963419597172
 30
-8.0
  0
VERTEX
  5
1CCE
  8
0
 10
141.49904473616121
 20
107.3949955751788
 30
-8.0
  0
VERTEX
  5
1CCF
  8
0
 10
140.7432559069579
 20
107.45936487108619
 30
-8.0
  0
VERTEX
  5
1CD0
  8
0
 10
140.00178182562141
 20
107.4911402643512
 30
-8.0
  0
VERTEX
  5
1CD1
  8
0
 10
139.63339691567799
 20
107.4950932586635
 30
-8.0
  0
VERTEX
  5
1CD2
  8
0
 10
139.2650120057346
 20
107.4911402643512
 30
-8.0
  0
VERTEX
  5
1CD3
  8
0
 10
138.52353792439811
 20
107.45936487108619
 30
-8.0
  0
VERTEX
  5
1CD4
  8
0
 10
137.76774909519489
 20
107.3949955751788
 30
-8.0
  0
VERTEX
  5
1CD5
  8
0
 10
136.9874106950985
 20
107.2963419597172
 30
-8.0
  0
VERTEX
  5
1CD6
  8
0
 10
136.1711829139376
 20
107.1607282860809
 30
-8.0
  0
VERTEX
  5
1CD7
  8
0
 10
135.30603264549009
 20
106.9843054800558
 30
-8.0
  0
VERTEX
  5
1CD8
  8
0
 10
134.85039279751911
 20
106.8791987125621
 30
-8.0
  0
VERTEX
  5
1CD9
  8
0
 10
134.37646951869829
 20
106.7617628588098
 30
-8.0
  0
VERTEX
  5
1CDA
  8
0
 10
133.36350545529569
 20
106.4858969827194
 30
-8.0
  0
VERTEX
  5
1CDB
  8
0
 10
132.24318006641039
 20
106.14696733243279
 30
-8.0
  0
VERTEX
  5
1CDC
  8
0
 10
131.63339691567799
 20
105.94988560869361
 30
-8.0
  0
SEQEND
  5
1CDD
  8
0
  0
LINE
  5
15D0
  8
2
 10
79.791762243584316
 20
83.360323891283485
 30
0.0
 11
80.333262243584315
 21
82.818823891283486
 31
0.0
  0
LINE
  5
15D1
  8
2
 10
80.333262243584315
 20
82.818823891283486
 30
0.0
 11
80.333262243584315
 21
67.901823891283485
 31
0.0
  0
LINE
  5
15D2
  8
2
 10
87.250262243584331
 20
82.818823891283486
 30
0.0
 11
80.333262243584315
 21
82.818823891283486
 31
0.0
  0
LINE
  5
15D3
  8
2
 10
79.791762243584316
 20
67.360323891283485
 30
0.0
 11
79.791762243584316
 21
83.360323891283485
 31
0.0
  0
LINE
  5
15D4
  8
2
 10
87.250262243584331
 20
82.818823891283486
 30
0.0
 11
87.791762243584316
 21
83.360323891283485
 31
0.0
  0
LINE
  5
15D5
  8
2
 10
87.250262243584331
 20
67.901823891283485
 30
0.0
 11
87.250262243584331
 21
82.818823891283486
 31
0.0
  0
LINE
  5
15D6
  8
2
 10
87.791762243584316
 20
67.360323891283485
 30
0.0
 11
87.791762243584316
 21
83.360323891283485
 31
0.0
  0
LINE
  5
15D7
  8
2
 10
87.791762243584316
 20
67.360323891283485
 30
0.0
 11
87.250262243584331
 21
67.901823891283485
 31
0.0
  0
LINE
  5
15D8
  8
2
 10
80.333262243584315
 20
67.901823891283485
 30
0.0
 11
79.791762243584316
 21
67.360323891283485
 31
0.0
  0
LINE
  5
15D9
  8
2
 10
87.250262243584331
 20
67.901823891283485
 30
0.0
 11
80.333262243584315
 21
67.901823891283485
 31
0.0
  0
CIRCLE
  5
173A
  8
0
 10
27.950127571490579
 20
99.360323891283571
 30
-8.0
 40
6.0
  0
CIRCLE
  5
173B
  8
0
 10
27.950127571490579
 20
99.360323891283571
 30
-8.0
 40
3.5
  0
LINE
  5
177D
  8
0
 10
73.291762243584316
 20
102.8603238912835
 30
0.0
 11
73.291762243584316
 21
95.860323891283571
 31
0.0
  0
LINE
  5
1781
  8
0
 10
74.791762243584316
 20
105.3603238912835
 30
-8.0
 11
75.791762243584316
 21
105.3603238912835
 31
-8.0
  0
LINE
  5
1782
  8
0
 10
74.791762243584316
 20
105.3603238912835
 30
0.0
 11
74.791762243584316
 21
93.360323891283585
 31
0.0
  0
LINE
  5
1783
  8
0
 10
74.791762243584316
 20
105.3603238912835
 30
0.0
 11
73.291762243584316
 21
102.8603238912835
 31
0.0
  0
LINE
  5
1784
  8
0
 10
74.791762243584316
 20
93.360323891283556
 30
0.0
 11
73.291762243584316
 21
95.860323891283556
 31
0.0
  0
LINE
  5
1786
  8
0
 10
74.791762243584316
 20
93.360323891283556
 30
-8.0
 11
75.791762243584316
 21
93.360323891283556
 31
-8.0
  0
LINE
  5
1809
  8
0
 10
74.791762243584301
 20
161.15992728475121
 30
0.0
 11
74.791762243584301
 21
149.15992728475129
 31
0.0
  0
LINE
  5
180A
  8
0
 10
73.291762243584301
 20
158.65992728475121
 30
0.0
 11
73.291762243584301
 21
151.65992728475129
 31
0.0
  0
LINE
  5
180B
  8
0
 10
74.791762243584301
 20
161.15992728475121
 30
-8.0
 11
75.791762243584301
 21
161.15992728475121
 31
-8.0
  0
LINE
  5
180C
  8
0
 10
74.791762243584301
 20
161.15992728475121
 30
0.0
 11
73.291762243584301
 21
158.65992728475121
 31
0.0
  0
LINE
  5
180D
  8
0
 10
74.791762243584301
 20
149.15992728475121
 30
0.0
 11
73.291762243584301
 21
151.65992728475121
 31
0.0
  0
LINE
  5
180E
  8
0
 10
74.791762243584301
 20
149.15992728475121
 30
-8.0
 11
75.791762243584301
 21
149.15992728475121
 31
-8.0
  0
LINE
  5
180F
  8
0
 10
74.791762243584387
 20
33.189086654924402
 30
0.0
 11
74.791762243584387
 21
21.18908665492442
 31
0.0
  0
LINE
  5
1810
  8
0
 10
73.291762243584387
 20
30.689086654924399
 30
0.0
 11
73.291762243584387
 21
23.689086654924409
 31
0.0
  0
LINE
  5
1811
  8
0
 10
74.791762243584387
 20
33.189086654924402
 30
-8.0
 11
75.791762243584387
 21
33.189086654924402
 31
-8.0
  0
LINE
  5
1812
  8
0
 10
74.791762243584387
 20
33.189086654924402
 30
0.0
 11
73.291762243584387
 21
30.689086654924399
 31
0.0
  0
LINE
  5
1813
  8
0
 10
74.791762243584387
 20
21.189086654924399
 30
0.0
 11
73.291762243584387
 21
23.689086654924399
 31
0.0
  0
LINE
  5
1814
  8
0
 10
74.791762243584387
 20
21.189086654924399
 30
-8.0
 11
75.791762243584387
 21
21.189086654924399
 31
-8.0
  0
LINE
  5
1856
  8
0
 10
94.791762243584316
 20
101.8603238912835
 30
0.0
 11
94.791762243584316
 21
96.860323891283571
 31
0.0
  0
LINE
  5
1858
  8
0
 10
92.791762243584316
 20
103.14487546029569
 30
-1.4445881524108311
 11
92.791762243584316
 21
95.360323891283556
 31
-8.0
  0
CIRCLE
  5
1859
  8
0
 10
139.63339691567799
 20
99.360323891283571
 30
-8.0
 40
4.0
  0
CIRCLE
  5
185A
  8
0
 10
139.63339691567799
 20
99.360323891283571
 30
-8.0
 40
2.5
  0
ARC
  5
185E
  8
0
 10
139.63339691567799
 20
99.360323891283571
 30
-8.0
 40
5.5
 50
316.24187843263502
 51
223.75812156736501
  0
LINE
  5
1860
  8
0
 10
93.291762243584316
 20
104.8603238912835
 30
0.0
 11
91.791762243584316
 21
104.8603238912835
 31
-8.0
  0
LINE
  5
18A7
  8
0
 10
136.7791364772971
 20
96.557968212592257
 30
-8.0
 11
136.3044863368518
 21
95.648081248171437
 31
-8.0
  0
ARC
  5
18A8
  8
0
 10
135.9498406515259
 20
95.833085134291963
 30
-8.0
 40
0.4
 50
223.7581215673645
 51
332.4508262091955
  0
ARC
  5
18A9
  8
0
 10
143.31695317983019
 20
95.833085134291963
 30
-8.0
 40
0.4
 50
207.54917379080459
 51
316.24187843263559
  0
LINE
  5
18AA
  8
0
 10
142.487657354059
 20
96.557968212592243
 30
-8.0
 11
142.9623074945043
 21
95.648081248171437
 31
-8.0
  0
ARC
  5
18ED
  8
0
 10
139.63339691567799
 20
99.360323891283571
 30
-8.0
 40
4.5
 50
57.247081898061921
 51
122.75291810193811
  0
LINE
  5
18EE
  8
0
 10
137.1988190423111
 20
104.2921420731017
 30
-8.0
 11
137.1988190423111
 21
103.14487546029569
 31
-8.0
  0
LINE
  5
18EF
  8
0
 10
142.06797478904491
 20
104.2921420731017
 30
-8.0
 11
142.06797478904491
 21
103.14487546029569
 31
-8.0
  0
LINE
  5
1931
  8
0
 10
91.791762243584316
 20
95.433085134291943
 30
-8.0
 11
92.791762243584316
 21
95.433085134291943
 31
-8.0
  0
LINE
  5
1973
  8
0
 10
93.791762243584316
 20
103.3603238912835
 30
-8.0
 11
93.791762243584316
 21
95.360323891283556
 31
-8.0
  0
LINE
  5
1975
  8
0
 10
93.791762243584316
 20
103.3603238912835
 30
-8.0
 11
94.791762243584316
 21
101.8603238912835
 31
0.0
  0
LINE
  5
19B8
  8
0
 10
93.791762243584316
 20
95.360323891283556
 30
-8.0
 11
92.791762243584316
 21
95.360323891283556
 31
-8.0
  0
LINE
  5
19B9
  8
0
 10
93.791762243584316
 20
103.3603238912835
 30
-8.0
 11
93.291762243584316
 21
103.3603238912835
 31
-8.0
  0
LINE
  5
19FD
  8
0
 10
93.791762243584316
 20
95.360323891283556
 30
-8.0
 11
94.791762243584316
 21
96.860323891283571
 31
0.0
  0
LINE
  5
1A3F
  8
0
 10
94.791762243584245
 20
157.65992728475121
 30
0.0
 11
94.791762243584245
 21
152.65992728475121
 31
0.0
  0
LINE
  5
1A40
  8
0
 10
93.791762243584259
 20
159.15992728475121
 30
-8.0
 11
93.791762243584259
 21
151.15992728475121
 31
-8.0
  0
LINE
  5
1A41
  8
0
 10
93.791762243584259
 20
159.15992728475121
 30
-8.0
 11
94.791762243584245
 21
157.65992728475121
 31
0.0
  0
LINE
  5
1A42
  8
0
 10
93.791762243584259
 20
151.15992728475121
 30
-8.0
 11
92.791762243584259
 21
151.15992728475121
 31
-8.0
  0
LINE
  5
1A43
  8
0
 10
93.791762243584259
 20
159.15992728475121
 30
-8.0
 11
92.791762243584259
 21
159.15992728475121
 31
-8.0
  0
LINE
  5
1A44
  8
0
 10
93.791762243584259
 20
151.15992728475121
 30
-8.0
 11
94.791762243584245
 21
152.65992728475121
 31
0.0
  0
LINE
  5
1A5E
  8
0
 10
91.791762243584316
 20
160.65992728475121
 30
0.0
 11
92.791762243584259
 21
160.65992728475121
 31
0.0
  0
LINE
  5
1A5F
  8
0
 10
92.791762243584259
 20
157.5945051581181
 30
0.0
 11
92.791762243584259
 21
160.65992728475121
 31
0.0
  0
LINE
  5
1A60
  8
0
 10
91.791762243584316
 20
149.65992728475129
 30
0.0
 11
92.791762243584259
 21
149.65992728475129
 31
0.0
  0
LINE
  5
1A63
  8
0
 10
93.291762243584316
 20
104.8603238912835
 30
0.0
 11
93.291762243584316
 21
103.14487546029569
 31
0.0
  0
LINE
  5
1A64
  8
0
 10
93.291762243584316
 20
103.14487546029569
 30
-8.0
 11
92.791762243584316
 21
103.14487546029569
 31
-8.0
  0
LINE
  5
1AA6
  8
0
 10
93.291762243584316
 20
157.5945051581181
 30
0.0
 11
93.291762243584316
 21
152.7253494113844
 31
0.0
  0
LINE
  5
1AA7
  8
0
 10
92.791762243584259
 20
157.5945051581181
 30
0.0
 11
93.291762243584316
 21
157.5945051581181
 31
0.0
  0
LINE
  5
1AA8
  8
0
 10
92.791762243584301
 20
152.7253494113844
 30
0.0
 11
92.791762243584373
 21
149.65992728475121
 31
0.0
  0
LINE
  5
1AA9
  8
0
 10
92.791762243584301
 20
152.7253494113844
 30
0.0
 11
93.291762243584373
 21
152.7253494113844
 31
0.0
  0
LINE
  5
1AAA
  8
0
 10
94.791762243584387
 20
29.689086654924381
 30
0.0
 11
94.791762243584387
 21
24.689086654924381
 31
0.0
  0
LINE
  5
1AAB
  8
0
 10
93.791762243584387
 20
31.189086654924381
 30
-8.0
 11
93.791762243584387
 21
23.189086654924381
 31
-8.0
  0
LINE
  5
1AAC
  8
0
 10
93.791762243584387
 20
31.189086654924381
 30
-8.0
 11
94.791762243584387
 21
29.689086654924381
 31
0.0
  0
LINE
  5
1AAD
  8
0
 10
93.791762243584387
 20
23.189086654924381
 30
-8.0
 11
92.791762243584387
 21
23.189086654924381
 31
-8.0
  0
LINE
  5
1AAE
  8
0
 10
93.791762243584387
 20
31.18908665492436
 30
-8.0
 11
92.791762243584387
 21
31.18908665492436
 31
-8.0
  0
LINE
  5
1AAF
  8
0
 10
93.791762243584387
 20
23.189086654924381
 30
-8.0
 11
94.791762243584387
 21
24.689086654924381
 31
0.0
  0
LINE
  5
1AC8
  8
0
 10
91.791762243584444
 20
32.689086654924381
 30
0.0
 11
92.791762243584387
 21
32.689086654924381
 31
0.0
  0
LINE
  5
1ACA
  8
0
 10
91.791762243584444
 20
21.689086654924441
 30
0.0
 11
92.791762243584387
 21
21.689086654924441
 31
0.0
  0
LINE
  5
1ACD
  8
0
 10
92.791762243584387
 20
32.689086654924381
 30
0.0
 11
92.791762243584486
 21
21.689086654924349
 31
0.0
  0
LINE
  5
1B10
  8
0
 10
91.791762243584273
 20
30.043347093305321
 30
0.0
 11
92.791762243584415
 21
30.043347093305321
 31
0.0
  0
LINE
  5
1B13
  8
0
 10
91.791762243584415
 20
24.334826216543249
 30
0.0
 11
92.791762243584543
 21
24.334826216543291
 31
0.0
  0
TEXT
  5
1B75
  8
0
 62
     3
 10
0.0
 20
0.0
 30
0.0
 40
10.0
  1
CJR08-M08
  7
STANDARD1
  0
ENDSEC
  0
EOF
