  0
SECTION
  2
HEADER
  9
$ACADVER
  1
AC1009
  9
$INSBASE
 10
0.0
 20
0.0
 30
0.0
  9
$EXTMIN
 10
0.0
 20
-2.960436562073669
 30
-20.00170289184717
  9
$EXTMAX
 10
183.8121610594373
 20
212.0008131698284
 30
3.376537713032465
  9
$LIMMIN
 10
0.0
 20
0.0
  9
$LIMMAX
 10
187.5
 20
135.0
  9
$ORTHOMODE
 70
     1
  9
$REGENMODE
 70
     1
  9
$FILLMODE
 70
     1
  9
$QTEXTMODE
 70
     0
  9
$MIRRTEXT
 70
     0
  9
$DRAGMODE
 70
     2
  9
$LTSCALE
 40
5.0
  9
$OSMODE
 70
  3071
  9
$ATTMODE
 70
     1
  9
$TEXTSIZE
 40
0.06
  9
$TRACEWID
 40
0.05
  9
$TEXTSTYLE
  7
STANDARD
  9
$CLAYER
  8
0
  9
$CELTYPE
  6
BYLAYER
  9
$CECOLOR
 62
   256
  9
$DIMSCALE
 40
0.5
  9
$DIMASZ
 40
3.0
  9
$DIMEXO
 40
2.0
  9
$DIMDLI
 40
10.0
  9
$DIMRND
 40
0.0
  9
$DIMDLE
 40
0.0
  9
$DIMEXE
 40
2.0
  9
$DIMTP
 40
0.0
  9
$DIMTM
 40
0.0
  9
$DIMTXT
 40
3.0
  9
$DIMCEN
 40
0.0
  9
$DIMTSZ
 40
0.0
  9
$DIMTOL
 70
     0
  9
$DIMLIM
 70
     0
  9
$DIMTIH
 70
     0
  9
$DIMTOH
 70
     0
  9
$DIMSE1
 70
     0
  9
$DIMSE2
 70
     0
  9
$DIMTAD
 70
     1
  9
$DIMZIN
 70
     8
  9
$DIMBLK
  1

  9
$DIMASO
 70
     0
  9
$DIMSHO
 70
     0
  9
$DIMPOST
  1

  9
$DIMAPOST
  1

  9
$DIMALT
 70
     0
  9
$DIMALTD
 70
     2
  9
$DIMALTF
 40
25.399999999999999
  9
$DIMLFAC
 40
1.0
  9
$DIMTOFL
 70
     1
  9
$DIMTVP
 40
1.6000000000000001
  9
$DIMTIX
 70
     1
  9
$DIMSOXD
 70
     0
  9
$DIMSAH
 70
     0
  9
$DIMBLK1
  1

  9
$DIMBLK2
  1

  9
$DIMSTYLE
  2
STANDARD
  9
$DIMCLRD
 70
     0
  9
$DIMCLRE
 70
     0
  9
$DIMCLRT
 70
     0
  9
$DIMTFAC
 40
1.0
  9
$DIMGAP
 40
0.09
  9
$LUNITS
 70
     2
  9
$LUPREC
 70
     4
  9
$SKETCHINC
 40
0.1
  9
$FILLETRAD
 40
0.4
  9
$AUNITS
 70
     0
  9
$AUPREC
 70
     4
  9
$MENU
  1
E:\r13\win\SUPPORT\ACAD
  9
$ELEVATION
 40
0.0
  9
$PELEVATION
 40
0.0
  9
$THICKNESS
 40
0.0
  9
$LIMCHECK
 70
     0
  9
$BLIPMODE
 70
     0
  9
$CHAMFERA
 40
0.0
  9
$CHAMFERB
 40
0.0
  9
$SKPOLY
 70
     0
  9
$TDCREATE
 40
2449840.5914699072
  9
$TDUPDATE
 40
2456598.5895901741
  9
$TDINDWG
 40
0.3118308796
  9
$TDUSRTIMER
 40
0.3118308796
  9
$USRTIMER
 70
     1
  9
$ANGBASE
 50
0.0
  9
$ANGDIR
 70
     0
  9
$PDMODE
 70
     0
  9
$PDSIZE
 40
0.0
  9
$PLINEWID
 40
0.0
  9
$COORDS
 70
     1
  9
$SPLFRAME
 70
     0
  9
$SPLINETYPE
 70
     6
  9
$SPLINESEGS
 70
     8
  9
$ATTDIA
 70
     0
  9
$ATTREQ
 70
     1
  9
$HANDLING
 70
     1
  9
$HANDSEED
  5
1F63
  9
$SURFTAB1
 70
     6
  9
$SURFTAB2
 70
     6
  9
$SURFTYPE
 70
     6
  9
$SURFU
 70
     6
  9
$SURFV
 70
     6
  9
$UCSNAME
  2

  9
$UCSORG
 10
0.0
 20
0.0
 30
0.0
  9
$UCSXDIR
 10
1.0
 20
0.0
 30
0.0
  9
$UCSYDIR
 10
0.0
 20
1.0
 30
0.0
  9
$PUCSNAME
  2

  9
$PUCSORG
 10
0.0
 20
0.0
 30
0.0
  9
$PUCSXDIR
 10
1.0
 20
0.0
 30
0.0
  9
$PUCSYDIR
 10
0.0
 20
1.0
 30
0.0
  9
$USERI1
 70
     3
  9
$USERI2
 70
     1
  9
$USERI3
 70
     0
  9
$USERI4
 70
     0
  9
$USERI5
 70
     0
  9
$USERR1
 40
0.5
  9
$USERR2
 40
3.0
  9
$USERR3
 40
3.0
  9
$USERR4
 40
3.0
  9
$USERR5
 40
10.0
  9
$WORLDVIEW
 70
     1
  9
$SHADEDGE
 70
     3
  9
$SHADEDIF
 70
    70
  9
$TILEMODE
 70
     1
  9
$MAXACTVP
 70
    16
  9
$PLIMCHECK
 70
     0
  9
$PEXTMIN
 10
1.0000000000000000E+020
 20
1.0000000000000000E+020
 30
1.0000000000000000E+020
  9
$PEXTMAX
 10
-1.0000000000000000E+020
 20
-1.0000000000000000E+020
 30
-1.0000000000000000E+020
  9
$PLIMMIN
 10
0.0
 20
0.0
  9
$PLIMMAX
 10
12.0
 20
9.0
  9
$UNITMODE
 70
     0
  9
$VISRETAIN
 70
     0
  9
$PLINEGEN
 70
     0
  9
$PSLTSCALE
 70
     0
  0
ENDSEC
  0
SECTION
  2
TABLES
  0
TABLE
  2
VPORT
 70
     1
  0
VPORT
  2
*ACTIVE
 70
     0
 10
0.0
 20
0.0
 11
1.0
 21
1.0
 12
99.703827280276215
 22
104.5204514489683
 13
0.0
 23
0.0
 14
5.0
 24
5.0
 15
10.0
 25
10.0
 16
0.0
 26
0.0
 36
1.0
 17
0.0
 27
0.0
 37
0.0
 40
216.90167885485221
 41
1.831871345029239
 42
50.0
 43
0.0
 44
0.0
 50
0.0
 51
0.0
 71
     0
 72
   100
 73
     1
 74
     0
 75
     0
 76
     0
 77
     0
 78
     0
  0
ENDTAB
  0
TABLE
  2
LTYPE
 70
     4
  0
LTYPE
  2
CONTINUOUS
 70
     0
  3
Solid Line
 72
    65
 73
     0
 40
0.0
  0
LTYPE
  2
CENTER
 70
     0
  3
____ _ ____ _ ____ _ ____ _ ____ _ ____ _ ____
 72
    65
 73
     4
 40
2.0
 49
1.25
 49
-0.25
 49
0.25
 49
-0.25
  0
LTYPE
  2
HIDDEN
 70
     0
  3
_ _ _ _ _ _ _ _ _ _ _ _ _ _ _ _ _ _ _ _ _ _ _
 72
    65
 73
     2
 40
0.375
 49
0.25
 49
-0.125
  0
LTYPE
  2
PHANTOM2
 70
     0
  3
___ _ _ ___ _ _ ___ _ _ ___ _ _
 72
    65
 73
     6
 40
1.25
 49
0.625
 49
-0.125
 49
0.125
 49
-0.125
 49
0.125
 49
-0.125
  0
ENDTAB
  0
TABLE
  2
LAYER
 70
     4
  0
LAYER
  2
0
 70
     0
 62
     7
  6
CONTINUOUS
  0
LAYER
  2
1
 70
     0
 62
     1
  6
CENTER
  0
LAYER
  2
2
 70
     0
 62
     2
  6
HIDDEN
  0
LAYER
  2
3
 70
     0
 62
     3
  6
CONTINUOUS
  0
ENDTAB
  0
TABLE
  2
STYLE
 70
     2
  0
STYLE
  2
STANDARD
 70
     0
 40
0.0
 41
1.0
 50
0.0
 71
     0
 42
0.06
  3
TXT
  4
BIGFONT
  0
STYLE
  2
STANDARD1
 70
     0
 40
0.0
 41
1.0
 50
0.0
 71
     0
 42
3.0
  3
txt
  4

  0
ENDTAB
  0
TABLE
  2
VIEW
 70
     2
  0
VIEW
  2
OLE1
 70
     0
 40
24.514257897662329
 10
44.901529473115893
 20
103.25177669290009
 41
34.172454060781448
 11
0.0
 21
0.0
 31
1.0
 12
0.0
 22
0.0
 32
0.0
 42
50.0
 43
0.0
 44
0.0
 50
0.0
 71
     0
  0
VIEW
  2
OLE2
 70
     0
 40
111.8251716252055
 10
23.153306359535989
 20
84.753742215946431
 41
155.8823667497492
 11
0.0
 21
0.0
 31
1.0
 12
0.0
 22
0.0
 32
0.0
 42
50.0
 43
0.0
 44
0.0
 50
0.0
 71
     0
  0
ENDTAB
  0
TABLE
  2
UCS
 70
     0
  0
ENDTAB
  0
TABLE
  2
APPID
 70
     3
  0
APPID
  2
ACAD
 70
     0
  0
APPID
  2
ACAD_MLEADERVER
 70
     0
  0
APPID
  2
ACAD_NAV_VCDISPLAY
 70
     0
  0
ENDTAB
  0
TABLE
  2
DIMSTYLE
 70
     1
  0
DIMSTYLE
  2
STANDARD
 70
     0
  3

  4

  5

  6

  7

 40
1.0
 41
0.18
 42
0.0625
 43
0.38
 44
0.18
 45
0.0
 46
0.0
 47
0.0
 48
0.0
140
0.18
141
0.09
142
0.0
143
25.399999999999999
144
1.0
145
0.0
146
1.0
147
0.09
 71
     0
 72
     0
 73
     1
 74
     1
 75
     0
 76
     0
 77
     0
 78
     0
170
     0
171
     2
172
     0
173
     0
174
     0
175
     0
176
     0
177
     0
178
     0
  0
ENDTAB
  0
ENDSEC
  0
SECTION
  2
BLOCKS
  0
BLOCK
  8
0
  2
$MODEL_SPACE
 70
     0
 10
0.0
 20
0.0
 30
0.0
  3
$MODEL_SPACE
  1

  0
ENDBLK
  5
E6
  8
0
  0
BLOCK
 67
     1
  8
0
  2
$PAPER_SPACE
 70
     0
 10
0.0
 20
0.0
 30
0.0
  3
$PAPER_SPACE
  1

  0
ENDBLK
  5
E4
 67
     1
  8
0
  0
ENDSEC
  0
SECTION
  2
ENTITIES
  0
LINE
  5
15B0
  8
2
 10
93.244488340457991
 20
132.98693380483019
 30
0.0
 11
98.244488340457991
 21
132.98693380483019
 31
0.0
  0
LINE
  5
15B1
  8
0
 10
98.244488340457991
 20
132.98693380483019
 30
0.0
 11
108.24448834045801
 21
132.98693380483019
 31
0.0
  0
LINE
  5
15B4
  8
0
 10
108.24448834045801
 20
142.98693380483019
 30
0.0
 11
98.244488340457991
 21
142.98693380483019
 31
0.0
  0
LINE
  5
15CF
  8
1
 10
119.69321608316901
 20
137.98693380483019
 30
0.0
 11
86.79576059774692
 21
137.98693380483019
 31
0.0
  0
LINE
  5
15D0
  8
0
 10
112.24448834045801
 20
97.986933804830215
 30
0.0
 11
112.24448834045801
 21
112.9869338048302
 31
0.0
  0
LINE
  5
15D5
  8
0
 10
94.244488340457991
 20
112.9869338048302
 30
0.0
 11
94.244488340457991
 21
97.986933804830215
 31
0.0
  0
LINE
  5
15D7
  8
0
 10
112.24448834045801
 20
112.9869338048302
 30
0.0
 11
113.24448834045801
 21
113.3707978398656
 31
0.0
  0
LINE
  5
15D8
  8
0
 10
93.244488340457991
 20
113.3707978398656
 30
0.0
 11
94.244488340457991
 21
112.9869338048302
 31
0.0
  0
LINE
  5
15D9
  8
0
 10
98.244488340457991
 20
149.98693380483019
 30
0.0
 11
93.244488340457991
 21
147.65539551405519
 31
0.0
  0
LINE
  5
15DA
  8
2
 10
93.744488340457977
 20
142.98693380483019
 30
0.0
 11
93.244488340457991
 21
143.48693380483019
 31
0.0
  0
LINE
  5
15DB
  8
2
 10
93.244488340457991
 20
132.48693380483019
 30
0.0
 11
93.744488340457977
 21
132.98693380483019
 31
0.0
  0
LINE
  5
15DC
  8
2
 10
98.244488340457991
 20
142.98693380483019
 30
0.0
 11
93.244488340457991
 21
142.98693380483019
 31
0.0
  0
LINE
  5
15E8
  8
0
 10
112.24448834045801
 20
97.986933804830215
 30
0.0
 11
94.244488340457991
 21
97.986933804830215
 31
0.0
  0
LINE
  5
15EF
  8
0
 10
112.24448834045801
 20
112.9869338048302
 30
0.0
 11
94.244488340457991
 21
112.9869338048302
 31
0.0
  0
POLYLINE
  5
15F6
  8
0
 66
     1
 10
0.0
 20
0.0
 30
0.0
  0
VERTEX
  5
1E77
  8
0
 10
113.24448834045801
 20
114.96081473405491
 30
0.0
  0
VERTEX
  5
1E78
  8
0
 10
112.4822594020425
 20
114.758017867053
 30
0.0
  0
VERTEX
  5
1E79
  8
0
 10
111.0818526659359
 20
114.4092596468178
 30
0.0
  0
VERTEX
  5
1E7A
  8
0
 10
109.8156475866826
 20
114.125393977681
 30
0.0
  0
VERTEX
  5
1E7B
  8
0
 10
109.2232434881566
 20
114.0045526192697
 30
0.0
  0
VERTEX
  5
1E7C
  8
0
 10
108.65369367819279
 20
113.8963978764351
 30
0.0
  0
VERTEX
  5
1E7D
  8
0
 10
107.5722558426335
 20
113.7148590119947
 30
0.0
  0
VERTEX
  5
1E7E
  8
0
 10
106.5519711161823
 20
113.575312697835
 30
0.0
  0
VERTEX
  5
1E7F
  8
0
 10
105.5765481160619
 20
113.47379824101751
 30
0.0
  0
VERTEX
  5
1E80
  8
0
 10
104.6318120795579
 20
113.4075623095802
 30
0.0
  0
VERTEX
  5
1E81
  8
0
 10
103.7049694778872
 20
113.37486546646539
 30
0.0
  0
VERTEX
  5
1E82
  8
0
 10
103.24448834045801
 20
113.3707978398656
 30
0.0
  0
VERTEX
  5
1E83
  8
0
 10
102.78400720302881
 20
113.37486546646539
 30
0.0
  0
VERTEX
  5
1E84
  8
0
 10
101.85716460135799
 20
113.4075623095802
 30
0.0
  0
VERTEX
  5
1E85
  8
0
 10
100.912428564854
 20
113.47379824101751
 30
0.0
  0
VERTEX
  5
1E86
  8
0
 10
99.937005564733653
 20
113.575312697835
 30
0.0
  0
VERTEX
  5
1E87
  8
0
 10
98.916720838282487
 20
113.7148590119947
 30
0.0
  0
VERTEX
  5
1E88
  8
0
 10
97.835283002723116
 20
113.8963978764351
 30
0.0
  0
VERTEX
  5
1E89
  8
0
 10
97.265733192759313
 20
114.0045526192697
 30
0.0
  0
VERTEX
  5
1E8A
  8
0
 10
96.673329094233367
 20
114.125393977681
 30
0.0
  0
VERTEX
  5
1E8B
  8
0
 10
95.407124014980099
 20
114.4092596468178
 30
0.0
  0
VERTEX
  5
1E8C
  8
0
 10
94.006717278873424
 20
114.758017867053
 30
0.0
  0
VERTEX
  5
1E8D
  8
0
 10
93.244488340457991
 20
114.96081473405491
 30
0.0
  0
SEQEND
  5
1E8E
  8
0
  0
POLYLINE
  5
15F8
  8
0
 66
     1
 10
0.0
 20
0.0
 30
0.0
  0
VERTEX
  5
1E8F
  8
0
 10
93.244488340457991
 20
145.72388595159279
 30
0.0
  0
VERTEX
  5
1E90
  8
0
 10
94.219643290843933
 20
146.03718802089301
 30
0.0
  0
VERTEX
  5
1E91
  8
0
 10
95.972951354526515
 20
146.55291684559501
 30
0.0
  0
VERTEX
  5
1E92
  8
0
 10
97.525382312680932
 20
146.94665293088761
 30
0.0
  0
VERTEX
  5
1E93
  8
0
 10
98.244488340457991
 20
147.10499398528859
 30
0.0
  0
SEQEND
  5
1E94
  8
0
  0
LINE
  5
1601
  8
2
 10
93.744488340457977
 20
142.98693380483019
 30
0.0
 11
93.744488340457977
 21
132.98693380483019
 31
0.0
  0
LINE
  5
1606
  8
0
 10
98.244488340457991
 20
117.9869338048302
 30
0.0
 11
108.24448834045801
 21
117.9869338048302
 31
0.0
  0
LINE
  5
160C
  8
1
 10
103.24448834045801
 20
154.4356615475412
 30
0.0
 11
103.24448834045801
 21
94.53820606211913
 31
0.0
  0
POLYLINE
  5
162C
  8
0
 66
     1
 10
0.0
 20
0.0
 30
-10.0
  0
VERTEX
  5
1E95
  8
0
 10
29.125543364189731
 20
145.72388595159279
 30
-10.0
  0
VERTEX
  5
1E96
  8
0
 10
29.88777230260516
 20
145.97023810626681
 30
-10.0
  0
VERTEX
  5
1E97
  8
0
 10
31.288179038711831
 20
146.393900169125
 30
-10.0
  0
VERTEX
  5
1E98
  8
0
 10
32.5543841179651
 20
146.738732514238
 30
-10.0
  0
VERTEX
  5
1E99
  8
0
 10
33.146788216491053
 20
146.88552733142839
 30
-10.0
  0
VERTEX
  5
1E9A
  8
0
 10
33.716338026454849
 20
147.01691079079549
 30
-10.0
  0
VERTEX
  5
1E9B
  8
0
 10
34.79777586201422
 20
147.2374392983269
 30
-10.0
  0
VERTEX
  5
1E9C
  8
0
 10
35.818060588465393
 20
147.40695639037219
 30
-10.0
  0
VERTEX
  5
1E9D
  8
0
 10
36.793483588585786
 20
147.5302734096993
 30
-10.0
  0
VERTEX
  5
1E9E
  8
0
 10
37.738219625089812
 20
147.61073502958351
 30
-10.0
  0
VERTEX
  5
1E9F
  8
0
 10
38.665062226760512
 20
147.6504542711647
 30
-10.0
  0
VERTEX
  5
1EA0
  8
0
 10
39.125543364189731
 20
147.65539551405519
 30
-10.0
  0
VERTEX
  5
1EA1
  8
0
 10
39.586024501618937
 20
147.6504542711647
 30
-10.0
  0
VERTEX
  5
1EA2
  8
0
 10
40.512867103289629
 20
147.61073502958351
 30
-10.0
  0
VERTEX
  5
1EA3
  8
0
 10
41.457603139793662
 20
147.5302734096993
 30
-10.0
  0
VERTEX
  5
1EA4
  8
0
 10
42.433026139914062
 20
147.40695639037219
 30
-10.0
  0
VERTEX
  5
1EA5
  8
0
 10
43.453310866365221
 20
147.2374392983269
 30
-10.0
  0
VERTEX
  5
1EA6
  8
0
 10
44.534748701924599
 20
147.01691079079549
 30
-10.0
  0
VERTEX
  5
1EA7
  8
0
 10
45.104298511888402
 20
146.88552733142839
 30
-10.0
  0
VERTEX
  5
1EA8
  8
0
 10
45.696702610414349
 20
146.738732514238
 30
-10.0
  0
VERTEX
  5
1EA9
  8
0
 10
46.96290768966761
 20
146.393900169125
 30
-10.0
  0
VERTEX
  5
1EAA
  8
0
 10
48.363314425774263
 20
145.97023810626681
 30
-10.0
  0
VERTEX
  5
1EAB
  8
0
 10
49.125543364189717
 20
145.72388595159279
 30
-10.0
  0
SEQEND
  5
1EAC
  8
0
  0
POLYLINE
  5
162D
  8
0
 66
     1
 10
0.0
 20
0.0
 30
-10.0
  0
VERTEX
  5
1EAD
  8
0
 10
49.125543364189717
 20
147.10499398528859
 30
-10.0
  0
VERTEX
  5
1EAE
  8
0
 10
47.978911034757999
 20
147.57719581562739
 30
-10.0
  0
VERTEX
  5
1EAF
  8
0
 10
46.135155478599671
 20
148.3034937821586
 30
-10.0
  0
VERTEX
  5
1EB0
  8
0
 10
44.699689089366657
 20
148.82673056689069
 30
-10.0
  0
VERTEX
  5
1EB1
  8
0
 10
44.088252761919847
 20
149.0334518164214
 30
-10.0
  0
VERTEX
  5
1EB2
  8
0
 10
43.530820889442957
 20
149.21108273884269
 30
-10.0
  0
VERTEX
  5
1EB3
  8
0
 10
42.541951229188463
 20
149.49463971153341
 30
-10.0
  0
VERTEX
  5
1EB4
  8
0
 10
41.676360567855703
 20
149.701049850934
 30
-10.0
  0
VERTEX
  5
1EB5
  8
0
 10
40.894438536113768
 20
149.84532687614791
 30
-10.0
  0
VERTEX
  5
1EB6
  8
0
 10
40.166646287970018
 20
149.93692720529211
 30
-10.0
  0
VERTEX
  5
1EB7
  8
0
 10
39.469300838406532
 20
149.98142998064569
 30
-10.0
  0
VERTEX
  5
1EB8
  8
0
 10
39.125543364189731
 20
149.98693380483019
 30
-10.0
  0
VERTEX
  5
1EB9
  8
0
 10
38.781785889972923
 20
149.98142998064569
 30
-10.0
  0
VERTEX
  5
1EBA
  8
0
 10
38.084440440409431
 20
149.93692720529211
 30
-10.0
  0
VERTEX
  5
1EBB
  8
0
 10
37.356648192265681
 20
149.84532687614791
 30
-10.0
  0
VERTEX
  5
1EBC
  8
0
 10
36.574726160523738
 20
149.701049850934
 30
-10.0
  0
VERTEX
  5
1EBD
  8
0
 10
35.709135499190978
 20
149.49463971153341
 30
-10.0
  0
VERTEX
  5
1EBE
  8
0
 10
34.720265838936491
 20
149.21108273884269
 30
-10.0
  0
VERTEX
  5
1EBF
  8
0
 10
34.162833966459601
 20
149.0334518164214
 30
-10.0
  0
VERTEX
  5
1EC0
  8
0
 10
33.551397639012777
 20
148.82673056689069
 30
-10.0
  0
VERTEX
  5
1EC1
  8
0
 10
32.115931249779777
 20
148.3034937821586
 30
-10.0
  0
VERTEX
  5
1EC2
  8
0
 10
30.272175693621449
 20
147.57719581562739
 30
-10.0
  0
VERTEX
  5
1EC3
  8
0
 10
29.125543364189731
 20
147.10499398528859
 30
-10.0
  0
SEQEND
  5
1EC4
  8
0
  0
POLYLINE
  5
162E
  8
0
 66
     1
 10
0.0
 20
0.0
 30
-10.0
  0
VERTEX
  5
1EC5
  8
0
 10
49.125543364189717
 20
114.96081473405491
 30
-10.0
  0
VERTEX
  5
1EC6
  8
0
 10
48.363314425774291
 20
114.758017867053
 30
-10.0
  0
VERTEX
  5
1EC7
  8
0
 10
46.96290768966761
 20
114.4092596468178
 30
-10.0
  0
VERTEX
  5
1EC8
  8
0
 10
45.696702610414349
 20
114.125393977681
 30
-10.0
  0
VERTEX
  5
1EC9
  8
0
 10
45.104298511888402
 20
114.0045526192697
 30
-10.0
  0
VERTEX
  5
1ECA
  8
0
 10
44.534748701924599
 20
113.8963978764351
 30
-10.0
  0
VERTEX
  5
1ECB
  8
0
 10
43.453310866365221
 20
113.7148590119947
 30
-10.0
  0
VERTEX
  5
1ECC
  8
0
 10
42.433026139914062
 20
113.575312697835
 30
-10.0
  0
VERTEX
  5
1ECD
  8
0
 10
41.457603139793662
 20
113.47379824101751
 30
-10.0
  0
VERTEX
  5
1ECE
  8
0
 10
40.512867103289629
 20
113.4075623095802
 30
-10.0
  0
VERTEX
  5
1ECF
  8
0
 10
39.586024501618937
 20
113.37486546646539
 30
-10.0
  0
VERTEX
  5
1ED0
  8
0
 10
39.125543364189731
 20
113.3707978398656
 30
-10.0
  0
VERTEX
  5
1ED1
  8
0
 10
38.665062226760512
 20
113.37486546646539
 30
-10.0
  0
VERTEX
  5
1ED2
  8
0
 10
37.738219625089812
 20
113.4075623095802
 30
-10.0
  0
VERTEX
  5
1ED3
  8
0
 10
36.793483588585786
 20
113.47379824101751
 30
-10.0
  0
VERTEX
  5
1ED4
  8
0
 10
35.818060588465393
 20
113.575312697835
 30
-10.0
  0
VERTEX
  5
1ED5
  8
0
 10
34.79777586201422
 20
113.7148590119947
 30
-10.0
  0
VERTEX
  5
1ED6
  8
0
 10
33.716338026454849
 20
113.8963978764351
 30
-10.0
  0
VERTEX
  5
1ED7
  8
0
 10
33.146788216491053
 20
114.0045526192697
 30
-10.0
  0
VERTEX
  5
1ED8
  8
0
 10
32.5543841179651
 20
114.125393977681
 30
-10.0
  0
VERTEX
  5
1ED9
  8
0
 10
31.288179038711831
 20
114.4092596468178
 30
-10.0
  0
VERTEX
  5
1EDA
  8
0
 10
29.88777230260516
 20
114.758017867053
 30
-10.0
  0
VERTEX
  5
1EDB
  8
0
 10
29.125543364189731
 20
114.96081473405491
 30
-10.0
  0
SEQEND
  5
1EDC
  8
0
  0
LINE
  5
162F
  8
0
 10
48.125543364189731
 20
112.9869338048302
 30
-10.0
 11
30.125543364189721
 21
112.9869338048302
 31
-10.0
  0
LINE
  5
1636
  8
0
 10
48.125543364189731
 20
97.986933804830187
 30
-10.0
 11
30.125543364189721
 21
97.986933804830187
 31
-10.0
  0
LINE
  5
163D
  8
0
 10
29.125543364189731
 20
113.3707978398656
 30
-10.0
 11
30.125543364189721
 21
112.9869338048302
 31
-10.0
  0
LINE
  5
163E
  8
0
 10
48.125543364189731
 20
112.9869338048302
 30
-10.0
 11
49.125543364189717
 21
113.3707978398656
 31
-10.0
  0
LINE
  5
16A2
  8
2
 10
98.244488340457963
 20
200.55208542711731
 30
0.0
 11
93.244488340457963
 21
200.55208542711731
 31
0.0
  0
LINE
  5
16A3
  8
0
 10
108.24448834045791
 20
200.55208542711731
 30
0.0
 11
98.244488340457963
 21
200.55208542711731
 31
0.0
  0
LINE
  5
16A6
  8
0
 10
98.244488340457963
 20
190.55208542711731
 30
0.0
 11
108.24448834045791
 21
190.55208542711731
 31
0.0
  0
LINE
  5
17F4
  8
0
 10
108.24448834045801
 20
117.9869338048302
 30
0.0
 11
108.24448834045801
 21
149.98693380483019
 31
0.0
  0
LINE
  5
17F5
  8
0
 10
98.244488340457991
 20
117.9869338048302
 30
0.0
 11
98.244488340457991
 21
149.98693380483019
 31
0.0
  0
LINE
  5
17F7
  8
0
 10
93.244488340457991
 20
113.3707978398656
 30
0.0
 11
93.244488340457991
 21
147.65539551405519
 31
0.0
  0
LINE
  5
17F8
  8
2
 10
112.74448834045801
 20
142.98693380483019
 30
0.0
 11
112.74448834045801
 21
132.98693380483019
 31
0.0
  0
POLYLINE
  5
17F9
  8
0
 66
     1
 10
0.0
 20
0.0
 30
0.0
  0
VERTEX
  5
1EDD
  8
0
 10
113.24448834045801
 20
145.72388595159279
 30
0.0
  0
VERTEX
  5
1EDE
  8
0
 10
112.26933339007201
 20
146.03718802089301
 30
0.0
  0
VERTEX
  5
1EDF
  8
0
 10
110.5160253263894
 20
146.55291684559501
 30
0.0
  0
VERTEX
  5
1EE0
  8
0
 10
108.96359436823499
 20
146.94665293088761
 30
0.0
  0
VERTEX
  5
1EE1
  8
0
 10
108.24448834045801
 20
147.10499398528859
 30
0.0
  0
SEQEND
  5
1EE2
  8
0
  0
LINE
  5
17FA
  8
2
 10
108.24448834045801
 20
142.98693380483019
 30
0.0
 11
113.24448834045801
 21
142.98693380483019
 31
0.0
  0
LINE
  5
17FB
  8
2
 10
113.24448834045801
 20
132.48693380483019
 30
0.0
 11
112.74448834045801
 21
132.98693380483019
 31
0.0
  0
LINE
  5
17FC
  8
2
 10
112.74448834045801
 20
142.98693380483019
 30
0.0
 11
113.24448834045801
 21
143.48693380483019
 31
0.0
  0
LINE
  5
17FD
  8
0
 10
108.24448834045801
 20
149.98693380483019
 30
0.0
 11
113.24448834045801
 21
147.65539551405519
 31
0.0
  0
LINE
  5
17FE
  8
2
 10
113.24448834045801
 20
132.98693380483019
 30
0.0
 11
108.24448834045801
 21
132.98693380483019
 31
0.0
  0
LINE
  5
1819
  8
0
 10
29.125543364189731
 20
113.3707978398656
 30
-10.0
 11
29.125543364189731
 21
147.10499398528859
 31
-10.0
  0
LINE
  5
181A
  8
0
 10
49.125543364189717
 20
113.3707978398656
 30
-10.0
 11
49.125543364189717
 21
147.10499398528859
 31
-10.0
  0
LINE
  5
181B
  8
1
 10
39.125543364189731
 20
154.4356615475412
 30
-10.0
 11
39.125543364189731
 21
94.538206062119116
 31
-10.0
  0
LINE
  5
181C
  8
1
 10
55.574271106900788
 20
137.98693380483019
 30
-10.0
 11
22.676815621478649
 21
137.98693380483019
 31
-10.0
  0
LINE
  5
1825
  8
0
 10
93.244488340457963
 20
205.55208542711731
 30
0.0
 11
113.24448834045791
 21
205.55208542711731
 31
0.0
  0
LINE
  5
1826
  8
0
 10
93.244488340457963
 20
185.55208542711731
 30
0.0
 11
113.24448834045791
 21
185.55208542711731
 31
0.0
  0
LINE
  5
1827
  8
0
 10
93.244488340457963
 20
205.55208542711731
 30
0.0
 11
93.244488340457963
 21
185.55208542711731
 31
0.0
  0
LINE
  5
1907
  8
1
 10
103.24448834045791
 20
212.0008131698284
 30
0.0
 11
103.24448834045791
 21
179.10335768440621
 31
0.0
  0
LINE
  5
1908
  8
1
 10
119.69321608316901
 20
195.55208542711731
 30
0.0
 11
86.795760597746892
 21
195.55208542711731
 31
0.0
  0
LINE
  5
197E
  8
1
 10
86.795760597746892
 20
52.421782182543041
 30
-10.0
 11
119.69321608316901
 21
52.421782182543033
 31
-10.0
  0
LINE
  5
197F
  8
1
 10
103.24448834045791
 20
35.973054439831969
 30
-10.0
 11
103.24448834045791
 21
68.870509925254112
 31
-10.0
  0
CIRCLE
  5
19FD
  8
0
 10
103.24448834045791
 20
52.421782182543041
 30
0.0
 40
4.3235000000000241
  0
CIRCLE
  5
1A06
  8
0
 10
103.24448834045791
 20
52.421782182543041
 30
-10.0
 40
9.0
  0
LINE
  5
1A34
  8
0
 10
93.244488340457963
 20
62.421782182543041
 30
-10.0
 11
113.24448834045791
 21
62.421782182543041
 31
-10.0
  0
LINE
  5
1A35
  8
0
 10
93.244488340457963
 20
42.421782182543041
 30
-10.0
 11
93.244488340457963
 21
62.421782182543041
 31
-10.0
  0
LINE
  5
1A48
  8
0
 10
98.244488340457963
 20
205.55208542711731
 30
0.0
 11
98.244488340457963
 21
185.55208542711731
 31
0.0
  0
LINE
  5
1A49
  8
0
 10
108.24448834045791
 20
205.55208542711731
 30
0.0
 11
108.24448834045791
 21
185.55208542711731
 31
0.0
  0
LINE
  5
1A4B
  8
2
 10
98.244488340457963
 20
190.55208542711731
 30
0.0
 11
93.244488340457963
 21
190.55208542711731
 31
0.0
  0
LINE
  5
1A4C
  8
0
 10
113.24448834045791
 20
205.55208542711731
 30
0.0
 11
113.24448834045791
 21
185.55208542711731
 31
0.0
  0
LINE
  5
1A4E
  8
2
 10
108.24448834045791
 20
190.55208542711731
 30
0.0
 11
113.24448834045791
 21
190.55208542711731
 31
0.0
  0
LINE
  5
1A4F
  8
2
 10
108.24448834045791
 20
200.55208542711731
 30
0.0
 11
113.24448834045791
 21
200.55208542711731
 31
0.0
  0
CIRCLE
  5
1A74
  8
3
 10
103.24448834045791
 20
52.421782182543041
 30
-10.0
 40
5.0
  0
LINE
  5
1B2E
  8
2
 10
98.244488340457991
 20
117.9869338048302
 30
0.0
 11
98.920988340457995
 21
117.3104338048302
 31
0.0
  0
LINE
  5
1B2F
  8
2
 10
98.920988340457995
 20
117.3104338048302
 30
0.0
 11
98.920988340457995
 21
98.663433804830206
 31
0.0
  0
LINE
  5
1B30
  8
2
 10
107.567988340458
 20
117.3104338048302
 30
0.0
 11
98.920988340457995
 21
117.3104338048302
 31
0.0
  0
LINE
  5
1B31
  8
2
 10
98.244488340457991
 20
97.986933804830215
 30
0.0
 11
98.244488340457991
 21
117.9869338048302
 31
0.0
  0
LINE
  5
1B32
  8
2
 10
107.567988340458
 20
117.3104338048302
 30
0.0
 11
108.24448834045801
 21
117.9869338048302
 31
0.0
  0
LINE
  5
1B33
  8
2
 10
107.567988340458
 20
98.663433804830206
 30
0.0
 11
107.567988340458
 21
117.3104338048302
 31
0.0
  0
LINE
  5
1B34
  8
2
 10
108.24448834045801
 20
97.986933804830215
 30
0.0
 11
108.24448834045801
 21
117.9869338048302
 31
0.0
  0
LINE
  5
1B35
  8
2
 10
108.24448834045801
 20
97.986933804830215
 30
0.0
 11
107.567988340458
 21
98.663433804830206
 31
0.0
  0
LINE
  5
1B36
  8
2
 10
98.920988340457995
 20
98.663433804830206
 30
0.0
 11
98.244488340457991
 21
97.986933804830215
 31
0.0
  0
LINE
  5
1B38
  8
2
 10
107.567988340458
 20
98.663433804830206
 30
0.0
 11
98.920988340457995
 21
98.663433804830206
 31
0.0
  0
LINE
  5
1BB4
  8
0
 10
30.125543364189721
 20
112.9869338048302
 30
-10.0
 11
30.125543364189721
 21
97.986933804830187
 31
-9.9999999999999964
  0
LINE
  5
1BB5
  8
0
 10
48.125543364189731
 20
112.9869338048302
 30
-10.0
 11
48.125543364189717
 21
97.986933804830187
 31
-9.9999999999999964
  0
LINE
  5
1BB6
  8
0
 10
113.24448834045801
 20
147.65539551405519
 30
0.0
 11
113.24448834045801
 21
113.3707978398656
 31
0.0
  0
LINE
  5
1BBF
  8
0
 10
93.244488340457963
 20
42.421782182543041
 30
-10.0
 11
113.24448834045791
 21
42.421782182543041
 31
-10.0
  0
LINE
  5
1BC0
  8
0
 10
113.24448834045791
 20
42.421782182543041
 30
-10.0
 11
113.24448834045791
 21
62.421782182543041
 31
-10.0
  0
LINE
  5
1BC9
  8
0
 10
158.3634333167262
 20
112.9869338048302
 30
-10.0
 11
158.3634333167262
 21
97.986933804830187
 31
-9.9999999999999964
  0
LINE
  5
1BCA
  8
0
 10
176.3634333167262
 20
112.9869338048302
 30
-10.0
 11
176.3634333167262
 21
97.986933804830187
 31
-9.9999999999999964
  0
LINE
  5
1BCB
  8
1
 10
150.9147055740151
 20
137.98693380483019
 30
-10.0
 11
183.8121610594373
 21
137.98693380483019
 31
-10.0
  0
LINE
  5
1BCC
  8
1
 10
167.3634333167262
 20
154.4356615475412
 30
-10.0
 11
167.3634333167262
 21
94.538206062119116
 31
-10.0
  0
LINE
  5
1BCD
  8
0
 10
157.3634333167262
 20
113.3707978398656
 30
-10.0
 11
157.3634333167262
 21
147.10499398528859
 31
-10.0
  0
LINE
  5
1BCE
  8
0
 10
177.3634333167262
 20
113.3707978398656
 30
-10.0
 11
177.3634333167262
 21
147.10499398528859
 31
-10.0
  0
LINE
  5
1BD0
  8
0
 10
158.3634333167262
 20
112.9869338048302
 30
-10.0
 11
157.3634333167262
 21
113.3707978398656
 31
-10.0
  0
LINE
  5
1BD1
  8
0
 10
177.3634333167262
 20
113.3707978398656
 30
-10.0
 11
176.3634333167262
 21
112.9869338048302
 31
-10.0
  0
LINE
  5
1BD2
  8
0
 10
158.3634333167262
 20
97.986933804830187
 30
-10.0
 11
176.3634333167262
 21
97.986933804830187
 31
-10.0
  0
LINE
  5
1BD3
  8
0
 10
158.3634333167262
 20
112.9869338048302
 30
-10.0
 11
176.3634333167262
 21
112.9869338048302
 31
-10.0
  0
POLYLINE
  5
1BD4
  8
0
 66
     1
 10
0.0
 20
0.0
 30
-10.0
  0
VERTEX
  5
1EE3
  8
0
 10
157.3634333167262
 20
114.96081473405491
 30
-10.0
  0
VERTEX
  5
1EE4
  8
0
 10
158.12566225514161
 20
114.758017867053
 30
-10.0
  0
VERTEX
  5
1EE5
  8
0
 10
159.52606899124831
 20
114.4092596468178
 30
-10.0
  0
VERTEX
  5
1EE6
  8
0
 10
160.79227407050161
 20
114.125393977681
 30
-10.0
  0
VERTEX
  5
1EE7
  8
0
 10
161.3846781690275
 20
114.0045526192697
 30
-10.0
  0
VERTEX
  5
1EE8
  8
0
 10
161.9542279789913
 20
113.8963978764351
 30
-10.0
  0
VERTEX
  5
1EE9
  8
0
 10
163.0356658145507
 20
113.7148590119947
 30
-10.0
  0
VERTEX
  5
1EEA
  8
0
 10
164.05595054100189
 20
113.575312697835
 30
-10.0
  0
VERTEX
  5
1EEB
  8
0
 10
165.03137354112229
 20
113.47379824101751
 30
-10.0
  0
VERTEX
  5
1EEC
  8
0
 10
165.97610957762629
 20
113.4075623095802
 30
-10.0
  0
VERTEX
  5
1EED
  8
0
 10
166.90295217929699
 20
113.37486546646539
 30
-10.0
  0
VERTEX
  5
1EEE
  8
0
 10
167.3634333167262
 20
113.3707978398656
 30
-10.0
  0
VERTEX
  5
1EEF
  8
0
 10
167.82391445415541
 20
113.37486546646539
 30
-10.0
  0
VERTEX
  5
1EF0
  8
0
 10
168.75075705582611
 20
113.4075623095802
 30
-10.0
  0
VERTEX
  5
1EF1
  8
0
 10
169.69549309233011
 20
113.47379824101751
 30
-10.0
  0
VERTEX
  5
1EF2
  8
0
 10
170.67091609245051
 20
113.575312697835
 30
-10.0
  0
VERTEX
  5
1EF3
  8
0
 10
171.69120081890171
 20
113.7148590119947
 30
-10.0
  0
VERTEX
  5
1EF4
  8
0
 10
172.7726386544611
 20
113.8963978764351
 30
-10.0
  0
VERTEX
  5
1EF5
  8
0
 10
173.34218846442491
 20
114.0045526192697
 30
-10.0
  0
VERTEX
  5
1EF6
  8
0
 10
173.9345925629508
 20
114.125393977681
 30
-10.0
  0
VERTEX
  5
1EF7
  8
0
 10
175.20079764220409
 20
114.4092596468178
 30
-10.0
  0
VERTEX
  5
1EF8
  8
0
 10
176.6012043783108
 20
114.758017867053
 30
-10.0
  0
VERTEX
  5
1EF9
  8
0
 10
177.3634333167262
 20
114.96081473405491
 30
-10.0
  0
SEQEND
  5
1EFA
  8
0
  0
POLYLINE
  5
1BD5
  8
0
 66
     1
 10
0.0
 20
0.0
 30
-10.0
  0
VERTEX
  5
1EFB
  8
0
 10
157.3634333167262
 20
147.10499398528859
 30
-10.0
  0
VERTEX
  5
1EFC
  8
0
 10
158.5100656461579
 20
147.57719581562739
 30
-10.0
  0
VERTEX
  5
1EFD
  8
0
 10
160.35382120231631
 20
148.3034937821586
 30
-10.0
  0
VERTEX
  5
1EFE
  8
0
 10
161.78928759154931
 20
148.82673056689069
 30
-10.0
  0
VERTEX
  5
1EFF
  8
0
 10
162.40072391899611
 20
149.0334518164214
 30
-10.0
  0
VERTEX
  5
1F00
  8
0
 10
162.95815579147299
 20
149.21108273884269
 30
-10.0
  0
VERTEX
  5
1F01
  8
0
 10
163.94702545172751
 20
149.49463971153341
 30
-10.0
  0
VERTEX
  5
1F02
  8
0
 10
164.81261611306019
 20
149.701049850934
 30
-10.0
  0
VERTEX
  5
1F03
  8
0
 10
165.59453814480219
 20
149.84532687614791
 30
-10.0
  0
VERTEX
  5
1F04
  8
0
 10
166.3223303929459
 20
149.93692720529211
 30
-10.0
  0
VERTEX
  5
1F05
  8
0
 10
167.0196758425094
 20
149.98142998064569
 30
-10.0
  0
VERTEX
  5
1F06
  8
0
 10
167.3634333167262
 20
149.98693380483019
 30
-10.0
  0
VERTEX
  5
1F07
  8
0
 10
167.707190790943
 20
149.98142998064569
 30
-10.0
  0
VERTEX
  5
1F08
  8
0
 10
168.4045362405065
 20
149.93692720529211
 30
-10.0
  0
VERTEX
  5
1F09
  8
0
 10
169.13232848865019
 20
149.84532687614791
 30
-10.0
  0
VERTEX
  5
1F0A
  8
0
 10
169.91425052039219
 20
149.701049850934
 30
-10.0
  0
VERTEX
  5
1F0B
  8
0
 10
170.779841181725
 20
149.49463971153341
 30
-10.0
  0
VERTEX
  5
1F0C
  8
0
 10
171.76871084197941
 20
149.21108273884269
 30
-10.0
  0
VERTEX
  5
1F0D
  8
0
 10
172.3261427144563
 20
149.0334518164214
 30
-10.0
  0
VERTEX
  5
1F0E
  8
0
 10
172.93757904190321
 20
148.82673056689069
 30
-10.0
  0
VERTEX
  5
1F0F
  8
0
 10
174.37304543113621
 20
148.3034937821586
 30
-10.0
  0
VERTEX
  5
1F10
  8
0
 10
176.2168009872945
 20
147.57719581562739
 30
-10.0
  0
VERTEX
  5
1F11
  8
0
 10
177.3634333167262
 20
147.10499398528859
 30
-10.0
  0
SEQEND
  5
1F12
  8
0
  0
POLYLINE
  5
1BD6
  8
0
 66
     1
 10
0.0
 20
0.0
 30
-10.0
  0
VERTEX
  5
1F13
  8
0
 10
177.3634333167262
 20
145.72388595159279
 30
-10.0
  0
VERTEX
  5
1F14
  8
0
 10
176.6012043783108
 20
145.97023810626681
 30
-10.0
  0
VERTEX
  5
1F15
  8
0
 10
175.20079764220409
 20
146.393900169125
 30
-10.0
  0
VERTEX
  5
1F16
  8
0
 10
173.9345925629508
 20
146.738732514238
 30
-10.0
  0
VERTEX
  5
1F17
  8
0
 10
173.34218846442491
 20
146.88552733142839
 30
-10.0
  0
VERTEX
  5
1F18
  8
0
 10
172.7726386544611
 20
147.01691079079549
 30
-10.0
  0
VERTEX
  5
1F19
  8
0
 10
171.69120081890171
 20
147.2374392983269
 30
-10.0
  0
VERTEX
  5
1F1A
  8
0
 10
170.67091609245051
 20
147.40695639037219
 30
-10.0
  0
VERTEX
  5
1F1B
  8
0
 10
169.69549309233011
 20
147.5302734096993
 30
-10.0
  0
VERTEX
  5
1F1C
  8
0
 10
168.75075705582611
 20
147.61073502958351
 30
-10.0
  0
VERTEX
  5
1F1D
  8
0
 10
167.82391445415541
 20
147.6504542711647
 30
-10.0
  0
VERTEX
  5
1F1E
  8
0
 10
167.3634333167262
 20
147.65539551405519
 30
-10.0
  0
VERTEX
  5
1F1F
  8
0
 10
166.90295217929699
 20
147.6504542711647
 30
-10.0
  0
VERTEX
  5
1F20
  8
0
 10
165.97610957762629
 20
147.61073502958351
 30
-10.0
  0
VERTEX
  5
1F21
  8
0
 10
165.03137354112229
 20
147.5302734096993
 30
-10.0
  0
VERTEX
  5
1F22
  8
0
 10
164.05595054100189
 20
147.40695639037219
 30
-10.0
  0
VERTEX
  5
1F23
  8
0
 10
163.0356658145507
 20
147.2374392983269
 30
-10.0
  0
VERTEX
  5
1F24
  8
0
 10
161.9542279789913
 20
147.01691079079549
 30
-10.0
  0
VERTEX
  5
1F25
  8
0
 10
161.3846781690275
 20
146.88552733142839
 30
-10.0
  0
VERTEX
  5
1F26
  8
0
 10
160.79227407050161
 20
146.738732514238
 30
-10.0
  0
VERTEX
  5
1F27
  8
0
 10
159.52606899124831
 20
146.393900169125
 30
-10.0
  0
VERTEX
  5
1F28
  8
0
 10
158.12566225514169
 20
145.97023810626681
 30
-10.0
  0
VERTEX
  5
1F29
  8
0
 10
157.3634333167262
 20
145.72388595159279
 30
-10.0
  0
SEQEND
  5
1F2A
  8
0
  0
LINE
  5
1D93
  8
0
 10
89.744488340457977
 20
133.9820607863669
 30
-7.2026715877140717
 11
89.744488340457977
 21
141.98693380483019
 31
-10.0
  0
LINE
  5
1D94
  8
0
 10
91.744488340457949
 20
130.48693380483019
 30
0.0
 11
91.744488340457977
 21
145.48693380483019
 31
0.0
  0
LINE
  5
1D95
  8
0
 10
114.544488340458
 20
142.4858225565111
 30
-10.0
 11
114.544488340458
 21
132.79356332763109
 31
0.0
  0
LINE
  5
1D96
  8
0
 10
116.74448834045801
 20
141.48449729559849
 30
0.0
 11
116.74448834045801
 21
134.48449729559849
 31
0.0
  0
LINE
  5
1D97
  8
0
 10
115.74448834045801
 20
142.98449729559849
 30
-10.0
 11
115.74448834045801
 21
132.98449729559849
 31
-6.6234622869675341
  0
CIRCLE
  5
1D98
  8
0
 10
39.12554336418971
 20
137.98693380483019
 30
-10.0
 40
7.5
  0
CIRCLE
  5
1D99
  8
0
 10
39.12554336418971
 20
137.98693380483019
 30
-10.0
 40
4.0
  0
CIRCLE
  5
1D9A
  8
0
 10
167.3634333167262
 20
137.98693380483019
 30
-10.0
 40
5.0
  0
LINE
  5
1D9B
  8
0
 10
91.744488340457977
 20
145.48693380483019
 30
-10.0
 11
93.244488340457977
 21
145.48693380483019
 31
-10.0
  0
LINE
  5
1D9C
  8
0
 10
91.744488340457977
 20
130.48693380483019
 30
-10.0
 11
93.244488340457977
 21
130.48693380483019
 31
-10.0
  0
ARC
  5
1D9D
  8
0
 10
167.363433316726
 20
137.98693380483019
 30
-10.0
 40
6.9999999999999503
 50
313.4255458799322
 51
226.57445412007169
  0
ARC
  5
1D9E
  8
0
 10
167.363433316726
 20
137.98693380483019
 30
-10.0
 40
5.6999999999999504
 50
52.118158541897898
 51
127.8818414581005
  0
ARC
  5
1D9F
  8
0
 10
162.82651812374391
 20
133.1935633276311
 30
-10.0
 40
0.4
 50
226.57445412006771
 51
339.63286127384998
  0
LINE
  5
1DA0
  8
0
 10
163.74980456934099
 20
134.53125915636119
 30
-10.0
 11
163.20151082551919
 21
133.05434955814229
 31
-10.0
  0
ARC
  5
1DA1
  8
0
 10
171.90034850970849
 20
133.1935633276311
 30
-10.0
 40
0.4
 50
200.36713872614999
 51
313.4255458799322
  0
LINE
  5
1DA2
  8
0
 10
170.97706206411141
 20
134.53125915636119
 30
-10.0
 11
171.52535580793321
 21
133.05434955814229
 31
-10.0
  0
CIRCLE
  5
1DA3
  8
0
 10
167.3634333167262
 20
137.98693380483019
 30
-10.0
 40
3.5
  0
LINE
  5
1DA4
  8
0
 10
163.8634333167262
 20
142.4858225565111
 30
-10.0
 11
163.8634333167262
 21
144.0491116313213
 31
-10.0
  0
LINE
  5
1DA5
  8
0
 10
170.8634333167262
 20
142.4858225565109
 30
-10.0
 11
170.8634333167262
 21
144.04911163132121
 31
-10.0
  0
LINE
  5
1DA6
  8
0
 10
115.74448834045801
 20
142.98449729559849
 30
-10.0
 11
116.74448834045801
 21
141.48449729559849
 31
0.0
  0
LINE
  5
1DA7
  8
0
 10
115.74448834045801
 20
132.98449729559849
 30
-10.0
 11
116.74448834045801
 21
134.48449729559849
 31
0.0
  0
LINE
  5
1DA8
  8
0
 10
91.744488340457977
 20
145.48693380483019
 30
0.0
 11
89.744488340457977
 21
141.99180682329339
 31
-10.00170289184717
  0
LINE
  5
1DA9
  8
0
 10
91.744488340457977
 20
130.48693380483019
 30
0.0
 11
89.744488340457977
 21
133.9820607863669
 31
-10.00170289184717
  0
LINE
  5
1DAA
  8
0
 10
115.24448834045791
 20
142.98449729559849
 30
-0.0000000000000027
 11
115.74448834045801
 21
142.98449729559849
 31
-10.0
  0
LINE
  5
1DAB
  8
0
 10
115.74448834045801
 20
132.98449729559849
 30
-6.6234622869675341
 11
114.544488340458
 21
132.98449729559849
 31
3.376537713032465
  0
LINE
  5
1DAC
  8
0
 10
113.24448834045791
 20
144.98693380483019
 30
-10.0
 11
115.24448834045801
 21
144.9869338048301
 31
0.0000000000000036
  0
LINE
  5
1DAD
  8
0
 10
114.544488340458
 20
132.79356332763109
 30
-10.0
 11
113.24448834045791
 21
132.79356332763109
 31
-10.0
  0
LINE
  5
1DAE
  8
0
 10
115.24448834045791
 20
142.4858225565111
 30
-10.0
 11
114.544488340458
 21
142.4858225565111
 31
-10.0
  0
LINE
  5
1DAF
  8
0
 10
115.24448834045801
 20
144.9869338048301
 30
0.0000000000000036
 11
115.24448834045801
 21
142.4858225565111
 31
-9.9999999999999858
  0
LINE
  5
1DB0
  8
0
 10
89.744488340457977
 20
191.5472124086541
 30
-7.2026715877140717
 11
89.744488340457977
 21
199.55208542711731
 31
-10.0
  0
LINE
  5
1DB1
  8
0
 10
91.744488340457949
 20
188.05208542711731
 30
0.0
 11
91.744488340457977
 21
203.05208542711731
 31
0.0
  0
LINE
  5
1DB2
  8
0
 10
91.744488340457977
 20
203.05208542711731
 30
-10.0
 11
93.244488340457977
 21
203.05208542711731
 31
-10.0
  0
LINE
  5
1DB3
  8
0
 10
91.744488340457977
 20
188.05208542711731
 30
-10.0
 11
93.244488340457977
 21
188.05208542711731
 31
-10.0
  0
LINE
  5
1DB4
  8
0
 10
91.744488340457977
 20
203.05208542711731
 30
0.0
 11
89.744488340457977
 21
199.55695844558051
 31
-10.00170289184717
  0
LINE
  5
1DB5
  8
0
 10
91.744488340457977
 20
188.05208542711731
 30
0.0
 11
89.744488340457977
 21
191.5472124086541
 31
-10.00170289184717
  0
LINE
  5
1DB6
  8
0
 10
89.744488340457934
 20
48.416909164079811
 30
-17.202671587714072
 11
89.744488340457934
 21
56.421782182543041
 31
-20.0
  0
LINE
  5
1DB7
  8
0
 10
91.744488340457934
 20
44.921782182543041
 30
-10.0
 11
91.744488340457949
 21
59.921782182543041
 31
-10.0
  0
LINE
  5
1DB8
  8
0
 10
91.744488340457949
 20
59.921782182543041
 30
-20.0
 11
93.244488340457934
 21
59.921782182543041
 31
-20.0
  0
LINE
  5
1DB9
  8
0
 10
91.744488340457949
 20
44.921782182543041
 30
-20.0
 11
93.244488340457934
 21
44.921782182543041
 31
-20.0
  0
LINE
  5
1DBA
  8
0
 10
91.744488340457949
 20
59.921782182543041
 30
-10.0
 11
89.744488340457934
 21
56.42665520100627
 31
-20.00170289184717
  0
LINE
  5
1DBB
  8
0
 10
91.744488340457949
 20
44.921782182543041
 30
-10.0
 11
89.744488340457934
 21
48.416909164079811
 31
-20.00170289184717
  0
LINE
  5
1DBC
  8
0
 10
115.24448834045801
 20
199.05208542711731
 30
0.0000000000000036
 11
115.24448834045801
 21
192.05208542711731
 31
0.0000000000000036
  0
LINE
  5
1DBD
  8
0
 10
114.544488340458
 20
202.55208542711719
 30
-10.0
 11
114.544488340458
 21
199.05208542711731
 31
-10.0
  0
LINE
  5
1DBE
  8
0
 10
114.544488340458
 20
202.55208542711719
 30
0.0
 11
113.24448834045791
 21
202.55208542711719
 31
0.0
  0
LINE
  5
1DBF
  8
0
 10
115.24448834045801
 20
199.05208542711731
 30
0.0
 11
114.544488340458
 21
199.05208542711731
 31
0.0
  0
LINE
  5
1DC0
  8
0
 10
114.544488340458
 20
188.5520854271175
 30
-10.0
 11
114.544488340458
 21
192.05208542711731
 31
-10.0
  0
LINE
  5
1DC1
  8
0
 10
114.544488340458
 20
188.5520854271175
 30
0.0
 11
113.24448834045791
 21
188.5520854271175
 31
0.0
  0
LINE
  5
1DC2
  8
0
 10
115.24448834045801
 20
192.05208542711731
 30
0.0
 11
114.544488340458
 21
192.05208542711731
 31
0.0
  0
LINE
  5
1DC3
  8
0
 10
116.74448834045801
 20
199.04964891788569
 30
0.0
 11
116.74448834045801
 21
192.04964891788569
 31
0.0
  0
LINE
  5
1DC4
  8
0
 10
115.74448834045801
 20
200.54964891788569
 30
-10.0
 11
115.74448834045801
 21
190.54964891788569
 31
-6.6234622869675341
  0
LINE
  5
1DC5
  8
0
 10
115.74448834045801
 20
200.54964891788569
 30
-10.0
 11
116.74448834045801
 21
199.04964891788569
 31
0.0
  0
LINE
  5
1DC6
  8
0
 10
115.74448834045801
 20
190.54964891788569
 30
-10.0
 11
116.74448834045801
 21
192.04964891788569
 31
0.0
  0
LINE
  5
1DC7
  8
0
 10
114.544488340458
 20
200.54964891788569
 30
-10.0
 11
115.74448834045801
 21
200.54964891788569
 31
-10.0
  0
LINE
  5
1DC8
  8
0
 10
115.74448834045801
 20
190.54964891788569
 30
-6.6234622869675341
 11
114.544488340458
 21
190.54964891788569
 31
3.376537713032465
  0
LINE
  5
1DC9
  8
0
 10
114.5444883404579
 20
59.42178218254287
 30
-10.0
 11
113.24448834045791
 21
59.42178218254287
 31
-10.0
  0
LINE
  5
1DCA
  8
0
 10
114.5444883404579
 20
45.421782182543211
 30
-20.0
 11
114.5444883404579
 21
59.42178218254287
 31
-10.0
  0
LINE
  5
1DCB
  8
0
 10
114.5444883404579
 20
45.421782182543211
 30
-10.0
 11
113.24448834045791
 21
45.421782182543211
 31
-10.0
  0
LINE
  5
1DCC
  8
0
 10
116.74448834045791
 20
55.919345673311398
 30
-10.0
 11
116.74448834045791
 21
48.919345673311447
 31
-10.0
  0
LINE
  5
1DCD
  8
0
 10
115.74448834045791
 20
57.41934567331139
 30
-20.0
 11
115.74448834045791
 21
47.41934567331139
 31
-16.623462286967541
  0
LINE
  5
1DCE
  8
0
 10
115.74448834045791
 20
57.41934567331139
 30
-20.0
 11
116.74448834045791
 21
55.919345673311398
 31
-10.0
  0
LINE
  5
1DCF
  8
0
 10
115.74448834045791
 20
47.41934567331139
 30
-20.0
 11
116.74448834045791
 21
48.919345673311398
 31
-10.0
  0
LINE
  5
1DD0
  8
0
 10
114.5444883404579
 20
57.41934567331139
 30
-20.0
 11
115.74448834045791
 21
57.41934567331139
 31
-20.0
  0
LINE
  5
1DD1
  8
0
 10
115.74448834045791
 20
47.41934567331139
 30
-16.623462286967541
 11
114.544488340458
 21
47.41934567331139
 31
-6.6234622869675368
  0
LINE
  5
1DD2
  8
0
 10
113.24448834045791
 20
55.921782182543041
 30
-10.0
 11
114.5444883404579
 21
55.921782182543041
 31
-10.0
  0
LINE
  5
1DD3
  8
0
 10
113.24448834045791
 20
48.921782182543041
 30
-10.0
 11
114.5444883404579
 21
48.921782182543041
 31
-10.0
  0
TEXT
  5
1E45
  8
0
 62
     3
 10
0.0
 20
0.0
 30
0.0
 40
10.0
  1
CJR10-M10F
  7
STANDARD1
  0
ENDSEC
  0
EOF
