  0
SECTION
  2
HEADER
  9
$ACADVER
  1
AC1009
  9
$INSBASE
 10
0.0
 20
0.0
 30
0.0
  9
$EXTMIN
 10
0.0
 20
-2.960436562073669
 30
0.0
  9
$EXTMAX
 10
294.88644799999997
 20
239.77619300000001
 30
0.0
  9
$LIMMIN
 10
0.0
 20
0.0
  9
$LIMMAX
 10
390.0
 20
270.0
  9
$ORTHOMODE
 70
     0
  9
$REGENMODE
 70
     1
  9
$FILLMODE
 70
     1
  9
$QTEXTMODE
 70
     0
  9
$MIRRTEXT
 70
     0
  9
$DRAGMODE
 70
     2
  9
$LTSCALE
 40
10.0
  9
$OSMODE
 70
  3071
  9
$ATTMODE
 70
     1
  9
$TEXTSIZE
 40
0.2
  9
$TRACEWID
 40
0.05
  9
$TEXTSTYLE
  7
07000
  9
$CLAYER
  8
0
  9
$CELTYPE
  6
BYLAYER
  9
$CECOLOR
 62
   256
  9
$DIMSCALE
 40
1.0
  9
$DIMASZ
 40
3.0
  9
$DIMEXO
 40
2.0
  9
$DIMDLI
 40
0.38
  9
$DIMRND
 40
0.0
  9
$DIMDLE
 40
0.0
  9
$DIMEXE
 40
2.0
  9
$DIMTP
 40
0.0
  9
$DIMTM
 40
0.0
  9
$DIMTXT
 40
3.0
  9
$DIMCEN
 40
0.0
  9
$DIMTSZ
 40
0.0
  9
$DIMTOL
 70
     0
  9
$DIMLIM
 70
     0
  9
$DIMTIH
 70
     0
  9
$DIMTOH
 70
     0
  9
$DIMSE1
 70
     0
  9
$DIMSE2
 70
     0
  9
$DIMTAD
 70
     1
  9
$DIMZIN
 70
     0
  9
$DIMBLK
  1

  9
$DIMASO
 70
     0
  9
$DIMSHO
 70
     0
  9
$DIMPOST
  1

  9
$DIMAPOST
  1

  9
$DIMALT
 70
     0
  9
$DIMALTD
 70
     2
  9
$DIMALTF
 40
25.399999999999999
  9
$DIMLFAC
 40
1.0
  9
$DIMTOFL
 70
     1
  9
$DIMTVP
 40
1.6000000000000001
  9
$DIMTIX
 70
     1
  9
$DIMSOXD
 70
     0
  9
$DIMSAH
 70
     0
  9
$DIMBLK1
  1

  9
$DIMBLK2
  1

  9
$DIMSTYLE
  2
STANDARD
  9
$DIMCLRD
 70
     0
  9
$DIMCLRE
 70
     0
  9
$DIMCLRT
 70
     0
  9
$DIMTFAC
 40
1.0
  9
$DIMGAP
 40
0.09
  9
$LUNITS
 70
     2
  9
$LUPREC
 70
     4
  9
$SKETCHINC
 40
0.1
  9
$FILLETRAD
 40
0.0
  9
$AUNITS
 70
     0
  9
$AUPREC
 70
     4
  9
$MENU
  1
E:\r13\win\SUPPORT\ACAD
  9
$ELEVATION
 40
0.0
  9
$PELEVATION
 40
0.0
  9
$THICKNESS
 40
0.0
  9
$LIMCHECK
 70
     0
  9
$BLIPMODE
 70
     0
  9
$CHAMFERA
 40
0.0
  9
$CHAMFERB
 40
0.0
  9
$SKPOLY
 70
     0
  9
$TDCREATE
 40
2449840.6532638888
  9
$TDUPDATE
 40
2456598.5897605792
  9
$TDINDWG
 40
0.0000933333
  9
$TDUSRTIMER
 40
0.0000933333
  9
$USRTIMER
 70
     1
  9
$ANGBASE
 50
0.0
  9
$ANGDIR
 70
     0
  9
$PDMODE
 70
     0
  9
$PDSIZE
 40
0.0
  9
$PLINEWID
 40
0.0
  9
$COORDS
 70
     1
  9
$SPLFRAME
 70
     0
  9
$SPLINETYPE
 70
     6
  9
$SPLINESEGS
 70
     8
  9
$ATTDIA
 70
     0
  9
$ATTREQ
 70
     1
  9
$HANDLING
 70
     1
  9
$HANDSEED
  5
27D
  9
$SURFTAB1
 70
     6
  9
$SURFTAB2
 70
     6
  9
$SURFTYPE
 70
     6
  9
$SURFU
 70
     6
  9
$SURFV
 70
     6
  9
$UCSNAME
  2

  9
$UCSORG
 10
0.0
 20
0.0
 30
0.0
  9
$UCSXDIR
 10
1.0
 20
0.0
 30
0.0
  9
$UCSYDIR
 10
0.0
 20
1.0
 30
0.0
  9
$PUCSNAME
  2

  9
$PUCSORG
 10
0.0
 20
0.0
 30
0.0
  9
$PUCSXDIR
 10
1.0
 20
0.0
 30
0.0
  9
$PUCSYDIR
 10
0.0
 20
1.0
 30
0.0
  9
$USERI1
 70
     3
  9
$USERI2
 70
     1
  9
$USERI3
 70
     0
  9
$USERI4
 70
     0
  9
$USERI5
 70
     0
  9
$USERR1
 40
1.0
  9
$USERR2
 40
3.0
  9
$USERR3
 40
3.0
  9
$USERR4
 40
3.0
  9
$USERR5
 40
10.0
  9
$WORLDVIEW
 70
     1
  9
$SHADEDGE
 70
     3
  9
$SHADEDIF
 70
    70
  9
$TILEMODE
 70
     1
  9
$MAXACTVP
 70
    16
  9
$PLIMCHECK
 70
     0
  9
$PEXTMIN
 10
1.0000000000000000E+020
 20
1.0000000000000000E+020
 30
1.0000000000000000E+020
  9
$PEXTMAX
 10
-1.0000000000000000E+020
 20
-1.0000000000000000E+020
 30
-1.0000000000000000E+020
  9
$PLIMMIN
 10
0.0
 20
0.0
  9
$PLIMMAX
 10
12.0
 20
9.0
  9
$UNITMODE
 70
     0
  9
$VISRETAIN
 70
     0
  9
$PLINEGEN
 70
     0
  9
$PSLTSCALE
 70
     0
  0
ENDSEC
  0
SECTION
  2
TABLES
  0
TABLE
  2
VPORT
 70
     1
  0
VPORT
  2
*ACTIVE
 70
     0
 10
0.0
 20
0.0
 11
1.0
 21
1.0
 12
202.55787946771341
 22
133.5127261426681
 13
0.0
 23
0.0
 14
10.0
 24
10.0
 15
10.0
 25
10.0
 16
0.0
 26
0.0
 36
1.0
 17
0.0
 27
0.0
 37
0.0
 40
275.42274993631997
 41
1.831871345029239
 42
50.0
 43
0.0
 44
0.0
 50
0.0
 51
0.0
 71
     0
 72
   100
 73
     1
 74
     0
 75
     0
 76
     0
 77
     0
 78
     2
  0
ENDTAB
  0
TABLE
  2
LTYPE
 70
     3
  0
LTYPE
  2
CONTINUOUS
 70
     0
  3
Solid Line
 72
    65
 73
     0
 40
0.0
  0
LTYPE
  2
CENTER
 70
     0
  3
____ _ ____ _ ____ _ ____ _ ____ _ ____ _ ____
 72
    65
 73
     4
 40
2.0
 49
1.25
 49
-0.25
 49
0.25
 49
-0.25
  0
LTYPE
  2
PHANTOM2
 70
     0
  3
___ _ _ ___ _ _ ___ _ _ ___ _ _
 72
    65
 73
     6
 40
1.25
 49
0.625
 49
-0.125
 49
0.125
 49
-0.125
 49
0.125
 49
-0.125
  0
ENDTAB
  0
TABLE
  2
LAYER
 70
     2
  0
LAYER
  2
0
 70
     0
 62
     7
  6
CONTINUOUS
  0
LAYER
  2
1
 70
     0
 62
     1
  6
CENTER
  0
ENDTAB
  0
TABLE
  2
STYLE
 70
     3
  0
STYLE
  2
STANDARD
 70
     0
 40
0.0
 41
1.0
 50
0.0
 71
     0
 42
0.2
  3
TXT
  4
BIGFONT
  0
STYLE
  2
07000
 70
     0
 40
0.0
 41
1.0
 50
0.0
 71
     0
 42
0.2
  3
TXT
  4
BIGFONT
  0
STYLE
  2
STANDARD1
 70
     0
 40
0.0
 41
1.0
 50
0.0
 71
     0
 42
3.0
  3
txt
  4

  0
ENDTAB
  0
TABLE
  2
VIEW
 70
     0
  0
ENDTAB
  0
TABLE
  2
UCS
 70
     0
  0
ENDTAB
  0
TABLE
  2
APPID
 70
     3
  0
APPID
  2
ACAD
 70
     0
  0
APPID
  2
ACAD_MLEADERVER
 70
     0
  0
APPID
  2
ACAD_NAV_VCDISPLAY
 70
     0
  0
ENDTAB
  0
TABLE
  2
DIMSTYLE
 70
     1
  0
DIMSTYLE
  2
STANDARD
 70
     0
  3

  4

  5

  6

  7

 40
1.0
 41
0.18
 42
0.0625
 43
0.38
 44
0.18
 45
0.0
 46
0.0
 47
0.0
 48
0.0
140
0.18
141
0.09
142
0.0
143
25.399999999999999
144
1.0
145
0.0
146
1.0
147
0.09
 71
     0
 72
     0
 73
     1
 74
     1
 75
     0
 76
     0
 77
     0
 78
     0
170
     0
171
     2
172
     0
173
     0
174
     0
175
     0
176
     0
177
     0
178
     0
  0
ENDTAB
  0
ENDSEC
  0
SECTION
  2
BLOCKS
  0
BLOCK
  8
0
  2
$MODEL_SPACE
 70
     0
 10
0.0
 20
0.0
 30
0.0
  3
$MODEL_SPACE
  1

  0
ENDBLK
  5
139
  8
0
  0
BLOCK
 67
     1
  8
0
  2
$PAPER_SPACE
 70
     0
 10
0.0
 20
0.0
 30
0.0
  3
$PAPER_SPACE
  1

  0
ENDBLK
  5
137
 67
     1
  8
0
  0
BLOCK
  8
0
  2
STDGX5
 70
     0
 10
0.0
 20
0.0
 30
0.0
  3
STDGX5
  1

  0
ENDBLK
  5
47
  8
0
  0
ENDSEC
  0
SECTION
  2
ENTITIES
  0
INSERT
  5
6F
  8
0
  2
STDGX5
 10
0.0
 20
0.0
 30
0.0
  0
LINE
  5
70
  8
1
 10
102.25846799999999
 20
52.514586000000001
 30
0.0
 11
149.37339
 21
99.657941000000008
 31
0.0
  0
CIRCLE
  5
71
  8
0
 10
278.88644799999997
 20
128.13343900000001
 30
0.0
 40
4.25
  0
LINE
  5
72
  8
1
 10
266.88644799999997
 20
128.13343900000001
 30
0.0
 11
290.88644799999997
 21
128.13343900000001
 31
0.0
  0
CIRCLE
  5
73
  8
0
 10
278.88644799999997
 20
128.13343900000001
 30
0.0
 40
7.0
  0
CIRCLE
  5
74
  8
0
 10
238.886448
 20
128.13343900000001
 30
0.0
 40
7.0
  0
LINE
  5
75
  8
0
 10
112.37091599999999
 20
137.13343900000001
 30
0.0
 11
112.37091599999999
 21
123.488499
 31
0.0
  0
LINE
  5
76
  8
1
 10
226.886448
 20
128.13343900000001
 30
0.0
 11
250.886448
 21
128.13343900000001
 31
0.0
  0
CIRCLE
  5
77
  8
0
 10
238.886448
 20
128.13343900000001
 30
0.0
 40
4.25
  0
ARC
  5
78
  8
0
 10
135.95039399999999
 20
93.300046999999992
 30
0.0
 40
1.0
 50
225.0
 51
315.01728300000002
  0
ARC
  5
79
  8
0
 10
143.02146300000001
 20
86.22897900000001
 30
0.0
 40
1.0
 50
135.01728299999999
 51
225.0
  0
ARC
  5
7A
  8
0
 10
137.01181399999999
 20
95.069427000000005
 30
0.0
 40
1.5
 50
315.01728300000002
 51
45.0
  0
ARC
  5
7B
  8
0
 10
144.788803
 20
87.290064999999998
 30
0.0
 40
1.5
 50
45.0
 51
135.01728299999999
  0
LINE
  5
7C
  8
0
 10
135.24329
 20
92.592938000000004
 30
0.0
 11
132.415075
 21
95.421152000000006
 31
0.0
  0
LINE
  5
7D
  8
0
 10
136.657713
 20
92.593151000000006
 30
0.0
 11
138.0727959999999
 21
94.009089000000003
 31
0.0
  0
LINE
  5
7E
  8
0
 10
142.314143
 20
86.935872000000003
 30
0.0
 11
143.727823
 21
88.350406000000007
 31
0.0
  0
ARC
  5
7F
  8
0
 10
116.12091599999999
 20
80.292794999999984
 30
0.0
 40
4.0
 50
0.0
 51
36.641928
  0
ARC
  5
80
  8
0
 10
116.12091599999999
 20
75.974082999999993
 30
0.0
 40
4.0
 50
323.35807199999999
 51
0.0
  0
LINE
  5
81
  8
0
 10
120.12091599999999
 20
80.292794999999984
 30
0.0
 11
120.12091599999999
 21
75.974082999999993
 31
0.0
  0
ARC
  5
82
  8
0
 10
99.270916
 20
67.759738999999996
 30
0.0
 40
25.0
 50
36.641928
 51
53.069893999999991
  0
ARC
  5
83
  8
0
 10
99.270916
 20
88.507138999999995
 30
0.0
 40
25.0
 50
306.93010600000002
 51
323.35807199999999
  0
ARC
  5
84
  8
0
 10
109.37091599999999
 20
83.633438999999996
 30
0.0
 40
1.5
 50
180.0
 51
270.0
  0
LINE
  5
85
  8
0
 10
109.37091599999999
 20
82.133438999999996
 30
0.0
 11
111.37091599999999
 21
82.133438999999996
 31
0.0
  0
LINE
  5
86
  8
0
 10
112.37091599999999
 20
83.133438999999996
 30
0.0
 11
112.37091599999999
 21
86.784723000000014
 31
0.0
  0
ARC
  5
87
  8
0
 10
111.37091599999999
 20
83.133438999999996
 30
0.0
 40
1.0
 50
270.0
 51
360.0
  0
ARC
  5
88
  8
0
 10
113.570916
 20
86.784723000000014
 30
0.0
 40
1.1999999999999991
 50
53.069893999999991
 51
180.0
  0
ARC
  5
89
  8
0
 10
109.37091599999999
 20
72.633438999999996
 30
0.0
 40
1.5
 50
90.0
 51
180.0
  0
LINE
  5
8A
  8
0
 10
109.37091599999999
 20
74.133438999999996
 30
0.0
 11
111.37091599999999
 21
74.133438999999996
 31
0.0
  0
ARC
  5
8B
  8
0
 10
111.37091599999999
 20
73.133438999999996
 30
0.0
 40
1.0
 50
0.0
 51
90.0
  0
ARC
  5
8C
  8
0
 10
113.570916
 20
69.482156000000003
 30
0.0
 40
1.1999999999999991
 50
180.0
 51
306.93010600000002
  0
LINE
  5
8D
  8
0
 10
112.37091599999999
 20
73.133438999999996
 30
0.0
 11
112.37091599999999
 21
69.482156000000003
 31
0.0
  0
ARC
  5
8E
  8
0
 10
122.37091599999999
 20
59.633439000000003
 30
0.0
 40
1.5
 50
270.0
 51
0.0
  0
ARC
  5
8F
  8
0
 10
133.37091599999999
 20
59.633439000000003
 30
0.0
 40
1.5
 50
180.0
 51
270.0
  0
LINE
  5
90
  8
0
 10
131.87091599999999
 20
59.633439000000003
 30
0.0
 11
131.87091599999999
 21
61.633439000000003
 31
0.0
  0
ARC
  5
91
  8
0
 10
132.87091599999999
 20
61.633439000000003
 30
0.0
 40
1.0
 50
90.0
 51
180.0
  0
LINE
  5
92
  8
0
 10
123.87091599999999
 20
59.633439000000003
 30
0.0
 11
123.87091599999999
 21
61.633439000000003
 31
0.0
  0
ARC
  5
93
  8
0
 10
122.87091599999999
 20
61.633439000000003
 30
0.0
 40
1.0
 50
0.0
 51
90.0
  0
ARC
  5
94
  8
0
 10
125.71156000000001
 20
66.383438999999996
 30
0.0
 40
4.0
 50
90.0
 51
126.64192799999999
  0
ARC
  5
95
  8
0
 10
130.030272
 20
66.383438999999996
 30
0.0
 40
4.0
 50
53.358072
 51
90.0
  0
LINE
  5
96
  8
0
 10
125.71156000000001
 20
70.383438999999996
 30
0.0
 11
130.030272
 21
70.383438999999996
 31
0.0
  0
LINE
  5
97
  8
0
 10
122.87091599999999
 20
62.633439000000003
 30
0.0
 11
119.219633
 21
62.633439000000003
 31
0.0
  0
ARC
  5
98
  8
0
 10
138.24461599999989
 20
49.533439000000001
 30
0.0
 40
25.0
 50
126.64192799999999
 51
143.06989400000001
  0
ARC
  5
99
  8
0
 10
119.219633
 20
63.833438999999991
 30
0.0
 40
1.1999999999999991
 50
143.06989400000001
 51
270.0
  0
ARC
  5
9A
  8
0
 10
136.5222
 20
63.833438999999991
 30
0.0
 40
1.1999999999999991
 50
270.0
 51
36.930106000000002
  0
ARC
  5
9B
  8
0
 10
117.49721599999999
 20
49.533439000000001
 30
0.0
 40
25.0
 50
36.930106000000002
 51
53.358072
  0
LINE
  5
9C
  8
0
 10
132.87091599999999
 20
62.633439000000003
 30
0.0
 11
136.5222
 21
62.633439000000003
 31
0.0
  0
ARC
  5
9D
  8
0
 10
122.597291
 20
86.334132999999994
 30
0.0
 40
2.0
 50
218.154946
 51
302.743878
  0
ARC
  5
9E
  8
0
 10
125.597291
 20
87.614637999999985
 30
0.0
 40
2.0
 50
283.48509100000001
 51
6.3856970000000004
  0
ARC
  5
9F
  8
0
 10
136.15332599999999
 20
72.989103999999998
 30
0.0
 40
2.0
 50
148.15493599999999
 51
231.430779
  0
ARC
  5
A0
  8
0
 10
137.35534899999999
 20
75.873343000000006
 30
0.0
 40
2.0
 50
83.650564000000003
 51
166.59665200000001
  0
ARC
  5
A1
  8
0
 10
127.87091599999999
 20
78.133438999999996
 30
0.0
 40
7.75
 50
328.15493600000002
 51
346.59665200000001
  0
ARC
  5
A2
  8
0
 10
127.87091599999999
 20
78.133438999999996
 30
0.0
 40
7.75
 50
103.485091
 51
122.743878
  0
CIRCLE
  5
A3
  8
0
 10
127.87091599999999
 20
78.133438999999996
 30
0.0
 40
3.399999999999999
  0
ARC
  5
A4
  8
0
 10
173.22360399999999
 20
66.633438999999996
 30
0.0
 40
4.0
 50
225.0
 51
270.0
  0
ARC
  5
A5
  8
0
 10
116.37091599999999
 20
123.488499
 30
0.0
 40
4.0
 50
180.0
 51
225.0
  0
ARC
  5
A6
  8
0
 10
112.87091599999999
 20
94.404783999999992
 30
0.0
 40
2.0
 50
180.0
 51
242.475334
  0
ARC
  5
A7
  8
0
 10
112.87091599999999
 20
114.260577
 30
0.0
 40
2.0
 50
45.0
 51
180.0
  0
LINE
  5
A8
  8
0
 10
110.87091599999999
 20
94.404783999999992
 30
0.0
 11
110.87091599999999
 21
114.260577
 31
0.0
  0
ARC
  5
A9
  8
0
 10
163.99568199999999
 20
63.133439000000003
 30
0.0
 40
2.0
 50
270.0
 51
45.0
  0
ARC
  5
AA
  8
0
 10
149.964652
 20
77.164467999999985
 30
0.0
 40
2.0
 50
45.0
 51
108.04225099999999
  0
ARC
  5
AB
  8
0
 10
126.886894
 20
100.24459899999999
 30
0.0
 40
2.0
 50
341.9541549999999
 51
45.0
  0
ARC
  5
AC
  8
0
 10
140.67310499999999
 20
105.68932
 30
0.0
 40
28.0
 50
263.65056399999997
 51
288.04225100000002
  0
ARC
  5
AD
  8
0
 10
155.41116199999999
 20
90.951262999999997
 30
0.0
 40
28.0
 50
161.95415499999999
 51
186.38569699999999
  0
LINE
  5
AE
  8
0
 10
128.301107
 20
101.65881299999999
 30
0.0
 11
114.28513
 21
115.6747909999999
 31
0.0
  0
LINE
  5
AF
  8
0
 10
165.40989500000001
 20
64.547652999999997
 30
0.0
 11
151.37886599999999
 21
78.578682000000001
 31
0.0
  0
LINE
  5
B0
  8
0
 10
107.87091599999999
 20
118.383439
 30
0.0
 11
107.87091599999999
 21
137.13343900000001
 31
0.0
  0
LINE
  5
B1
  8
0
 10
108.12091599999999
 20
118.133439
 30
0.0
 11
107.87091599999999
 21
118.383439
 31
0.0
  0
LINE
  5
B2
  8
0
 10
108.12091599999999
 20
118.133439
 30
0.0
 11
107.87091599999999
 21
117.883439
 31
0.0
  0
LINE
  5
B3
  8
0
 10
167.62091599999999
 20
58.133439000000003
 30
0.0
 11
133.37091599999999
 21
58.133439000000003
 31
0.0
  0
LINE
  5
B4
  8
0
 10
167.87091599999999
 20
58.383439000000003
 30
0.0
 11
167.62091599999999
 21
58.133439000000003
 31
0.0
  0
LINE
  5
B5
  8
0
 10
167.87091599999999
 20
58.383439000000003
 30
0.0
 11
168.12091599999999
 21
58.133439000000003
 31
0.0
  0
LINE
  5
B6
  8
1
 10
112.87091599999999
 20
68.633438999999996
 30
0.0
 11
112.87091599999999
 21
57.633439000000003
 31
0.0
  0
LINE
  5
B7
  8
1
 10
118.37091599999999
 20
63.133439000000003
 30
0.0
 11
107.37091599999999
 21
63.133439000000003
 31
0.0
  0
CIRCLE
  5
B8
  8
0
 10
112.87091599999999
 20
63.133439000000003
 30
0.0
 40
2.5
  0
ARC
  5
B9
  8
0
 10
99.007002999999997
 20
67.800425000000004
 30
0.0
 40
28.0
 50
38.154946000000002
 51
62.475333999999989
  0
ARC
  5
BA
  8
0
 10
143.56926100000001
 20
62.133439000000003
 30
0.0
 40
1.0
 50
205.752386
 51
270.0
  0
LINE
  5
BB
  8
0
 10
163.99568199999999
 20
61.133439000000003
 30
0.0
 11
143.56926100000001
 21
61.133439000000003
 31
0.0
  0
ARC
  5
BC
  8
0
 10
117.44953599999999
 20
49.533439000000001
 30
0.0
 40
28.0
 50
25.752386000000001
 51
51.430779000000001
  0
ARC
  5
BD
  8
0
 10
186.87091599999999
 20
61.633439000000003
 30
0.0
 40
1.0
 50
0.0
 51
90.0
  0
ARC
  5
BE
  8
0
 10
186.87091599999999
 20
59.133439000000003
 30
0.0
 40
1.0
 50
270.0
 51
0.0
  0
LINE
  5
BF
  8
0
 10
138.072474
 20
96.130087000000003
 30
0.0
 11
113.54249
 21
120.660071
 31
0.0
  0
ARC
  5
C0
  8
0
 10
111.37091599999999
 20
137.13343900000001
 30
0.0
 40
1.0
 50
360.0
 51
90.0
  0
ARC
  5
C1
  8
0
 10
108.87091599999999
 20
137.13343900000001
 30
0.0
 40
1.0
 50
90.0
 51
180.0
  0
LINE
  5
C2
  8
0
 10
186.87091599999999
 20
62.633439000000003
 30
0.0
 11
173.22360399999999
 21
62.633439000000003
 31
0.0
  0
ARC
  5
C3
  8
0
 10
109.87091599999999
 20
60.133439000000003
 30
0.0
 40
2.0
 50
180.0
 51
270.0
  0
LINE
  5
C4
  8
0
 10
108.87091599999999
 20
138.13343900000001
 30
0.0
 11
111.37091599999999
 21
138.13343900000001
 31
0.0
  0
LINE
  5
C5
  8
0
 10
186.87091599999999
 20
58.133439000000003
 30
0.0
 11
168.12091599999999
 21
58.133439000000003
 31
0.0
  0
LINE
  5
C6
  8
0
 10
107.87091599999999
 20
83.633440000000007
 30
0.0
 11
107.87091599999999
 21
117.883439
 31
0.0
  0
LINE
  5
C7
  8
0
 10
122.37091599999999
 20
58.133439000000003
 30
0.0
 11
109.87091599999999
 21
58.133439000000003
 31
0.0
  0
LINE
  5
C8
  8
0
 10
170.39517699999999
 20
63.805011999999998
 30
0.0
 11
145.84946299999999
 21
88.350725999999995
 31
0.0
  0
LINE
  5
C9
  8
0
 10
131.76888299999999
 20
85.107189000000005
 30
0.0
 11
134.79213799999999
 21
82.083934999999997
 31
0.0
  0
LINE
  5
CA
  8
0
 10
145.14299500000001
 20
82.693232999999992
 30
0.0
 11
142.314356
 21
85.521872000000002
 31
0.0
  0
ARC
  5
CB
  8
0
 10
131.707967
 20
94.714046999999994
 30
0.0
 40
1.0
 50
44.999890999999991
 51
170.97980100000001
  0
ARC
  5
CC
  8
0
 10
134.63420400000001
 20
87.898723000000004
 30
0.0
 40
4.0
 50
188.35807199999999
 51
225.0
  0
ARC
  5
CD
  8
0
 10
155.41116199999999
 20
90.951262999999997
 30
0.0
 40
25.0
 50
170.97980100000001
 51
188.35807199999999
  0
ARC
  5
CE
  8
0
 10
140.67310499999999
 20
105.68932
 30
0.0
 40
25.0
 50
261.64192800000001
 51
279.02019899999999
  0
ARC
  5
CF
  8
0
 10
137.620565
 20
84.912362000000016
 30
0.0
 40
4.0
 50
225.0
 51
261.64192800000001
  0
ARC
  5
D0
  8
0
 10
144.435889
 20
81.986125000000015
 30
0.0
 40
1.0
 50
279.02019899999999
 51
45.000109000000002
  0
LINE
  5
D1
  8
1
 10
127.87091599999999
 20
88.133438999999996
 30
0.0
 11
127.87091599999999
 21
53.133439000000003
 31
0.0
  0
LINE
  5
D2
  8
1
 10
102.87091599999999
 20
78.133438999999996
 30
0.0
 11
137.87091599999999
 21
78.133438999999996
 31
0.0
  0
LINE
  5
D3
  8
0
 10
107.87091599999999
 20
60.133439000000003
 30
0.0
 11
107.87091599999999
 21
72.633439999999993
 31
0.0
  0
LINE
  5
D4
  8
0
 10
187.87091599999999
 20
59.133439000000003
 30
0.0
 11
187.87091599999999
 21
61.633439000000003
 31
0.0
  0
LINE
  5
D5
  8
0
 10
241.93396999999999
 20
121.83164499999999
 30
0.0
 11
275.8389259999999
 21
121.83164499999999
 31
0.0
  0
LINE
  5
D6
  8
0
 10
281.93396999999999
 20
121.83164499999999
 30
0.0
 11
294.88644799999997
 21
121.83164499999999
 31
0.0
  0
LINE
  5
D7
  8
1
 10
278.88644799999997
 20
148.1334389999999
 30
0.0
 11
278.88644799999997
 21
48.133439000000003
 31
0.0
  0
LINE
  5
D8
  8
0
 10
222.886448
 20
121.83164499999999
 30
0.0
 11
235.83892599999999
 21
121.83164499999999
 31
0.0
  0
LINE
  5
D9
  8
0
 10
222.886448
 20
91.885619999999989
 30
0.0
 11
294.88644799999997
 21
91.885619999999989
 31
0.0
  0
LINE
  5
DA
  8
1
 10
238.886448
 20
148.1334389999999
 30
0.0
 11
238.886448
 21
48.133439000000003
 31
0.0
  0
LINE
  5
DB
  8
0
 10
222.886448
 20
62.633439000000003
 30
0.0
 11
294.88644799999997
 21
62.633439000000003
 31
0.0
  0
LINE
  5
DC
  8
0
 10
222.886448
 20
89.411706000000009
 30
0.0
 11
294.88644799999997
 21
89.411706000000009
 31
0.0
  0
LINE
  5
DD
  8
0
 10
222.886448
 20
95.069746999999978
 30
0.0
 11
294.88644799999997
 21
95.069746999999978
 31
0.0
  0
LINE
  5
DE
  8
0
 10
294.88644799999997
 20
58.133439000000003
 30
0.0
 11
294.88644799999997
 21
138.13343900000001
 31
0.0
  0
LINE
  5
DF
  8
0
 10
222.886448
 20
58.133439000000003
 30
0.0
 11
222.886448
 21
138.13343900000001
 31
0.0
  0
LINE
  5
E0
  8
0
 10
222.886448
 20
138.13343900000001
 30
0.0
 11
294.88644799999997
 21
138.13343900000001
 31
0.0
  0
LINE
  5
E1
  8
0
 10
222.886448
 20
58.133439000000003
 30
0.0
 11
294.88644799999997
 21
58.133439000000003
 31
0.0
  0
LINE
  5
E2
  8
0
 10
108.87091599999999
 20
239.77619300000001
 30
0.0
 11
108.87091599999999
 21
167.77619300000001
 31
0.0
  0
LINE
  5
E3
  8
0
 10
188.87091599999999
 20
239.77619300000001
 30
0.0
 11
188.87091599999999
 21
167.77619300000001
 31
0.0
  0
LINE
  5
E4
  8
0
 10
108.87091599999999
 20
239.77619300000001
 30
0.0
 11
188.87091599999999
 21
239.77619300000001
 31
0.0
  0
LINE
  5
E5
  8
0
 10
108.87091599999999
 20
167.77619300000001
 30
0.0
 11
188.87091599999999
 21
167.77619300000001
 31
0.0
  0
LINE
  5
E6
  8
0
 10
145.80722399999999
 20
239.77619300000001
 30
0.0
 11
145.80722399999999
 21
167.77619300000001
 31
0.0
  0
LINE
  5
E7
  8
0
 10
140.14918299999999
 20
239.77619300000001
 30
0.0
 11
140.14918299999999
 21
167.77619300000001
 31
0.0
  0
LINE
  5
E8
  8
0
 10
113.37091599999999
 20
239.77619300000001
 30
0.0
 11
113.37091599999999
 21
167.77619300000001
 31
0.0
  0
LINE
  5
E9
  8
1
 10
198.87091599999999
 20
223.77619300000001
 30
0.0
 11
98.870916000000008
 21
223.77619300000001
 31
0.0
  0
LINE
  5
EA
  8
0
 10
142.623097
 20
239.77619300000001
 30
0.0
 11
142.623097
 21
167.77619300000001
 31
0.0
  0
LINE
  5
EB
  8
0
 10
172.56912199999999
 20
239.77619300000001
 30
0.0
 11
172.56912199999999
 21
226.823714
 31
0.0
  0
LINE
  5
EC
  8
1
 10
198.87091599999999
 20
183.77619300000001
 30
0.0
 11
98.870916000000008
 21
183.77619300000001
 31
0.0
  0
LINE
  5
ED
  8
0
 10
172.56912199999999
 20
180.72867099999991
 30
0.0
 11
172.56912199999999
 21
167.77619300000001
 31
0.0
  0
LINE
  5
EE
  8
0
 10
172.56912199999999
 20
220.72867099999999
 30
0.0
 11
172.56912199999999
 21
186.823714
 31
0.0
  0
CIRCLE
  5
EF
  8
0
 10
178.87091599999999
 20
223.77619300000001
 30
0.0
 40
4.25
  0
LINE
  5
F0
  8
1
 10
178.87091599999999
 20
235.77619300000001
 30
0.0
 11
178.87091599999999
 21
211.77619300000001
 31
0.0
  0
CIRCLE
  5
F1
  8
0
 10
178.87091599999999
 20
223.77619300000001
 30
0.0
 40
7.0
  0
CIRCLE
  5
F2
  8
0
 10
178.87091599999999
 20
183.77619300000001
 30
0.0
 40
7.0
  0
LINE
  5
F3
  8
1
 10
178.87091599999999
 20
195.77619300000001
 30
0.0
 11
178.87091599999999
 21
171.77619300000001
 31
0.0
  0
CIRCLE
  5
F4
  8
0
 10
178.87091599999999
 20
183.77619300000001
 30
0.0
 40
4.25
  0
TEXT
  5
1EE
  8
0
 62
     3
 10
0.0
 20
0.0
 30
0.0
 40
10.0
  1
CJT8072N
  7
STANDARD1
  0
ENDSEC
  0
EOF
