  0
SECTION
  2
HEADER
  9
$ACADVER
  1
AC1009
  9
$INSBASE
 10
0.0
 20
0.0
 30
0.0
  9
$EXTMIN
 10
0.0
 20
-2.960436562073669
 30
0.0
  9
$EXTMAX
 10
326.5
 20
243.17715799999999
 30
0.0
  9
$LIMMIN
 10
0.0
 20
0.0
  9
$LIMMAX
 10
375.0
 20
270.0
  9
$ORTHOMODE
 70
     1
  9
$REGENMODE
 70
     1
  9
$FILLMODE
 70
     1
  9
$QTEXTMODE
 70
     0
  9
$MIRRTEXT
 70
     0
  9
$DRAGMODE
 70
     2
  9
$LTSCALE
 40
10.0
  9
$OSMODE
 70
  3071
  9
$ATTMODE
 70
     1
  9
$TEXTSIZE
 40
0.2
  9
$TRACEWID
 40
0.05
  9
$TEXTSTYLE
  7
STANDARD
  9
$CLAYER
  8
0
  9
$CELTYPE
  6
BYLAYER
  9
$CECOLOR
 62
   256
  9
$DIMSCALE
 40
1.0
  9
$DIMASZ
 40
3.0
  9
$DIMEXO
 40
2.0
  9
$DIMDLI
 40
10.0
  9
$DIMRND
 40
0.0
  9
$DIMDLE
 40
0.0
  9
$DIMEXE
 40
2.0
  9
$DIMTP
 40
0.0
  9
$DIMTM
 40
0.0
  9
$DIMTXT
 40
3.2000000000000002
  9
$DIMCEN
 40
0.09
  9
$DIMTSZ
 40
0.0
  9
$DIMTOL
 70
     0
  9
$DIMLIM
 70
     0
  9
$DIMTIH
 70
     0
  9
$DIMTOH
 70
     0
  9
$DIMSE1
 70
     0
  9
$DIMSE2
 70
     0
  9
$DIMTAD
 70
     1
  9
$DIMZIN
 70
     0
  9
$DIMBLK
  1

  9
$DIMASO
 70
     0
  9
$DIMSHO
 70
     0
  9
$DIMPOST
  1

  9
$DIMAPOST
  1

  9
$DIMALT
 70
     0
  9
$DIMALTD
 70
     2
  9
$DIMALTF
 40
25.399999999999999
  9
$DIMLFAC
 40
1.0
  9
$DIMTOFL
 70
     1
  9
$DIMTVP
 40
1.6000000000000001
  9
$DIMTIX
 70
     0
  9
$DIMSOXD
 70
     0
  9
$DIMSAH
 70
     0
  9
$DIMBLK1
  1

  9
$DIMBLK2
  1

  9
$DIMSTYLE
  2
STANDARD
  9
$DIMCLRD
 70
     0
  9
$DIMCLRE
 70
     0
  9
$DIMCLRT
 70
     0
  9
$DIMTFAC
 40
1.0
  9
$DIMGAP
 40
0.09
  9
$LUNITS
 70
     2
  9
$LUPREC
 70
     2
  9
$SKETCHINC
 40
0.1
  9
$FILLETRAD
 40
3.0
  9
$AUNITS
 70
     0
  9
$AUPREC
 70
     0
  9
$MENU
  1
E:\r13\win\SUPPORT\ACAD
  9
$ELEVATION
 40
0.0
  9
$PELEVATION
 40
0.0
  9
$THICKNESS
 40
0.0
  9
$LIMCHECK
 70
     0
  9
$BLIPMODE
 70
     0
  9
$CHAMFERA
 40
0.0
  9
$CHAMFERB
 40
0.0
  9
$SKPOLY
 70
     0
  9
$TDCREATE
 40
2449840.6023379629
  9
$TDUPDATE
 40
2456598.5906283222
  9
$TDINDWG
 40
0.0005240741
  9
$TDUSRTIMER
 40
0.0005240741
  9
$USRTIMER
 70
     1
  9
$ANGBASE
 50
0.0
  9
$ANGDIR
 70
     0
  9
$PDMODE
 70
     0
  9
$PDSIZE
 40
0.0
  9
$PLINEWID
 40
0.0
  9
$COORDS
 70
     1
  9
$SPLFRAME
 70
     0
  9
$SPLINETYPE
 70
     6
  9
$SPLINESEGS
 70
     8
  9
$ATTDIA
 70
     0
  9
$ATTREQ
 70
     1
  9
$HANDLING
 70
     1
  9
$HANDSEED
  5
273
  9
$SURFTAB1
 70
     6
  9
$SURFTAB2
 70
     6
  9
$SURFTYPE
 70
     6
  9
$SURFU
 70
     6
  9
$SURFV
 70
     6
  9
$UCSNAME
  2

  9
$UCSORG
 10
0.0
 20
0.0
 30
0.0
  9
$UCSXDIR
 10
1.0
 20
0.0
 30
0.0
  9
$UCSYDIR
 10
0.0
 20
1.0
 30
0.0
  9
$PUCSNAME
  2

  9
$PUCSORG
 10
0.0
 20
0.0
 30
0.0
  9
$PUCSXDIR
 10
1.0
 20
0.0
 30
0.0
  9
$PUCSYDIR
 10
0.0
 20
1.0
 30
0.0
  9
$USERI1
 70
     0
  9
$USERI2
 70
     1
  9
$USERI3
 70
     0
  9
$USERI4
 70
     0
  9
$USERI5
 70
     0
  9
$USERR1
 40
0.0
  9
$USERR2
 40
0.0
  9
$USERR3
 40
0.0
  9
$USERR4
 40
0.0
  9
$USERR5
 40
0.0
  9
$WORLDVIEW
 70
     1
  9
$SHADEDGE
 70
     3
  9
$SHADEDIF
 70
    70
  9
$TILEMODE
 70
     1
  9
$MAXACTVP
 70
    16
  9
$PLIMCHECK
 70
     0
  9
$PEXTMIN
 10
1.0000000000000000E+020
 20
1.0000000000000000E+020
 30
1.0000000000000000E+020
  9
$PEXTMAX
 10
-1.0000000000000000E+020
 20
-1.0000000000000000E+020
 30
-1.0000000000000000E+020
  9
$PLIMMIN
 10
0.0
 20
0.0
  9
$PLIMMAX
 10
12.0
 20
9.0
  9
$UNITMODE
 70
     0
  9
$VISRETAIN
 70
     0
  9
$PLINEGEN
 70
     0
  9
$PSLTSCALE
 70
     0
  0
ENDSEC
  0
SECTION
  2
TABLES
  0
TABLE
  2
VPORT
 70
     1
  0
VPORT
  2
*ACTIVE
 70
     0
 10
0.0
 20
0.0
 11
1.0
 21
1.0
 12
195.0581083320873
 22
133.5127261426681
 13
0.0
 23
0.0
 14
10.0
 24
10.0
 15
10.0
 25
10.0
 16
0.0
 26
0.0
 36
1.0
 17
0.0
 27
0.0
 37
0.0
 40
275.42274993631997
 41
1.831871345029239
 42
50.0
 43
0.0
 44
0.0
 50
0.0
 51
0.0
 71
     0
 72
   100
 73
     1
 74
     0
 75
     0
 76
     0
 77
     0
 78
     1
  0
ENDTAB
  0
TABLE
  2
LTYPE
 70
     4
  0
LTYPE
  2
CONTINUOUS
 70
     0
  3
Solid Line
 72
    65
 73
     0
 40
0.0
  0
LTYPE
  2
CENTER
 70
     0
  3
____ _ ____ _ ____ _ ____ _ ____ _ ____ _ ____
 72
    65
 73
     4
 40
2.0
 49
1.25
 49
-0.25
 49
0.25
 49
-0.25
  0
LTYPE
  2
HIDDEN
 70
     0
  3
_ _ _ _ _ _ _ _ _ _ _ _ _ _ _ _ _ _ _ _ _ _ _
 72
    65
 73
     2
 40
0.375
 49
0.25
 49
-0.125
  0
LTYPE
  2
PHANTOM2
 70
     0
  3
___ _ _ ___ _ _ ___ _ _ ___ _ _
 72
    65
 73
     6
 40
1.25
 49
0.625
 49
-0.125
 49
0.125
 49
-0.125
 49
0.125
 49
-0.125
  0
ENDTAB
  0
TABLE
  2
LAYER
 70
     3
  0
LAYER
  2
0
 70
     0
 62
     7
  6
CONTINUOUS
  0
LAYER
  2
1
 70
     0
 62
     1
  6
CENTER
  0
LAYER
  2
2
 70
     0
 62
     2
  6
HIDDEN
  0
ENDTAB
  0
TABLE
  2
STYLE
 70
     2
  0
STYLE
  2
STANDARD
 70
     0
 40
0.0
 41
1.0
 50
0.0
 71
     0
 42
0.2
  3
TXT
  4
BIGFONT
  0
STYLE
  2
STANDARD1
 70
     0
 40
0.0
 41
1.0
 50
0.0
 71
     0
 42
3.0
  3
txt
  4

  0
ENDTAB
  0
TABLE
  2
VIEW
 70
     1
  0
VIEW
  2
ALL
 70
     0
 40
175.0
 10
153.88888899999989
 20
87.5
 41
0.0
 11
0.0
 21
0.0
 31
1.0
 12
0.0
 22
0.0
 32
0.0
 42
0.0
 43
0.0
 44
0.0
 50
0.0
 71
     0
  0
ENDTAB
  0
TABLE
  2
UCS
 70
     0
  0
ENDTAB
  0
TABLE
  2
APPID
 70
     3
  0
APPID
  2
ACAD
 70
     0
  0
APPID
  2
ACAD_MLEADERVER
 70
     0
  0
APPID
  2
ACAD_NAV_VCDISPLAY
 70
     0
  0
ENDTAB
  0
TABLE
  2
DIMSTYLE
 70
     1
  0
DIMSTYLE
  2
STANDARD
 70
     0
  3

  4

  5

  6

  7

 40
1.0
 41
0.18
 42
0.0625
 43
0.38
 44
0.18
 45
0.0
 46
0.0
 47
0.0
 48
0.0
140
0.18
141
0.09
142
0.0
143
25.399999999999999
144
1.0
145
0.0
146
1.0
147
0.09
 71
     0
 72
     0
 73
     1
 74
     1
 75
     0
 76
     0
 77
     0
 78
     0
170
     0
171
     2
172
     0
173
     0
174
     0
175
     0
176
     0
177
     0
178
     0
  0
ENDTAB
  0
ENDSEC
  0
SECTION
  2
BLOCKS
  0
BLOCK
  8
0
  2
$MODEL_SPACE
 70
     0
 10
0.0
 20
0.0
 30
0.0
  3
$MODEL_SPACE
  1

  0
ENDBLK
  5
129
  8
0
  0
BLOCK
 67
     1
  8
0
  2
$PAPER_SPACE
 70
     0
 10
0.0
 20
0.0
 30
0.0
  3
$PAPER_SPACE
  1

  0
ENDBLK
  5
127
 67
     1
  8
0
  0
ENDSEC
  0
SECTION
  2
ENTITIES
  0
ARC
  5
35
  8
0
 10
105.994135
 20
155.994135
 30
0.0
 40
21.0
 50
179.123279
 51
270.87672099999997
  0
ARC
  5
36
  8
0
 10
106.5
 20
130.0
 30
0.0
 40
5.0
 50
267.884818
 51
92.115181999999976
  0
ARC
  5
37
  8
0
 10
105.994135
 20
104.005865
 30
0.0
 40
21.0
 50
89.123279000000011
 51
180.876721
  0
ARC
  5
38
  8
0
 10
80.0
 20
103.5
 30
0.0
 40
5.0
 50
177.884818
 51
2.115181999999999
  0
ARC
  5
39
  8
0
 10
54.005865
 20
104.005865
 30
0.0
 40
21.0
 50
359.12327900000003
 51
90.876720999999975
  0
ARC
  5
3A
  8
0
 10
53.5
 20
130.0
 30
0.0
 40
5.0
 50
87.88481800000001
 51
272.115182
  0
ARC
  5
3B
  8
0
 10
80.0
 20
156.5
 30
0.0
 40
5.0
 50
357.884818
 51
182.115182
  0
ARC
  5
3C
  8
0
 10
54.005865
 20
155.994135
 30
0.0
 40
21.0
 50
269.12327900000003
 51
0.8767209999999998
  0
LINE
  5
3D
  8
1
 10
80.0
 20
166.5
 30
0.0
 11
80.0
 21
93.499999999999986
 31
0.0
  0
LINE
  5
3E
  8
1
 10
116.5
 20
130.0
 30
0.0
 11
43.5
 21
130.0
 31
0.0
  0
LINE
  5
3F
  8
0
 10
187.0
 20
158.5
 30
0.0
 11
187.0
 21
101.5
 31
0.0
  0
ARC
  5
40
  8
0
 10
250.0
 20
130.0
 30
0.0
 40
80.0
 50
158.27637300000001
 51
201.72369699999999
  0
ARC
  5
41
  8
0
 10
178.468538
 20
101.5
 30
0.0
 40
3.0
 50
201.72549900000001
 51
269.99998199999999
  0
LINE
  5
42
  8
0
 10
184.0
 20
98.500000000000014
 30
0.0
 11
178.468537
 21
98.500000000000014
 31
0.0
  0
ARC
  5
43
  8
0
 10
184.0
 20
101.5
 30
0.0
 40
3.0
 50
270.0
 51
360.0
  0
LINE
  5
44
  8
0
 10
210.0
 20
117.0
 30
0.0
 11
191.67460399999999
 21
115.80486500000001
 31
0.0
  0
ARC
  5
45
  8
0
 10
192.0
 20
110.815465
 30
0.0
 40
5.0
 50
93.731397000000015
 51
180.0
  0
ARC
  5
46
  8
0
 10
192.0
 20
149.18453500000001
 30
0.0
 40
5.0
 50
180.0
 51
266.26860299999998
  0
ARC
  5
47
  8
0
 10
184.0
 20
158.5
 30
0.0
 40
3.0
 50
360.0
 51
90.0
  0
LINE
  5
48
  8
0
 10
184.0
 20
161.5
 30
0.0
 11
178.468538
 21
161.5
 31
0.0
  0
LINE
  5
49
  8
0
 10
210.0
 20
143.0
 30
0.0
 11
191.67460399999999
 21
144.19513499999999
 31
0.0
  0
LINE
  5
4A
  8
0
 10
210.0
 20
117.0
 30
0.0
 11
210.0
 21
143.0
 31
0.0
  0
LINE
  5
4B
  8
1
 10
215.0
 20
130.0
 30
0.0
 11
165.0
 21
130.0
 31
0.0
  0
LINE
  5
4C
  8
1
 10
326.5
 20
130.0
 30
0.0
 11
253.5
 21
130.0
 31
0.0
  0
LINE
  5
4D
  8
1
 10
290.0
 20
166.5
 30
0.0
 11
290.0
 21
93.499999999999986
 31
0.0
  0
ARC
  5
4E
  8
0
 10
264.00586499999997
 20
155.994135
 30
0.0
 40
21.0
 50
269.12327900000003
 51
0.8767209999999998
  0
ARC
  5
4F
  8
0
 10
290.0
 20
156.5
 30
0.0
 40
5.0
 50
357.884818
 51
182.115182
  0
ARC
  5
50
  8
0
 10
263.5
 20
130.0
 30
0.0
 40
5.0
 50
87.88481800000001
 51
272.115182
  0
ARC
  5
51
  8
0
 10
264.00586499999997
 20
104.005865
 30
0.0
 40
21.0
 50
359.12327900000003
 51
90.876720999999975
  0
ARC
  5
52
  8
0
 10
290.0
 20
103.5
 30
0.0
 40
5.0
 50
177.884818
 51
2.115181999999999
  0
ARC
  5
53
  8
0
 10
315.99413500000003
 20
104.005865
 30
0.0
 40
21.0
 50
89.123279000000011
 51
180.876721
  0
ARC
  5
54
  8
0
 10
316.5
 20
130.0
 30
0.0
 40
5.0
 50
267.884818
 51
92.115181999999976
  0
ARC
  5
55
  8
0
 10
315.99413500000003
 20
155.994135
 30
0.0
 40
21.0
 50
179.123279
 51
270.87672099999997
  0
CIRCLE
  5
56
  8
0
 10
290.0
 20
130.0
 30
0.0
 40
13.0
  0
CIRCLE
  5
60
  8
0
 10
290.0
 20
130.0
 30
0.0
 40
14.5
  0
LINE
  5
61
  8
0
 10
179.46259499999999
 20
134.99659299999999
 30
0.0
 11
184.0
 21
134.99659299999999
 31
0.0
  0
LINE
  5
62
  8
0
 10
179.46259499999999
 20
125.003407
 30
0.0
 11
184.0
 21
125.003407
 31
0.0
  0
ARC
  5
63
  8
0
 10
184.0
 20
131.99659299999999
 30
0.0
 40
3.0
 50
0.0
 51
90.0
  0
ARC
  5
64
  8
0
 10
184.0
 20
128.00340700000001
 30
0.0
 40
3.0
 50
270.0
 51
0.0
  0
LINE
  5
65
  8
0
 10
176.46259499999999
 20
131.99659299999999
 30
0.0
 11
176.46259499999999
 21
128.00340700000001
 31
0.0
  0
POLYLINE
  5
66
  8
0
 66
     1
 10
0.0
 20
0.0
 30
0.0
  0
VERTEX
  5
67
  8
0
 10
171.56797399999999
 20
141.144892
 30
0.0
 42
0.0798
  0
VERTEX
  5
68
  8
0
 10
171.95529300000001
 20
138.733529
 30
0.0
 42
0.088689
  0
VERTEX
  5
69
  8
0
 10
173.001575
 20
136.79738800000001
 30
0.0
 42
0.105054
 70
     2
 50
308.52306800000002
  0
VERTEX
  5
6A
  8
0
 10
174.64902499999999
 20
135.44017500000001
 30
0.0
 42
0.120519
 50
308.52306800000002
  0
VERTEX
  5
6B
  8
0
 10
176.46259499999999
 20
134.99659299999999
 30
0.0
 42
0.120519
  0
SEQEND
  5
6C
  8
0
  0
POLYLINE
  5
6D
  8
0
 66
     1
 10
0.0
 20
0.0
 30
0.0
  0
VERTEX
  5
6E
  8
0
 10
171.745364
 20
146.61962600000001
 30
0.0
 42
0.016197
 50
256.479264
  0
VERTEX
  5
6F
  8
0
 10
171.56797399999999
 20
141.144892
 30
0.0
 42
0.024824
  0
SEQEND
  5
70
  8
0
  0
ARC
  5
71
  8
0
 10
179.46259499999999
 20
131.99659299999999
 30
0.0
 40
3.0
 50
90.0
 51
180.0
  0
ARC
  5
72
  8
0
 10
179.46259499999999
 20
128.00340700000001
 30
0.0
 40
3.0
 50
180.0
 51
270.0
  0
ARC
  5
73
  8
0
 10
178.468538
 20
158.5
 30
0.0
 40
3.0
 50
90.0
 51
158.27637300000001
  0
POLYLINE
  5
74
  8
0
 66
     1
 10
0.0
 20
0.0
 30
0.0
  0
VERTEX
  5
75
  8
0
 10
171.56797399999999
 20
118.855108
 30
0.0
 42
-0.0798
  0
VERTEX
  5
76
  8
0
 10
171.95529300000001
 20
121.266471
 30
0.0
 42
-0.088689
  0
VERTEX
  5
77
  8
0
 10
173.001575
 20
123.202612
 30
0.0
 42
-0.105054
 70
     2
 50
51.476931999999991
  0
VERTEX
  5
78
  8
0
 10
174.64902499999999
 20
124.559825
 30
0.0
 42
-0.120519
  0
VERTEX
  5
79
  8
0
 10
176.46259499999999
 20
125.003407
 30
0.0
 42
-0.120519
  0
SEQEND
  5
7A
  8
0
  0
POLYLINE
  5
7B
  8
0
 66
     1
 10
0.0
 20
0.0
 30
0.0
  0
VERTEX
  5
7C
  8
0
 10
171.745364
 20
113.380374
 30
0.0
 42
-0.016197
  0
VERTEX
  5
7D
  8
0
 10
171.56797399999999
 20
118.855108
 30
0.0
 42
-0.024824
  0
SEQEND
  5
7E
  8
0
  0
POLYLINE
  5
7F
  8
0
 66
     1
 10
0.0
 20
0.0
 30
0.0
  0
VERTEX
  5
80
  8
0
 10
171.745364
 20
195.05753200000001
 30
0.0
 42
-0.016197
  0
VERTEX
  5
81
  8
0
 10
171.56797399999999
 20
200.53226599999999
 30
0.0
 42
-0.024824
  0
SEQEND
  5
82
  8
0
  0
POLYLINE
  5
83
  8
0
 66
     1
 10
0.0
 20
0.0
 30
0.0
  0
VERTEX
  5
84
  8
0
 10
171.56797399999999
 20
200.53226599999999
 30
0.0
 42
-0.0798
  0
VERTEX
  5
85
  8
0
 10
171.95529300000001
 20
202.94362899999999
 30
0.0
 42
-0.088689
  0
VERTEX
  5
86
  8
0
 10
173.001575
 20
204.87977000000001
 30
0.0
 42
-0.105054
 70
     2
 50
51.476931999999991
  0
VERTEX
  5
87
  8
0
 10
174.64902499999999
 20
206.23698300000001
 30
0.0
 42
-0.120519
  0
VERTEX
  5
88
  8
0
 10
176.46259499999999
 20
206.680565
 30
0.0
 42
-0.120519
  0
SEQEND
  5
89
  8
0
  0
ARC
  5
8A
  8
0
 10
178.468538
 20
240.17715799999999
 30
0.0
 40
3.0
 50
90.0
 51
158.27637300000001
  0
ARC
  5
8B
  8
0
 10
179.46259499999999
 20
209.680565
 30
0.0
 40
3.0
 50
180.0
 51
270.0
  0
ARC
  5
8C
  8
0
 10
179.46259499999999
 20
213.67375200000001
 30
0.0
 40
3.0
 50
90.0
 51
180.0
  0
POLYLINE
  5
8D
  8
0
 66
     1
 10
0.0
 20
0.0
 30
0.0
  0
VERTEX
  5
8E
  8
0
 10
171.745364
 20
228.296785
 30
0.0
 42
0.016197
 50
256.479264
  0
VERTEX
  5
8F
  8
0
 10
171.56797399999999
 20
222.82205099999999
 30
0.0
 42
0.024824
  0
SEQEND
  5
90
  8
0
  0
POLYLINE
  5
91
  8
0
 66
     1
 10
0.0
 20
0.0
 30
0.0
  0
VERTEX
  5
92
  8
0
 10
171.56797399999999
 20
222.82205099999999
 30
0.0
 42
0.0798
  0
VERTEX
  5
93
  8
0
 10
171.95529300000001
 20
220.410687
 30
0.0
 42
0.088689
  0
VERTEX
  5
94
  8
0
 10
173.001575
 20
218.474547
 30
0.0
 42
0.105054
 70
     2
 50
308.52306800000002
  0
VERTEX
  5
95
  8
0
 10
174.64902499999999
 20
217.117333
 30
0.0
 42
0.120519
 50
308.52306800000002
  0
VERTEX
  5
96
  8
0
 10
176.46259499999999
 20
216.67375200000001
 30
0.0
 42
0.120519
  0
SEQEND
  5
97
  8
0
  0
LINE
  5
98
  8
0
 10
176.46259499999999
 20
213.67375200000001
 30
0.0
 11
176.46259499999999
 21
209.680565
 31
0.0
  0
ARC
  5
99
  8
0
 10
184.0
 20
209.680565
 30
0.0
 40
3.0
 50
270.0
 51
0.0
  0
ARC
  5
9A
  8
0
 10
184.0
 20
213.67375200000001
 30
0.0
 40
3.0
 50
0.0
 51
90.0
  0
LINE
  5
9B
  8
0
 10
179.46259499999999
 20
206.680565
 30
0.0
 11
184.0
 21
206.680565
 31
0.0
  0
LINE
  5
9C
  8
0
 10
179.46259499999999
 20
216.67375200000001
 30
0.0
 11
184.0
 21
216.67375200000001
 31
0.0
  0
LINE
  5
9D
  8
1
 10
215.0
 20
211.67715799999999
 30
0.0
 11
165.0
 21
211.67715799999999
 31
0.0
  0
LINE
  5
9E
  8
0
 10
210.0
 20
198.67715799999999
 30
0.0
 11
210.0
 21
224.67715799999999
 31
0.0
  0
LINE
  5
9F
  8
0
 10
210.0
 20
224.67715799999999
 30
0.0
 11
191.67460399999999
 21
225.87229300000001
 31
0.0
  0
LINE
  5
A0
  8
0
 10
184.0
 20
243.17715799999999
 30
0.0
 11
178.468538
 21
243.17715799999999
 31
0.0
  0
ARC
  5
A1
  8
0
 10
184.0
 20
240.17715799999999
 30
0.0
 40
3.0
 50
360.0
 51
90.0
  0
ARC
  5
A2
  8
0
 10
192.0
 20
230.861693
 30
0.0
 40
5.0
 50
180.0
 51
266.26860299999998
  0
ARC
  5
A3
  8
0
 10
192.0
 20
192.49262300000001
 30
0.0
 40
5.0
 50
93.731397000000015
 51
180.0
  0
LINE
  5
A4
  8
0
 10
210.0
 20
198.67715799999999
 30
0.0
 11
191.67460399999999
 21
197.482024
 31
0.0
  0
ARC
  5
A5
  8
0
 10
184.0
 20
183.17715799999999
 30
0.0
 40
3.0
 50
270.0
 51
360.0
  0
LINE
  5
A6
  8
0
 10
184.0
 20
180.17715799999999
 30
0.0
 11
178.468537
 21
180.17715799999999
 31
0.0
  0
ARC
  5
A7
  8
0
 10
178.468538
 20
183.17715799999999
 30
0.0
 40
3.0
 50
201.72549900000001
 51
269.99998199999999
  0
ARC
  5
A8
  8
0
 10
250.0
 20
211.67715799999999
 30
0.0
 40
80.0
 50
158.27637300000001
 51
201.72369699999999
  0
LINE
  5
A9
  8
0
 10
187.0
 20
240.17715799999999
 30
0.0
 11
187.0
 21
183.17715799999999
 31
0.0
  0
LINE
  5
AA
  8
0
 10
187.0
 20
19.822842000000001
 30
0.0
 11
187.0
 21
76.822842000000009
 31
0.0
  0
ARC
  5
AB
  8
0
 10
250.0
 20
48.322842000000001
 30
0.0
 40
80.0
 50
158.27630300000001
 51
201.72362699999999
  0
ARC
  5
AC
  8
0
 10
178.468538
 20
76.822842000000009
 30
0.0
 40
3.0
 50
90.000018000000011
 51
158.27450099999999
  0
LINE
  5
AD
  8
0
 10
184.0
 20
79.822842000000009
 30
0.0
 11
178.468537
 21
79.822842000000009
 31
0.0
  0
ARC
  5
AE
  8
0
 10
184.0
 20
76.822842000000009
 30
0.0
 40
3.0
 50
0.0
 51
90.0
  0
LINE
  5
AF
  8
0
 10
210.0
 20
61.322842000000001
 30
0.0
 11
191.67460399999999
 21
62.517975999999997
 31
0.0
  0
ARC
  5
B0
  8
0
 10
192.0
 20
67.507377000000005
 30
0.0
 40
5.0
 50
180.0
 51
266.26860299999998
  0
ARC
  5
B1
  8
0
 10
192.0
 20
29.138307000000001
 30
0.0
 40
5.0
 50
93.731397000000015
 51
180.0
  0
ARC
  5
B2
  8
0
 10
184.0
 20
19.822842000000001
 30
0.0
 40
3.0
 50
270.0
 51
0.0
  0
LINE
  5
B3
  8
0
 10
184.0
 20
16.822842000000001
 30
0.0
 11
178.468538
 21
16.822842000000001
 31
0.0
  0
LINE
  5
B4
  8
0
 10
210.0
 20
35.322842000000001
 30
0.0
 11
191.67460399999999
 21
34.127707000000001
 31
0.0
  0
LINE
  5
B5
  8
0
 10
210.0
 20
61.322842000000001
 30
0.0
 11
210.0
 21
35.322842000000001
 31
0.0
  0
LINE
  5
B6
  8
1
 10
215.0
 20
48.322842000000001
 30
0.0
 11
165.0
 21
48.322842000000001
 31
0.0
  0
LINE
  5
B7
  8
0
 10
179.46259499999999
 20
43.326248
 30
0.0
 11
184.0
 21
43.326248
 31
0.0
  0
LINE
  5
B8
  8
0
 10
179.46259499999999
 20
53.319434999999999
 30
0.0
 11
184.0
 21
53.319434999999999
 31
0.0
  0
ARC
  5
B9
  8
0
 10
184.0
 20
46.326248
 30
0.0
 40
3.0
 50
270.0
 51
0.0
  0
ARC
  5
BA
  8
0
 10
184.0
 20
50.319434999999999
 30
0.0
 40
3.0
 50
360.0
 51
90.0
  0
LINE
  5
BB
  8
0
 10
176.46259499999999
 20
46.326248
 30
0.0
 11
176.46259499999999
 21
50.319434999999999
 31
0.0
  0
POLYLINE
  5
BC
  8
0
 66
     1
 10
0.0
 20
0.0
 30
0.0
  0
VERTEX
  5
BD
  8
0
 10
171.56797399999999
 20
37.177948999999998
 30
0.0
 42
-0.0798
  0
VERTEX
  5
BE
  8
0
 10
171.95529300000001
 20
39.589312999999997
 30
0.0
 42
-0.088689
  0
VERTEX
  5
BF
  8
0
 10
173.001575
 20
41.525452999999999
 30
0.0
 42
-0.105054
 70
     2
 50
51.476931999999991
  0
VERTEX
  5
C0
  8
0
 10
174.64902499999999
 20
42.882666999999998
 30
0.0
 42
-0.120519
  0
VERTEX
  5
C1
  8
0
 10
176.46259499999999
 20
43.326248
 30
0.0
 42
-0.120519
  0
SEQEND
  5
C2
  8
0
  0
POLYLINE
  5
C3
  8
0
 66
     1
 10
0.0
 20
0.0
 30
0.0
  0
VERTEX
  5
C4
  8
0
 10
171.745364
 20
31.703215
 30
0.0
 42
-0.016197
  0
VERTEX
  5
C5
  8
0
 10
171.56797399999999
 20
37.177948999999998
 30
0.0
 42
-0.024824
  0
SEQEND
  5
C6
  8
0
  0
ARC
  5
C7
  8
0
 10
179.46259499999999
 20
46.326248
 30
0.0
 40
3.0
 50
180.0
 51
270.0
  0
ARC
  5
C8
  8
0
 10
179.46259499999999
 20
50.319434999999999
 30
0.0
 40
3.0
 50
90.0
 51
180.0
  0
ARC
  5
C9
  8
0
 10
178.468538
 20
19.822842000000001
 30
0.0
 40
3.0
 50
201.72362699999999
 51
270.0
  0
POLYLINE
  5
CA
  8
0
 66
     1
 10
0.0
 20
0.0
 30
0.0
  0
VERTEX
  5
CB
  8
0
 10
171.56797399999999
 20
59.467734
 30
0.0
 42
0.0798
  0
VERTEX
  5
CC
  8
0
 10
171.95529300000001
 20
57.056370999999999
 30
0.0
 42
0.088689
  0
VERTEX
  5
CD
  8
0
 10
173.001575
 20
55.120230000000006
 30
0.0
 42
0.105054
 70
     2
 50
308.52306800000002
  0
VERTEX
  5
CE
  8
0
 10
174.64902499999999
 20
53.763016999999998
 30
0.0
 42
0.120519
  0
VERTEX
  5
CF
  8
0
 10
176.46259499999999
 20
53.319434999999999
 30
0.0
 42
0.120519
  0
SEQEND
  5
D0
  8
0
  0
POLYLINE
  5
D1
  8
0
 66
     1
 10
0.0
 20
0.0
 30
0.0
  0
VERTEX
  5
D2
  8
0
 10
171.745364
 20
64.942468000000005
 30
0.0
 42
0.016197
  0
VERTEX
  5
D3
  8
0
 10
171.56797399999999
 20
59.467734
 30
0.0
 42
0.024824
  0
SEQEND
  5
D4
  8
0
  0
LINE
  5
D5
  8
2
 10
185.0
 20
42.822842000000001
 30
0.0
 11
181.82457400000001
 21
48.322842000000001
 31
0.0
  0
LINE
  5
D6
  8
2
 10
185.0
 20
53.822842000000001
 30
0.0
 11
181.82457400000001
 21
48.322842000000001
 31
0.0
  0
LINE
  5
D7
  8
2
 10
209.0
 20
54.322842000000001
 30
0.0
 11
209.0
 21
42.322842000000001
 31
0.0
  0
LINE
  5
D8
  8
2
 10
209.0
 20
54.322842000000001
 30
0.0
 11
210.0
 21
55.322842000000001
 31
0.0
  0
LINE
  5
D9
  8
2
 10
209.0
 20
42.322842000000001
 30
0.0
 11
210.0
 21
41.322841999999987
 31
0.0
  0
LINE
  5
DA
  8
2
 10
188.0
 20
42.822842000000001
 30
0.0
 11
185.0
 21
42.822842000000001
 31
0.0
  0
LINE
  5
DB
  8
2
 10
188.0
 20
53.822842000000001
 30
0.0
 11
185.0
 21
53.822842000000001
 31
0.0
  0
LINE
  5
DC
  8
2
 10
185.0
 20
42.822842000000001
 30
0.0
 11
185.0
 21
53.822842000000001
 31
0.0
  0
LINE
  5
DD
  8
2
 10
188.0
 20
42.322842000000001
 30
0.0
 11
188.0
 21
54.322842000000001
 31
0.0
  0
LINE
  5
DE
  8
2
 10
209.0
 20
42.322842000000001
 30
0.0
 11
188.0
 21
42.322842000000001
 31
0.0
  0
LINE
  5
DF
  8
2
 10
209.0
 20
54.322842000000001
 30
0.0
 11
188.0
 21
54.322842000000001
 31
0.0
  0
LINE
  5
E0
  8
2
 10
185.0
 20
124.5
 30
0.0
 11
181.82457400000001
 21
130.0
 31
0.0
  0
LINE
  5
E1
  8
2
 10
185.0
 20
135.5
 30
0.0
 11
181.82457400000001
 21
130.0
 31
0.0
  0
LINE
  5
E2
  8
2
 10
209.0
 20
136.0
 30
0.0
 11
209.0
 21
124.0
 31
0.0
  0
LINE
  5
E3
  8
2
 10
209.0
 20
136.0
 30
0.0
 11
210.0
 21
137.0
 31
0.0
  0
LINE
  5
E4
  8
2
 10
209.0
 20
124.0
 30
0.0
 11
210.0
 21
123.0
 31
0.0
  0
LINE
  5
E5
  8
2
 10
188.0
 20
124.5
 30
0.0
 11
185.0
 21
124.5
 31
0.0
  0
LINE
  5
E6
  8
2
 10
188.0
 20
135.5
 30
0.0
 11
185.0
 21
135.5
 31
0.0
  0
LINE
  5
E7
  8
2
 10
185.0
 20
124.5
 30
0.0
 11
185.0
 21
135.5
 31
0.0
  0
LINE
  5
E8
  8
2
 10
188.0
 20
124.0
 30
0.0
 11
188.0
 21
136.0
 31
0.0
  0
LINE
  5
E9
  8
2
 10
209.0
 20
124.0
 30
0.0
 11
188.0
 21
124.0
 31
0.0
  0
LINE
  5
EA
  8
2
 10
209.0
 20
136.0
 30
0.0
 11
188.0
 21
136.0
 31
0.0
  0
LINE
  5
EB
  8
2
 10
185.0
 20
206.17715799999999
 30
0.0
 11
181.82457400000001
 21
211.67715799999999
 31
0.0
  0
LINE
  5
EC
  8
2
 10
185.0
 20
217.17715799999999
 30
0.0
 11
181.82457400000001
 21
211.67715799999999
 31
0.0
  0
LINE
  5
ED
  8
2
 10
209.0
 20
217.67715799999999
 30
0.0
 11
209.0
 21
205.67715799999999
 31
0.0
  0
LINE
  5
EE
  8
2
 10
209.0
 20
217.67715799999999
 30
0.0
 11
210.0
 21
218.67715799999999
 31
0.0
  0
LINE
  5
EF
  8
2
 10
209.0
 20
205.67715799999999
 30
0.0
 11
210.0
 21
204.67715799999999
 31
0.0
  0
LINE
  5
F0
  8
2
 10
188.0
 20
206.17715799999999
 30
0.0
 11
185.0
 21
206.17715799999999
 31
0.0
  0
LINE
  5
F1
  8
2
 10
188.0
 20
217.17715799999999
 30
0.0
 11
185.0
 21
217.17715799999999
 31
0.0
  0
LINE
  5
F2
  8
2
 10
185.0
 20
206.17715799999999
 30
0.0
 11
185.0
 21
217.17715799999999
 31
0.0
  0
LINE
  5
F3
  8
2
 10
188.0
 20
205.67715799999999
 30
0.0
 11
188.0
 21
217.67715799999999
 31
0.0
  0
LINE
  5
F4
  8
2
 10
209.0
 20
205.67715799999999
 30
0.0
 11
188.0
 21
205.67715799999999
 31
0.0
  0
LINE
  5
F5
  8
2
 10
209.0
 20
217.67715799999999
 30
0.0
 11
188.0
 21
217.67715799999999
 31
0.0
  0
CIRCLE
  5
F6
  8
0
 10
290.0
 20
130.0
 30
0.0
 40
6.0
  0
TEXT
  5
1E2
  8
0
 62
     3
 10
0.0
 20
0.0
 30
0.0
 40
10.0
  1
CK63R
  7
STANDARD1
  0
ENDSEC
  0
EOF
