  0
SECTION
  2
HEADER
  9
$ACADVER
  1
AC1009
  9
$INSBASE
 10
0.0
 20
0.0
 30
0.0
  9
$EXTMIN
 10
0.0
 20
-2.960436562073669
 30
0.0
  9
$EXTMAX
 10
365.0
 20
266.65917300000001
 30
0.0
  9
$LIMMIN
 10
0.0
 20
0.0
  9
$LIMMAX
 10
375.0
 20
270.0
  9
$ORTHOMODE
 70
     1
  9
$REGENMODE
 70
     1
  9
$FILLMODE
 70
     1
  9
$QTEXTMODE
 70
     0
  9
$MIRRTEXT
 70
     0
  9
$DRAGMODE
 70
     2
  9
$LTSCALE
 40
10.0
  9
$OSMODE
 70
  3071
  9
$ATTMODE
 70
     1
  9
$TEXTSIZE
 40
0.2
  9
$TRACEWID
 40
0.05
  9
$TEXTSTYLE
  7
STANDARD
  9
$CLAYER
  8
0
  9
$CELTYPE
  6
BYLAYER
  9
$CECOLOR
 62
   256
  9
$DIMSCALE
 40
1.0
  9
$DIMASZ
 40
3.0
  9
$DIMEXO
 40
2.0
  9
$DIMDLI
 40
10.0
  9
$DIMRND
 40
0.0
  9
$DIMDLE
 40
0.0
  9
$DIMEXE
 40
2.0
  9
$DIMTP
 40
0.0
  9
$DIMTM
 40
0.0
  9
$DIMTXT
 40
3.2000000000000002
  9
$DIMCEN
 40
0.09
  9
$DIMTSZ
 40
0.0
  9
$DIMTOL
 70
     0
  9
$DIMLIM
 70
     0
  9
$DIMTIH
 70
     0
  9
$DIMTOH
 70
     0
  9
$DIMSE1
 70
     0
  9
$DIMSE2
 70
     0
  9
$DIMTAD
 70
     0
  9
$DIMZIN
 70
     0
  9
$DIMBLK
  1

  9
$DIMASO
 70
     0
  9
$DIMSHO
 70
     0
  9
$DIMPOST
  1

  9
$DIMAPOST
  1

  9
$DIMALT
 70
     0
  9
$DIMALTD
 70
     2
  9
$DIMALTF
 40
25.399999999999999
  9
$DIMLFAC
 40
1.0
  9
$DIMTOFL
 70
     1
  9
$DIMTVP
 40
1.0
  9
$DIMTIX
 70
     1
  9
$DIMSOXD
 70
     0
  9
$DIMSAH
 70
     0
  9
$DIMBLK1
  1

  9
$DIMBLK2
  1

  9
$DIMSTYLE
  2
STANDARD
  9
$DIMCLRD
 70
     0
  9
$DIMCLRE
 70
     0
  9
$DIMCLRT
 70
     0
  9
$DIMTFAC
 40
1.0
  9
$DIMGAP
 40
0.09
  9
$LUNITS
 70
     2
  9
$LUPREC
 70
     2
  9
$SKETCHINC
 40
0.1
  9
$FILLETRAD
 40
4.0
  9
$AUNITS
 70
     0
  9
$AUPREC
 70
     0
  9
$MENU
  1
E:\r13\win\SUPPORT\ACAD
  9
$ELEVATION
 40
0.0
  9
$PELEVATION
 40
0.0
  9
$THICKNESS
 40
0.0
  9
$LIMCHECK
 70
     0
  9
$BLIPMODE
 70
     0
  9
$CHAMFERA
 40
0.0
  9
$CHAMFERB
 40
0.0
  9
$SKPOLY
 70
     0
  9
$TDCREATE
 40
2449840.602407407
  9
$TDUPDATE
 40
2456598.5908850809
  9
$TDINDWG
 40
0.0003781829
  9
$TDUSRTIMER
 40
0.0003781829
  9
$USRTIMER
 70
     1
  9
$ANGBASE
 50
0.0
  9
$ANGDIR
 70
     0
  9
$PDMODE
 70
     0
  9
$PDSIZE
 40
0.0
  9
$PLINEWID
 40
0.0
  9
$COORDS
 70
     1
  9
$SPLFRAME
 70
     0
  9
$SPLINETYPE
 70
     6
  9
$SPLINESEGS
 70
     8
  9
$ATTDIA
 70
     0
  9
$ATTREQ
 70
     1
  9
$HANDLING
 70
     1
  9
$HANDSEED
  5
273
  9
$SURFTAB1
 70
     6
  9
$SURFTAB2
 70
     6
  9
$SURFTYPE
 70
     6
  9
$SURFU
 70
     6
  9
$SURFV
 70
     6
  9
$UCSNAME
  2

  9
$UCSORG
 10
0.0
 20
0.0
 30
0.0
  9
$UCSXDIR
 10
1.0
 20
0.0
 30
0.0
  9
$UCSYDIR
 10
0.0
 20
1.0
 30
0.0
  9
$PUCSNAME
  2

  9
$PUCSORG
 10
0.0
 20
0.0
 30
0.0
  9
$PUCSXDIR
 10
1.0
 20
0.0
 30
0.0
  9
$PUCSYDIR
 10
0.0
 20
1.0
 30
0.0
  9
$USERI1
 70
     0
  9
$USERI2
 70
     1
  9
$USERI3
 70
     0
  9
$USERI4
 70
     0
  9
$USERI5
 70
     0
  9
$USERR1
 40
0.0
  9
$USERR2
 40
0.0
  9
$USERR3
 40
0.0
  9
$USERR4
 40
0.0
  9
$USERR5
 40
0.0
  9
$WORLDVIEW
 70
     1
  9
$SHADEDGE
 70
     3
  9
$SHADEDIF
 70
    70
  9
$TILEMODE
 70
     1
  9
$MAXACTVP
 70
    16
  9
$PLIMCHECK
 70
     0
  9
$PEXTMIN
 10
1.0000000000000000E+020
 20
1.0000000000000000E+020
 30
1.0000000000000000E+020
  9
$PEXTMAX
 10
-1.0000000000000000E+020
 20
-1.0000000000000000E+020
 30
-1.0000000000000000E+020
  9
$PLIMMIN
 10
0.0
 20
0.0
  9
$PLIMMAX
 10
12.0
 20
9.0
  9
$UNITMODE
 70
     0
  9
$VISRETAIN
 70
     0
  9
$PLINEGEN
 70
     0
  9
$PSLTSCALE
 70
     0
  0
ENDSEC
  0
SECTION
  2
TABLES
  0
TABLE
  2
VPORT
 70
     1
  0
VPORT
  2
*ACTIVE
 70
     0
 10
0.0
 20
0.0
 11
1.0
 21
1.0
 12
195.0581083320873
 22
133.5127261426681
 13
0.0
 23
0.0
 14
10.0
 24
10.0
 15
10.0
 25
10.0
 16
0.0
 26
0.0
 36
1.0
 17
0.0
 27
0.0
 37
0.0
 40
275.42274993631997
 41
1.831871345029239
 42
50.0
 43
0.0
 44
0.0
 50
0.0
 51
0.0
 71
     0
 72
   100
 73
     1
 74
     0
 75
     0
 76
     0
 77
     0
 78
     1
  0
ENDTAB
  0
TABLE
  2
LTYPE
 70
     4
  0
LTYPE
  2
CONTINUOUS
 70
     0
  3
Solid Line
 72
    65
 73
     0
 40
0.0
  0
LTYPE
  2
CENTER
 70
     0
  3
____ _ ____ _ ____ _ ____ _ ____ _ ____ _ ____
 72
    65
 73
     4
 40
2.0
 49
1.25
 49
-0.25
 49
0.25
 49
-0.25
  0
LTYPE
  2
HIDDEN
 70
     0
  3
_ _ _ _ _ _ _ _ _ _ _ _ _ _ _ _ _ _ _ _ _ _ _
 72
    65
 73
     2
 40
0.375
 49
0.25
 49
-0.125
  0
LTYPE
  2
PHANTOM2
 70
     0
  3
___ _ _ ___ _ _ ___ _ _ ___ _ _
 72
    65
 73
     6
 40
1.25
 49
0.625
 49
-0.125
 49
0.125
 49
-0.125
 49
0.125
 49
-0.125
  0
ENDTAB
  0
TABLE
  2
LAYER
 70
     3
  0
LAYER
  2
0
 70
     0
 62
     7
  6
CONTINUOUS
  0
LAYER
  2
1
 70
     0
 62
     1
  6
CENTER
  0
LAYER
  2
2
 70
     0
 62
     2
  6
HIDDEN
  0
ENDTAB
  0
TABLE
  2
STYLE
 70
     2
  0
STYLE
  2
STANDARD
 70
     0
 40
0.0
 41
1.0
 50
0.0
 71
     0
 42
0.2
  3
TXT
  4
BIGFONT
  0
STYLE
  2
STANDARD1
 70
     0
 40
0.0
 41
1.0
 50
0.0
 71
     0
 42
3.0
  3
txt
  4

  0
ENDTAB
  0
TABLE
  2
VIEW
 70
     1
  0
VIEW
  2
ALL
 70
     0
 40
270.0
 10
220.99159700000001
 20
135.0
 41
0.0
 11
0.0
 21
0.0
 31
1.0
 12
0.0
 22
0.0
 32
0.0
 42
0.0
 43
0.0
 44
0.0
 50
0.0
 71
     0
  0
ENDTAB
  0
TABLE
  2
UCS
 70
     0
  0
ENDTAB
  0
TABLE
  2
APPID
 70
     3
  0
APPID
  2
ACAD
 70
     0
  0
APPID
  2
ACAD_MLEADERVER
 70
     0
  0
APPID
  2
ACAD_NAV_VCDISPLAY
 70
     0
  0
ENDTAB
  0
TABLE
  2
DIMSTYLE
 70
     1
  0
DIMSTYLE
  2
STANDARD
 70
     0
  3

  4

  5

  6

  7

 40
1.0
 41
0.18
 42
0.0625
 43
0.38
 44
0.18
 45
0.0
 46
0.0
 47
0.0
 48
0.0
140
0.18
141
0.09
142
0.0
143
25.399999999999999
144
1.0
145
0.0
146
1.0
147
0.09
 71
     0
 72
     0
 73
     1
 74
     1
 75
     0
 76
     0
 77
     0
 78
     0
170
     0
171
     2
172
     0
173
     0
174
     0
175
     0
176
     0
177
     0
178
     0
  0
ENDTAB
  0
ENDSEC
  0
SECTION
  2
BLOCKS
  0
BLOCK
  8
0
  2
$MODEL_SPACE
 70
     0
 10
0.0
 20
0.0
 30
0.0
  3
$MODEL_SPACE
  1

  0
ENDBLK
  5
129
  8
0
  0
BLOCK
 67
     1
  8
0
  2
$PAPER_SPACE
 70
     0
 10
0.0
 20
0.0
 30
0.0
  3
$PAPER_SPACE
  1

  0
ENDBLK
  5
127
 67
     1
  8
0
  0
ENDSEC
  0
SECTION
  2
ENTITIES
  0
ARC
  5
35
  8
0
 10
91.432045000000016
 20
166.43204499999999
 30
0.0
 40
25.0
 50
176.24567999999999
 51
273.75432000000001
  0
ARC
  5
36
  8
0
 10
93.499999999999986
 20
135.0
 30
0.0
 40
6.5
 50
266.19809600000002
 51
93.801904000000007
  0
ARC
  5
37
  8
0
 10
91.432045000000016
 20
103.567955
 30
0.0
 40
25.0
 50
86.245680000000007
 51
183.75432000000001
  0
ARC
  5
38
  8
0
 10
60.0
 20
101.5
 30
0.0
 40
6.5
 50
176.19809599999999
 51
3.801904
  0
ARC
  5
39
  8
0
 10
28.567955000000001
 20
103.567955
 30
0.0
 40
25.0
 50
356.24567999999999
 51
93.754319999999993
  0
ARC
  5
3A
  8
0
 10
26.5
 20
135.0
 30
0.0
 40
6.5
 50
86.198095999999993
 51
273.80190399999998
  0
ARC
  5
3B
  8
0
 10
60.0
 20
168.5
 30
0.0
 40
6.5
 50
356.19809600000002
 51
183.80190400000001
  0
ARC
  5
3C
  8
0
 10
28.567955000000001
 20
166.43204499999999
 30
0.0
 40
25.0
 50
266.24567999999999
 51
3.754319999999999
  0
LINE
  5
3D
  8
1
 10
60.0
 20
180.0
 30
0.0
 11
60.0
 21
90.0
 31
0.0
  0
LINE
  5
3E
  8
1
 10
15.0
 20
135.0
 30
0.0
 11
105.0
 21
135.0
 31
0.0
  0
ARC
  5
3F
  8
0
 10
265.0
 20
135.0
 30
0.0
 40
100.0
 50
157.97568699999999
 51
202.02437699999999
  0
LINE
  5
40
  8
0
 10
187.0
 20
171.0
 30
0.0
 11
187.0
 21
99.0
 31
0.0
  0
ARC
  5
41
  8
0
 10
176.005618
 20
99.0
 30
0.0
 40
4.0
 50
202.025916
 51
269.99998099999999
  0
LINE
  5
42
  8
0
 10
183.0
 20
95.0
 30
0.0
 11
176.005617
 21
95.0
 31
0.0
  0
ARC
  5
43
  8
0
 10
183.0
 20
99.0
 30
0.0
 40
4.0
 50
270.0
 51
360.0
  0
LINE
  5
44
  8
0
 10
215.0
 20
117.5
 30
0.0
 11
192.67903200000001
 21
116.30423399999999
 31
0.0
  0
ARC
  5
45
  8
0
 10
193.0
 20
110.312825
 30
0.0
 40
6.0
 50
93.066485999999998
 51
180.0
  0
ARC
  5
46
  8
0
 10
193.0
 20
159.687175
 30
0.0
 40
6.0
 50
180.0
 51
266.933514
  0
ARC
  5
47
  8
0
 10
183.0
 20
171.0
 30
0.0
 40
4.0
 50
360.0
 51
90.0
  0
LINE
  5
48
  8
0
 10
183.0
 20
175.0
 30
0.0
 11
176.005618
 21
175.0
 31
0.0
  0
LINE
  5
49
  8
0
 10
215.0
 20
152.5
 30
0.0
 11
192.67903200000001
 21
153.69576599999999
 31
0.0
  0
LINE
  5
4A
  8
0
 10
215.0
 20
117.5
 30
0.0
 11
215.0
 21
152.5
 31
0.0
  0
LINE
  5
4B
  8
1
 10
220.0
 20
135.0
 30
0.0
 11
160.0
 21
135.0
 31
0.0
  0
LINE
  5
4C
  8
1
 10
275.0
 20
135.0
 30
0.0
 11
365.0
 21
135.0
 31
0.0
  0
LINE
  5
4D
  8
1
 10
320.0
 20
180.0
 30
0.0
 11
320.0
 21
90.0
 31
0.0
  0
ARC
  5
4E
  8
0
 10
288.56795499999998
 20
166.43204499999999
 30
0.0
 40
25.0
 50
266.24567999999999
 51
3.754319999999999
  0
ARC
  5
4F
  8
0
 10
320.0
 20
168.5
 30
0.0
 40
6.5
 50
356.19809600000002
 51
183.80190400000001
  0
ARC
  5
50
  8
0
 10
286.5
 20
135.0
 30
0.0
 40
6.5
 50
86.198095999999993
 51
273.80190399999998
  0
ARC
  5
51
  8
0
 10
288.56795499999998
 20
103.567955
 30
0.0
 40
25.0
 50
356.24567999999999
 51
93.754319999999993
  0
ARC
  5
52
  8
0
 10
320.0
 20
101.5
 30
0.0
 40
6.5
 50
176.19809599999999
 51
3.801904
  0
ARC
  5
53
  8
0
 10
351.43204500000002
 20
103.567955
 30
0.0
 40
25.0
 50
86.245680000000007
 51
183.75432000000001
  0
ARC
  5
54
  8
0
 10
353.5
 20
135.0
 30
0.0
 40
6.5
 50
266.19809600000002
 51
93.801904000000007
  0
ARC
  5
55
  8
0
 10
351.43204500000002
 20
166.43204499999999
 30
0.0
 40
25.0
 50
176.24567999999999
 51
273.75432000000001
  0
CIRCLE
  5
56
  8
0
 10
320.0
 20
135.0
 30
0.0
 40
17.5
  0
CIRCLE
  5
57
  8
0
 10
320.0
 20
135.0
 30
0.0
 40
19.0
  0
LINE
  5
61
  8
0
 10
177.34848600000001
 20
128.51430500000001
 30
0.0
 11
183.0
 21
128.51430500000001
 31
0.0
  0
LINE
  5
62
  8
0
 10
177.34848600000001
 20
141.48569499999999
 30
0.0
 11
183.0
 21
141.48569499999999
 31
0.0
  0
ARC
  5
63
  8
0
 10
183.0
 20
137.48569499999999
 30
0.0
 40
4.0
 50
0.0
 51
90.0
  0
ARC
  5
64
  8
0
 10
183.0
 20
132.51430500000001
 30
0.0
 40
4.0
 50
270.0
 51
0.0
  0
POLYLINE
  5
65
  8
0
 66
     1
 10
0.0
 20
0.0
 30
0.0
  0
VERTEX
  5
66
  8
0
 10
166.91006999999999
 20
148.75437500000001
 30
0.0
 42
0.08814
  0
VERTEX
  5
67
  8
0
 10
167.411205
 20
145.93362099999999
 30
0.0
 42
0.093584
  0
VERTEX
  5
68
  8
0
 10
168.795839
 20
143.614642
 30
0.0
 42
0.102476
 70
     2
 50
311.53372300000001
  0
VERTEX
  5
69
  8
0
 10
170.924147
 20
142.02453700000001
 30
0.0
 42
0.109792
 50
311.53372300000001
  0
VERTEX
  5
6A
  8
0
 10
173.34848600000001
 20
141.48569499999999
 30
0.0
 42
0.109792
  0
SEQEND
  5
6B
  8
0
  0
POLYLINE
  5
6C
  8
0
 66
     1
 10
0.0
 20
0.0
 30
0.0
  0
VERTEX
  5
6D
  8
0
 10
167.122862
 20
155.495509
 30
0.0
 42
0.015779
 50
256.21673500000003
  0
VERTEX
  5
6E
  8
0
 10
166.91006999999999
 20
148.75437500000001
 30
0.0
 42
0.025322
  0
SEQEND
  5
6F
  8
0
  0
LINE
  5
70
  8
0
 10
173.34848600000001
 20
137.48569499999999
 30
0.0
 11
173.34848600000001
 21
132.51430500000001
 31
0.0
  0
ARC
  5
71
  8
0
 10
176.005618
 20
171.0
 30
0.0
 40
4.0
 50
90.0
 51
157.97568699999999
  0
ARC
  5
72
  8
0
 10
177.34848600000001
 20
137.48569499999999
 30
0.0
 40
4.0
 50
90.0
 51
180.0
  0
ARC
  5
73
  8
0
 10
177.34848600000001
 20
132.51430500000001
 30
0.0
 40
4.0
 50
180.0
 51
270.0
  0
POLYLINE
  5
74
  8
0
 66
     1
 10
0.0
 20
0.0
 30
0.0
  0
VERTEX
  5
75
  8
0
 10
166.91006999999999
 20
121.245625
 30
0.0
 42
-0.08814
  0
VERTEX
  5
76
  8
0
 10
167.411205
 20
124.066379
 30
0.0
 42
-0.093584
  0
VERTEX
  5
77
  8
0
 10
168.795839
 20
126.385358
 30
0.0
 42
-0.102476
 70
     2
 50
48.466276999999998
  0
VERTEX
  5
78
  8
0
 10
170.924147
 20
127.975463
 30
0.0
 42
-0.109792
  0
VERTEX
  5
79
  8
0
 10
173.34848600000001
 20
128.51430500000001
 30
0.0
 42
-0.109792
  0
SEQEND
  5
7A
  8
0
  0
POLYLINE
  5
7B
  8
0
 66
     1
 10
0.0
 20
0.0
 30
0.0
  0
VERTEX
  5
7C
  8
0
 10
167.122862
 20
114.504491
 30
0.0
 42
-0.015779
  0
VERTEX
  5
7D
  8
0
 10
166.91006999999999
 20
121.245625
 30
0.0
 42
-0.025322
  0
SEQEND
  5
7E
  8
0
  0
POLYLINE
  5
7F
  8
0
 66
     1
 10
0.0
 20
0.0
 30
0.0
  0
VERTEX
  5
80
  8
0
 10
167.122862
 20
206.16366400000001
 30
0.0
 42
-0.015779
  0
VERTEX
  5
81
  8
0
 10
166.91006999999999
 20
212.904797
 30
0.0
 42
-0.025322
  0
SEQEND
  5
82
  8
0
  0
POLYLINE
  5
83
  8
0
 66
     1
 10
0.0
 20
0.0
 30
0.0
  0
VERTEX
  5
84
  8
0
 10
166.91006999999999
 20
212.904797
 30
0.0
 42
-0.08814
  0
VERTEX
  5
85
  8
0
 10
167.411205
 20
215.72555199999999
 30
0.0
 42
-0.093584
  0
VERTEX
  5
86
  8
0
 10
168.795839
 20
218.04453000000001
 30
0.0
 42
-0.102476
 70
     2
 50
48.466276999999998
  0
VERTEX
  5
87
  8
0
 10
170.924147
 20
219.634635
 30
0.0
 42
-0.109792
  0
VERTEX
  5
88
  8
0
 10
173.34848600000001
 20
220.17347699999999
 30
0.0
 42
-0.109792
  0
SEQEND
  5
89
  8
0
  0
ARC
  5
8A
  8
0
 10
177.34848600000001
 20
224.17347699999999
 30
0.0
 40
4.0
 50
180.0
 51
270.0
  0
ARC
  5
8B
  8
0
 10
177.34848600000001
 20
229.144868
 30
0.0
 40
4.0
 50
90.0
 51
180.0
  0
ARC
  5
8C
  8
0
 10
176.005618
 20
262.65917300000001
 30
0.0
 40
4.0
 50
90.0
 51
157.97568699999999
  0
LINE
  5
8D
  8
0
 10
173.34848600000001
 20
229.144868
 30
0.0
 11
173.34848600000001
 21
224.17347699999999
 31
0.0
  0
POLYLINE
  5
8E
  8
0
 66
     1
 10
0.0
 20
0.0
 30
0.0
  0
VERTEX
  5
8F
  8
0
 10
167.122862
 20
247.15468100000001
 30
0.0
 42
0.015779
 50
256.21673500000003
  0
VERTEX
  5
90
  8
0
 10
166.91006999999999
 20
240.41354799999999
 30
0.0
 42
0.025322
  0
SEQEND
  5
91
  8
0
  0
POLYLINE
  5
92
  8
0
 66
     1
 10
0.0
 20
0.0
 30
0.0
  0
VERTEX
  5
93
  8
0
 10
166.91006999999999
 20
240.41354799999999
 30
0.0
 42
0.08814
  0
VERTEX
  5
94
  8
0
 10
167.411205
 20
237.592794
 30
0.0
 42
0.093584
  0
VERTEX
  5
95
  8
0
 10
168.795839
 20
235.27381500000001
 30
0.0
 42
0.102476
 70
     2
 50
311.53372300000001
  0
VERTEX
  5
96
  8
0
 10
170.924147
 20
233.68370999999999
 30
0.0
 42
0.109792
 50
311.53372300000001
  0
VERTEX
  5
97
  8
0
 10
173.34848600000001
 20
233.144868
 30
0.0
 42
0.109792
  0
SEQEND
  5
98
  8
0
  0
ARC
  5
99
  8
0
 10
183.0
 20
224.17347699999999
 30
0.0
 40
4.0
 50
270.0
 51
0.0
  0
ARC
  5
9A
  8
0
 10
183.0
 20
229.144868
 30
0.0
 40
4.0
 50
0.0
 51
90.0
  0
LINE
  5
9B
  8
0
 10
177.34848600000001
 20
233.144868
 30
0.0
 11
183.0
 21
233.144868
 31
0.0
  0
LINE
  5
9C
  8
0
 10
177.34848600000001
 20
220.17347699999999
 30
0.0
 11
183.0
 21
220.17347699999999
 31
0.0
  0
LINE
  5
9D
  8
1
 10
220.0
 20
226.65917300000001
 30
0.0
 11
160.0
 21
226.65917300000001
 31
0.0
  0
LINE
  5
9E
  8
0
 10
215.0
 20
209.15917300000001
 30
0.0
 11
215.0
 21
244.15917300000001
 31
0.0
  0
LINE
  5
9F
  8
0
 10
215.0
 20
244.15917300000001
 30
0.0
 11
192.67903200000001
 21
245.354939
 31
0.0
  0
LINE
  5
A0
  8
0
 10
183.0
 20
266.65917300000001
 30
0.0
 11
176.005618
 21
266.65917300000001
 31
0.0
  0
ARC
  5
A1
  8
0
 10
183.0
 20
262.65917300000001
 30
0.0
 40
4.0
 50
360.0
 51
90.0
  0
ARC
  5
A2
  8
0
 10
193.0
 20
251.34634800000001
 30
0.0
 40
6.0
 50
180.0
 51
266.933514
  0
ARC
  5
A3
  8
0
 10
193.0
 20
201.97199800000001
 30
0.0
 40
6.0
 50
93.066485999999998
 51
180.0
  0
LINE
  5
A4
  8
0
 10
215.0
 20
209.15917300000001
 30
0.0
 11
192.67903200000001
 21
207.96340699999999
 31
0.0
  0
ARC
  5
A5
  8
0
 10
183.0
 20
190.65917300000001
 30
0.0
 40
4.0
 50
270.0
 51
360.0
  0
LINE
  5
A6
  8
0
 10
183.0
 20
186.65917300000001
 30
0.0
 11
176.005617
 21
186.65917300000001
 31
0.0
  0
ARC
  5
A7
  8
0
 10
176.005618
 20
190.65917300000001
 30
0.0
 40
4.0
 50
202.025916
 51
269.99998099999999
  0
LINE
  5
A8
  8
0
 10
187.0
 20
262.65917300000001
 30
0.0
 11
187.0
 21
190.65917300000001
 31
0.0
  0
ARC
  5
A9
  8
0
 10
265.0
 20
226.65917300000001
 30
0.0
 40
100.0
 50
157.97568699999999
 51
202.02437699999999
  0
ARC
  5
AA
  8
0
 10
265.0
 20
43.340826999999997
 30
0.0
 40
100.0
 50
157.97562300000001
 51
202.02431300000001
  0
LINE
  5
AB
  8
0
 10
187.0
 20
7.3408269999999991
 30
0.0
 11
187.0
 21
79.340827000000004
 31
0.0
  0
ARC
  5
AC
  8
0
 10
176.005618
 20
79.340827000000004
 30
0.0
 40
4.0
 50
90.000018999999995
 51
157.974084
  0
LINE
  5
AD
  8
0
 10
183.0
 20
83.340827000000004
 30
0.0
 11
176.005617
 21
83.340827000000004
 31
0.0
  0
ARC
  5
AE
  8
0
 10
183.0
 20
79.340827000000004
 30
0.0
 40
4.0
 50
0.0
 51
90.0
  0
LINE
  5
AF
  8
0
 10
215.0
 20
60.840826999999997
 30
0.0
 11
192.67903200000001
 21
62.036593000000003
 31
0.0
  0
ARC
  5
B0
  8
0
 10
193.0
 20
68.028002000000001
 30
0.0
 40
6.0
 50
180.0
 51
266.933514
  0
ARC
  5
B1
  8
0
 10
193.0
 20
18.653652000000001
 30
0.0
 40
6.0
 50
93.066485999999998
 51
180.0
  0
ARC
  5
B2
  8
0
 10
183.0
 20
7.3408269999999991
 30
0.0
 40
4.0
 50
270.0
 51
0.0
  0
LINE
  5
B3
  8
0
 10
183.0
 20
3.3408269999999991
 30
0.0
 11
176.005618
 21
3.3408269999999991
 31
0.0
  0
LINE
  5
B4
  8
0
 10
215.0
 20
25.840827000000001
 30
0.0
 11
192.67903200000001
 21
24.645060999999998
 31
0.0
  0
LINE
  5
B5
  8
0
 10
215.0
 20
60.840826999999997
 30
0.0
 11
215.0
 21
25.840827000000001
 31
0.0
  0
LINE
  5
B6
  8
1
 10
220.0
 20
43.340826999999997
 30
0.0
 11
160.0
 21
43.340826999999997
 31
0.0
  0
LINE
  5
B7
  8
0
 10
177.34848600000001
 20
49.826523000000002
 30
0.0
 11
183.0
 21
49.826523000000002
 31
0.0
  0
LINE
  5
B8
  8
0
 10
177.34848600000001
 20
36.855131999999998
 30
0.0
 11
183.0
 21
36.855131999999998
 31
0.0
  0
ARC
  5
B9
  8
0
 10
183.0
 20
40.855131999999998
 30
0.0
 40
4.0
 50
270.0
 51
0.0
  0
ARC
  5
BA
  8
0
 10
183.0
 20
45.826523000000002
 30
0.0
 40
4.0
 50
0.0
 51
90.0
  0
POLYLINE
  5
BB
  8
0
 66
     1
 10
0.0
 20
0.0
 30
0.0
  0
VERTEX
  5
BC
  8
0
 10
166.91006999999999
 20
29.586452000000001
 30
0.0
 42
-0.08814
  0
VERTEX
  5
BD
  8
0
 10
167.411205
 20
32.407206000000002
 30
0.0
 42
-0.093584
  0
VERTEX
  5
BE
  8
0
 10
168.795839
 20
34.726185000000001
 30
0.0
 42
-0.102476
 70
     2
 50
48.466276999999998
  0
VERTEX
  5
BF
  8
0
 10
170.924147
 20
36.316290000000002
 30
0.0
 42
-0.109792
  0
VERTEX
  5
C0
  8
0
 10
173.34848600000001
 20
36.855131999999998
 30
0.0
 42
-0.109792
  0
SEQEND
  5
C1
  8
0
  0
POLYLINE
  5
C2
  8
0
 66
     1
 10
0.0
 20
0.0
 30
0.0
  0
VERTEX
  5
C3
  8
0
 10
167.122862
 20
22.845319
 30
0.0
 42
-0.015779
  0
VERTEX
  5
C4
  8
0
 10
166.91006999999999
 20
29.586452000000001
 30
0.0
 42
-0.025322
  0
SEQEND
  5
C5
  8
0
  0
LINE
  5
C6
  8
0
 10
173.34848600000001
 20
40.855131999999998
 30
0.0
 11
173.34848600000001
 21
45.826523000000002
 31
0.0
  0
ARC
  5
C7
  8
0
 10
176.005618
 20
7.3408269999999991
 30
0.0
 40
4.0
 50
202.02431300000001
 51
270.0
  0
ARC
  5
C8
  8
0
 10
177.34848600000001
 20
40.855131999999998
 30
0.0
 40
4.0
 50
180.0
 51
270.0
  0
ARC
  5
C9
  8
0
 10
177.34848600000001
 20
45.826523000000002
 30
0.0
 40
4.0
 50
90.0
 51
180.0
  0
POLYLINE
  5
CA
  8
0
 66
     1
 10
0.0
 20
0.0
 30
0.0
  0
VERTEX
  5
CB
  8
0
 10
166.91006999999999
 20
57.095203000000012
 30
0.0
 42
0.08814
  0
VERTEX
  5
CC
  8
0
 10
167.411205
 20
54.274447999999992
 30
0.0
 42
0.093584
  0
VERTEX
  5
CD
  8
0
 10
168.795839
 20
51.955469999999998
 30
0.0
 42
0.102476
 70
     2
 50
311.53372300000001
  0
VERTEX
  5
CE
  8
0
 10
170.924147
 20
50.365364999999997
 30
0.0
 42
0.109792
  0
VERTEX
  5
CF
  8
0
 10
173.34848600000001
 20
49.826523000000002
 30
0.0
 42
0.109792
  0
SEQEND
  5
D0
  8
0
  0
POLYLINE
  5
D1
  8
0
 66
     1
 10
0.0
 20
0.0
 30
0.0
  0
VERTEX
  5
D2
  8
0
 10
167.122862
 20
63.836335999999989
 30
0.0
 42
0.015779
  0
VERTEX
  5
D3
  8
0
 10
166.91006999999999
 20
57.095203000000012
 30
0.0
 42
0.025322
  0
SEQEND
  5
D4
  8
0
  0
LINE
  5
D5
  8
2
 10
183.0
 20
35.840827000000012
 30
0.0
 11
178.669873
 21
43.340826999999997
 31
0.0
  0
LINE
  5
D6
  8
2
 10
183.0
 20
50.840826999999997
 30
0.0
 11
178.669873
 21
43.340826999999997
 31
0.0
  0
LINE
  5
D7
  8
2
 10
214.0
 20
51.340826999999997
 30
0.0
 11
214.0
 21
35.340827000000012
 31
0.0
  0
LINE
  5
D8
  8
2
 10
214.0
 20
35.340827000000012
 30
0.0
 11
215.0
 21
34.340827000000012
 31
0.0
  0
LINE
  5
D9
  8
2
 10
214.0
 20
51.340826999999997
 30
0.0
 11
215.0
 21
52.340826999999997
 31
0.0
  0
LINE
  5
DA
  8
2
 10
187.0
 20
35.840827000000012
 30
0.0
 11
183.0
 21
35.840827000000012
 31
0.0
  0
LINE
  5
DB
  8
2
 10
187.0
 20
50.840826999999997
 30
0.0
 11
183.0
 21
50.840826999999997
 31
0.0
  0
LINE
  5
DC
  8
2
 10
183.0
 20
35.840827000000012
 30
0.0
 11
183.0
 21
50.840826999999997
 31
0.0
  0
LINE
  5
DD
  8
2
 10
187.0
 20
35.340827000000012
 30
0.0
 11
187.0
 21
51.340826999999997
 31
0.0
  0
LINE
  5
DE
  8
2
 10
214.0
 20
35.340827000000012
 30
0.0
 11
187.0
 21
35.340827000000012
 31
0.0
  0
LINE
  5
DF
  8
2
 10
214.0
 20
51.340826999999997
 30
0.0
 11
187.0
 21
51.340826999999997
 31
0.0
  0
LINE
  5
E0
  8
2
 10
183.0
 20
127.5
 30
0.0
 11
178.669873
 21
135.0
 31
0.0
  0
LINE
  5
E1
  8
2
 10
183.0
 20
142.5
 30
0.0
 11
178.669873
 21
135.0
 31
0.0
  0
LINE
  5
E2
  8
2
 10
214.0
 20
143.0
 30
0.0
 11
214.0
 21
127.0
 31
0.0
  0
LINE
  5
E3
  8
2
 10
214.0
 20
127.0
 30
0.0
 11
215.0
 21
126.0
 31
0.0
  0
LINE
  5
E4
  8
2
 10
214.0
 20
143.0
 30
0.0
 11
215.0
 21
144.0
 31
0.0
  0
LINE
  5
E5
  8
2
 10
187.0
 20
127.5
 30
0.0
 11
183.0
 21
127.5
 31
0.0
  0
LINE
  5
E6
  8
2
 10
187.0
 20
142.5
 30
0.0
 11
183.0
 21
142.5
 31
0.0
  0
LINE
  5
E7
  8
2
 10
183.0
 20
127.5
 30
0.0
 11
183.0
 21
142.5
 31
0.0
  0
LINE
  5
E8
  8
2
 10
187.0
 20
127.0
 30
0.0
 11
187.0
 21
143.0
 31
0.0
  0
LINE
  5
E9
  8
2
 10
214.0
 20
127.0
 30
0.0
 11
187.0
 21
127.0
 31
0.0
  0
LINE
  5
EA
  8
2
 10
214.0
 20
143.0
 30
0.0
 11
187.0
 21
143.0
 31
0.0
  0
LINE
  5
EB
  8
2
 10
183.0
 20
219.15917300000001
 30
0.0
 11
178.669873
 21
226.65917300000001
 31
0.0
  0
LINE
  5
EC
  8
2
 10
183.0
 20
234.15917300000001
 30
0.0
 11
178.669873
 21
226.65917300000001
 31
0.0
  0
LINE
  5
ED
  8
2
 10
214.0
 20
234.65917300000001
 30
0.0
 11
214.0
 21
218.65917300000001
 31
0.0
  0
LINE
  5
EE
  8
2
 10
214.0
 20
218.65917300000001
 30
0.0
 11
215.0
 21
217.65917300000001
 31
0.0
  0
LINE
  5
EF
  8
2
 10
214.0
 20
234.65917300000001
 30
0.0
 11
215.0
 21
235.65917300000001
 31
0.0
  0
LINE
  5
F0
  8
2
 10
187.0
 20
219.15917300000001
 30
0.0
 11
183.0
 21
219.15917300000001
 31
0.0
  0
LINE
  5
F1
  8
2
 10
187.0
 20
234.15917300000001
 30
0.0
 11
183.0
 21
234.15917300000001
 31
0.0
  0
LINE
  5
F2
  8
2
 10
183.0
 20
219.15917300000001
 30
0.0
 11
183.0
 21
234.15917300000001
 31
0.0
  0
LINE
  5
F3
  8
2
 10
187.0
 20
218.65917300000001
 30
0.0
 11
187.0
 21
234.65917300000001
 31
0.0
  0
LINE
  5
F4
  8
2
 10
214.0
 20
218.65917300000001
 30
0.0
 11
187.0
 21
218.65917300000001
 31
0.0
  0
LINE
  5
F5
  8
2
 10
214.0
 20
234.65917300000001
 30
0.0
 11
187.0
 21
234.65917300000001
 31
0.0
  0
CIRCLE
  5
F6
  8
0
 10
320.0
 20
135.0
 30
0.0
 40
8.0
  0
TEXT
  5
1E2
  8
0
 62
     3
 10
0.0
 20
0.0
 30
0.0
 40
10.0
  1
CK80R
  7
STANDARD1
  0
ENDSEC
  0
EOF
