  0
SECTION
  2
HEADER
  9
$ACADVER
  1
AC1009
  9
$INSBASE
 10
0.0
 20
0.0
 30
0.0
  9
$EXTMIN
 10
0.0
 20
-2.960436562073669
 30
0.0
  9
$EXTMAX
 10
198.97121291276451
 20
155.57643461728591
 30
0.0
  9
$LIMMIN
 10
0.0
 20
0.0
  9
$LIMMAX
 10
192.5
 20
135.0
  9
$ORTHOMODE
 70
     1
  9
$REGENMODE
 70
     1
  9
$FILLMODE
 70
     1
  9
$QTEXTMODE
 70
     0
  9
$MIRRTEXT
 70
     0
  9
$DRAGMODE
 70
     2
  9
$LTSCALE
 40
10.0
  9
$OSMODE
 70
  3071
  9
$ATTMODE
 70
     1
  9
$TEXTSIZE
 40
0.2
  9
$TRACEWID
 40
0.05
  9
$TEXTSTYLE
  7
STANDARD
  9
$CLAYER
  8
0
  9
$CELTYPE
  6
BYLAYER
  9
$CECOLOR
 62
   256
  9
$DIMSCALE
 40
0.5
  9
$DIMASZ
 40
3.0
  9
$DIMEXO
 40
1.0
  9
$DIMDLI
 40
6.0
  9
$DIMRND
 40
0.0
  9
$DIMDLE
 40
0.0
  9
$DIMEXE
 40
1.0
  9
$DIMTP
 40
495.0
  9
$DIMTM
 40
0.0
  9
$DIMTXT
 40
3.0
  9
$DIMCEN
 40
0.0
  9
$DIMTSZ
 40
0.0
  9
$DIMTOL
 70
     0
  9
$DIMLIM
 70
     0
  9
$DIMTIH
 70
     0
  9
$DIMTOH
 70
     0
  9
$DIMSE1
 70
     0
  9
$DIMSE2
 70
     0
  9
$DIMTAD
 70
     1
  9
$DIMZIN
 70
     0
  9
$DIMBLK
  1

  9
$DIMASO
 70
     0
  9
$DIMSHO
 70
     0
  9
$DIMPOST
  1

  9
$DIMAPOST
  1

  9
$DIMALT
 70
     0
  9
$DIMALTD
 70
     2
  9
$DIMALTF
 40
25.399999999999999
  9
$DIMLFAC
 40
1.0
  9
$DIMTOFL
 70
     1
  9
$DIMTVP
 40
0.0
  9
$DIMTIX
 70
     1
  9
$DIMSOXD
 70
     0
  9
$DIMSAH
 70
     0
  9
$DIMBLK1
  1

  9
$DIMBLK2
  1

  9
$DIMSTYLE
  2
STANDARD
  9
$DIMCLRD
 70
     0
  9
$DIMCLRE
 70
     0
  9
$DIMCLRT
 70
     4
  9
$DIMTFAC
 40
1.0
  9
$DIMGAP
 40
1.0
  9
$LUNITS
 70
     2
  9
$LUPREC
 70
     4
  9
$SKETCHINC
 40
0.1
  9
$FILLETRAD
 40
0.0
  9
$AUNITS
 70
     0
  9
$AUPREC
 70
     0
  9
$MENU
  1
E:\r13\win\SUPPORT\ACAD
  9
$ELEVATION
 40
0.0
  9
$PELEVATION
 40
0.0
  9
$THICKNESS
 40
0.0
  9
$LIMCHECK
 70
     0
  9
$BLIPMODE
 70
     0
  9
$CHAMFERA
 40
0.0
  9
$CHAMFERB
 40
0.0
  9
$SKPOLY
 70
     0
  9
$TDCREATE
 40
2450539.3769769678
  9
$TDUPDATE
 40
2456598.5912359259
  9
$TDINDWG
 40
0.0808952431
  9
$TDUSRTIMER
 40
0.0808952431
  9
$USRTIMER
 70
     1
  9
$ANGBASE
 50
0.0
  9
$ANGDIR
 70
     0
  9
$PDMODE
 70
     0
  9
$PDSIZE
 40
0.0
  9
$PLINEWID
 40
0.0
  9
$COORDS
 70
     1
  9
$SPLFRAME
 70
     0
  9
$SPLINETYPE
 70
     6
  9
$SPLINESEGS
 70
     8
  9
$ATTDIA
 70
     0
  9
$ATTREQ
 70
     1
  9
$HANDLING
 70
     1
  9
$HANDSEED
  5
27F4
  9
$SURFTAB1
 70
     6
  9
$SURFTAB2
 70
     6
  9
$SURFTYPE
 70
     6
  9
$SURFU
 70
     6
  9
$SURFV
 70
     6
  9
$UCSNAME
  2

  9
$UCSORG
 10
0.0
 20
0.0
 30
0.0
  9
$UCSXDIR
 10
1.0
 20
0.0
 30
0.0
  9
$UCSYDIR
 10
0.0
 20
1.0
 30
0.0
  9
$PUCSNAME
  2

  9
$PUCSORG
 10
0.0
 20
0.0
 30
0.0
  9
$PUCSXDIR
 10
1.0
 20
0.0
 30
0.0
  9
$PUCSYDIR
 10
0.0
 20
1.0
 30
0.0
  9
$USERI1
 70
     3
  9
$USERI2
 70
     1
  9
$USERI3
 70
     0
  9
$USERI4
 70
     0
  9
$USERI5
 70
     0
  9
$USERR1
 40
0.5
  9
$USERR2
 40
3.0
  9
$USERR3
 40
3.0
  9
$USERR4
 40
3.0
  9
$USERR5
 40
10.0
  9
$WORLDVIEW
 70
     1
  9
$SHADEDGE
 70
     3
  9
$SHADEDIF
 70
    70
  9
$TILEMODE
 70
     1
  9
$MAXACTVP
 70
    16
  9
$PLIMCHECK
 70
     0
  9
$PEXTMIN
 10
1.0000000000000000E+020
 20
1.0000000000000000E+020
 30
1.0000000000000000E+020
  9
$PEXTMAX
 10
-1.0000000000000000E+020
 20
-1.0000000000000000E+020
 30
-1.0000000000000000E+020
  9
$PLIMMIN
 10
0.0
 20
0.0
  9
$PLIMMAX
 10
12.0
 20
9.0
  9
$UNITMODE
 70
     0
  9
$VISRETAIN
 70
     0
  9
$PLINEGEN
 70
     0
  9
$PSLTSCALE
 70
     0
  0
ENDSEC
  0
SECTION
  2
TABLES
  0
TABLE
  2
VPORT
 70
     1
  0
VPORT
  2
*ACTIVE
 70
     0
 10
0.0
 20
0.0
 11
1.0
 21
1.0
 12
103.8789480690431
 22
76.304525169819684
 13
0.0
 23
0.0
 14
2.5
 24
2.5
 15
10.0
 25
10.0
 16
0.0
 26
0.0
 36
1.0
 17
0.0
 27
0.0
 37
0.0
 40
159.9753180787651
 41
1.831871345029239
 42
50.0
 43
0.0
 44
0.0
 50
0.0
 51
0.0
 71
     0
 72
   100
 73
     1
 74
     0
 75
     0
 76
     0
 77
     0
 78
     0
  0
ENDTAB
  0
TABLE
  2
LTYPE
 70
     4
  0
LTYPE
  2
CONTINUOUS
 70
     0
  3
Solid Line
 72
    65
 73
     0
 40
0.0
  0
LTYPE
  2
CENTER
 70
     0
  3
____ _ ____ _ ____ _ ____ _ ____ _ ____ _ ____
 72
    65
 73
     4
 40
2.0
 49
1.25
 49
-0.25
 49
0.25
 49
-0.25
  0
LTYPE
  2
HIDDEN
 70
     0
  3
_ _ _ _ _ _ _ _ _ _ _ _ _ _ _ _ _ _ _ _ _ _ _
 72
    65
 73
     2
 40
0.375
 49
0.25
 49
-0.125
  0
LTYPE
  2
PHANTOM2
 70
     0
  3
___ _ _ ___ _ _ ___ _ _ ___ _ _
 72
    65
 73
     6
 40
1.25
 49
0.625
 49
-0.125
 49
0.125
 49
-0.125
 49
0.125
 49
-0.125
  0
ENDTAB
  0
TABLE
  2
LAYER
 70
     3
  0
LAYER
  2
0
 70
     0
 62
     7
  6
CONTINUOUS
  0
LAYER
  2
1
 70
     0
 62
     1
  6
CENTER
  0
LAYER
  2
2
 70
     0
 62
     2
  6
HIDDEN
  0
ENDTAB
  0
TABLE
  2
STYLE
 70
     2
  0
STYLE
  2
STANDARD
 70
     0
 40
0.0
 41
1.0
 50
0.0
 71
     0
 42
0.2
  3
simplex
  4
bigfont
  0
STYLE
  2
STANDARD1
 70
     0
 40
0.0
 41
1.0
 50
0.0
 71
     0
 42
3.0
  3
txt
  4

  0
ENDTAB
  0
TABLE
  2
VIEW
 70
     0
  0
ENDTAB
  0
TABLE
  2
UCS
 70
     0
  0
ENDTAB
  0
TABLE
  2
APPID
 70
     3
  0
APPID
  2
ACAD
 70
     0
  0
APPID
  2
ACAD_MLEADERVER
 70
     0
  0
APPID
  2
ACAD_NAV_VCDISPLAY
 70
     0
  0
ENDTAB
  0
TABLE
  2
DIMSTYLE
 70
     1
  0
DIMSTYLE
  2
STANDARD
 70
     0
  3

  4

  5

  6

  7

 40
1.0
 41
0.18
 42
0.0625
 43
0.38
 44
0.18
 45
0.0
 46
0.0
 47
0.0
 48
0.0
140
0.18
141
0.09
142
0.0
143
25.399999999999999
144
1.0
145
0.0
146
1.0
147
0.09
 71
     0
 72
     0
 73
     1
 74
     1
 75
     0
 76
     0
 77
     0
 78
     0
170
     0
171
     2
172
     0
173
     0
174
     0
175
     0
176
     0
177
     0
178
     0
  0
ENDTAB
  0
ENDSEC
  0
SECTION
  2
BLOCKS
  0
BLOCK
  8
0
  2
$MODEL_SPACE
 70
     0
 10
0.0
 20
0.0
 30
0.0
  3
$MODEL_SPACE
  1

  0
ENDBLK
  5
2698
  8
0
  0
BLOCK
 67
     1
  8
0
  2
$PAPER_SPACE
 70
     0
 10
0.0
 20
0.0
 30
0.0
  3
$PAPER_SPACE
  1

  0
ENDBLK
  5
2696
 67
     1
  8
0
  0
ENDSEC
  0
SECTION
  2
ENTITIES
  0
LINE
  5
41F
  8
0
 10
93.971212912764557
 20
111.4539854059859
 30
0.0
 11
193.97121291276451
 21
111.4539854059859
 31
0.0
  0
LINE
  5
420
  8
0
 10
93.971212912764557
 20
111.4539854059859
 30
0.0
 11
93.971212912764429
 21
86.453985405986074
 31
0.0
  0
LINE
  5
421
  8
0
 10
93.971212912764429
 20
86.453985405986074
 30
0.0
 11
193.9712129127644
 21
86.453985405986074
 31
0.0
  0
LINE
  5
422
  8
0
 10
193.97121291276451
 20
111.45398540598551
 30
0.0
 11
193.9712129127644
 21
86.453985405985676
 31
0.0
  0
LINE
  5
25D2
  8
0
 10
43.329359438066781
 20
86.45398540598606
 30
0.0
 11
63.329359438066668
 21
86.45398540598606
 31
0.0
  0
LINE
  5
25D3
  8
0
 10
43.329359438066781
 20
111.4539854059859
 30
0.0
 11
50.679359438066811
 21
111.4539854059859
 31
0.0
  0
LINE
  5
25D4
  8
0
 10
63.329359438066668
 20
111.4539854059859
 30
0.0
 11
63.329359438066668
 21
86.45398540598606
 31
0.0
  0
LINE
  5
25D5
  8
0
 10
43.329359438066781
 20
111.4539854059859
 30
0.0
 11
43.329359438066781
 21
86.45398540598606
 31
0.0
  0
LINE
  5
25D6
  8
0
 10
55.979359438066759
 20
111.4539854059859
 30
0.0
 11
63.329359438066668
 21
111.4539854059859
 31
0.0
  0
LINE
  5
25D7
  8
0
 10
50.679359438067031
 20
107.0539854059861
 30
0.0
 11
48.629359438066622
 21
107.0539854059861
 31
0.0
  0
LINE
  5
25D8
  8
0
 10
58.029359438066713
 20
102.453985405986
 30
0.0
 11
55.629359438066722
 21
102.453985405986
 31
0.0
  0
LINE
  5
25D9
  8
0
 10
48.629359438066729
 20
102.4539854059862
 30
0.0
 11
48.629359438066729
 21
107.0539854059862
 31
0.0
  0
LINE
  5
25DA
  8
0
 10
50.679359438066911
 20
107.0539854059862
 30
0.0
 11
50.679359438066811
 21
111.4539854059861
 31
0.0
  0
LINE
  5
25DB
  8
0
 10
55.979359438066759
 20
107.0539854059862
 30
0.0
 11
55.979359438066759
 21
111.4539854059861
 31
0.0
  0
LINE
  5
25DC
  8
0
 10
58.029359438066713
 20
107.0539854059862
 30
0.0
 11
55.979359438066872
 21
107.0539854059862
 31
0.0
  0
LINE
  5
25DD
  8
0
 10
58.029359438066827
 20
102.4539854059862
 30
0.0
 11
58.029359438066827
 21
107.0539854059862
 31
0.0
  0
LINE
  5
2609
  8
1
 10
53.32935943806671
 20
81.45398540598606
 30
0.0
 11
53.329359438066717
 21
116.4539854059859
 31
0.0
  0
LINE
  5
260E
  8
0
 10
93.971212912764557
 20
155.57643461728591
 30
0.0
 11
193.97121291276451
 21
155.57643461728591
 31
0.0
  0
LINE
  5
260F
  8
0
 10
93.971212912764429
 20
135.576434617286
 30
0.0
 11
193.9712129127644
 21
135.576434617286
 31
0.0
  0
LINE
  5
2610
  8
0
 10
93.971212912764557
 20
155.57643461728591
 30
0.0
 11
93.971212912764429
 21
135.576434617286
 31
0.0
  0
LINE
  5
261E
  8
0
 10
193.97121291276451
 20
155.57643461728551
 30
0.0
 11
193.9712129127644
 21
135.5764346172856
 31
0.0
  0
LINE
  5
261F
  8
1
 10
88.971212912764486
 20
145.57643461728591
 30
0.0
 11
198.97121291276451
 21
145.5764346172856
 31
0.0
  0
LINE
  5
2620
  8
0
 10
93.971212912764514
 20
148.2264346172858
 30
0.0
 11
193.97121291276451
 21
148.22643461728549
 31
0.0
  0
LINE
  5
2621
  8
0
 10
93.971212912764457
 20
142.92643461728579
 30
0.0
 11
193.97121291276451
 21
142.92643461728551
 31
0.0
  0
LINE
  5
2622
  8
2
 10
93.971212912764514
 20
150.27643461728579
 30
0.0
 11
193.97121291276451
 21
150.27643461728559
 31
0.0
  0
LINE
  5
2623
  8
2
 10
93.971212912764457
 20
140.87643461728581
 30
0.0
 11
193.9712129127644
 21
140.8764346172855
 31
0.0
  0
LINE
  5
2629
  8
1
 10
88.971212912764486
 20
52.331536194686052
 30
0.0
 11
198.97121291276451
 21
52.331536194686407
 31
0.0
  0
LINE
  5
262A
  8
0
 10
93.971212912764557
 20
42.331536194686123
 30
0.0
 11
193.97121291276451
 21
42.331536194686123
 31
0.0
  0
LINE
  5
262B
  8
0
 10
93.971212912764429
 20
62.331536194686016
 30
0.0
 11
193.9712129127644
 21
62.331536194686016
 31
0.0
  0
LINE
  5
262C
  8
0
 10
93.971212912764557
 20
42.331536194686123
 30
0.0
 11
93.971212912764429
 21
62.331536194686016
 31
0.0
  0
LINE
  5
262D
  8
0
 10
193.97121291276451
 20
42.331536194686521
 30
0.0
 11
193.9712129127644
 21
62.331536194686407
 31
0.0
  0
LINE
  5
26B2
  8
0
 10
51.029359438066727
 20
101.4539854059859
 30
0.0
 11
55.629359438066722
 21
101.4539854059859
 31
0.0
  0
LINE
  5
26B3
  8
0
 10
55.629359438066707
 20
101.4539854059859
 30
0.0
 11
55.629359438066707
 21
102.4539854059861
 31
0.0
  0
LINE
  5
26B4
  8
0
 10
51.029359438066727
 20
101.4539854059859
 30
0.0
 11
51.029359438066727
 21
102.4539854059861
 31
0.0
  0
LINE
  5
26B5
  8
0
 10
51.02935943806672
 20
102.4539854059861
 30
0.0
 11
48.629359438066622
 21
102.4539854059862
 31
0.0
  0
LINE
  5
26B8
  8
0
 10
93.971212912764514
 20
147.8764346172859
 30
0.0
 11
193.9712129127644
 21
147.87643461728561
 31
0.0
  0
LINE
  5
26B9
  8
0
 10
93.971212912764486
 20
143.2764346172859
 30
0.0
 11
193.9712129127644
 21
143.27643461728559
 31
0.0
  0
LINE
  5
26BA
  8
2
 10
93.971212912764528
 20
107.053985405986
 30
0.0
 11
193.97121291276451
 21
107.0539854059856
 31
0.0
  0
LINE
  5
26BC
  8
2
 10
93.971212912764514
 20
102.4539854059858
 30
0.0
 11
193.97121291276451
 21
102.45398540598541
 31
0.0
  0
LINE
  5
26BD
  8
2
 10
93.971212912764514
 20
101.4539854059858
 30
0.0
 11
193.97121291276451
 21
101.45398540598531
 31
0.0
  0
TEXT
  5
2766
  8
0
 62
     3
 10
0.0
 20
0.0
 30
0.0
 40
10.0
  1
CLG35
  7
STANDARD1
  0
ENDSEC
  0
EOF
