  0
SECTION
  2
HEADER
  9
$ACADVER
  1
AC1009
  9
$INSBASE
 10
0.0
 20
0.0
 30
0.0
  9
$EXTMIN
 10
0.0
 20
-2.960436562073669
 30
-4.3928199835542676
  9
$EXTMAX
 10
206.40861692964589
 20
93.183369710144348
 30
63.788998198263897
  9
$LIMMIN
 10
0.0
 20
0.0
  9
$LIMMAX
 10
375.0
 20
270.0
  9
$ORTHOMODE
 70
     1
  9
$REGENMODE
 70
     1
  9
$FILLMODE
 70
     1
  9
$QTEXTMODE
 70
     0
  9
$MIRRTEXT
 70
     0
  9
$DRAGMODE
 70
     2
  9
$LTSCALE
 40
10.0
  9
$OSMODE
 70
  3071
  9
$ATTMODE
 70
     1
  9
$TEXTSIZE
 40
4.000000000000048
  9
$TRACEWID
 40
0.05
  9
$TEXTSTYLE
  7
STANDARD
  9
$CLAYER
  8
0
  9
$CELTYPE
  6
BYLAYER
  9
$CECOLOR
 62
   256
  9
$DIMSCALE
 40
1.0
  9
$DIMASZ
 40
3.0
  9
$DIMEXO
 40
2.0
  9
$DIMDLI
 40
0.38
  9
$DIMRND
 40
0.0
  9
$DIMDLE
 40
0.0
  9
$DIMEXE
 40
2.0
  9
$DIMTP
 40
0.0
  9
$DIMTM
 40
0.0
  9
$DIMTXT
 40
3.2000000000000002
  9
$DIMCEN
 40
0.0
  9
$DIMTSZ
 40
0.0
  9
$DIMTOL
 70
     0
  9
$DIMLIM
 70
     0
  9
$DIMTIH
 70
     0
  9
$DIMTOH
 70
     0
  9
$DIMSE1
 70
     0
  9
$DIMSE2
 70
     0
  9
$DIMTAD
 70
     1
  9
$DIMZIN
 70
     0
  9
$DIMBLK
  1

  9
$DIMASO
 70
     0
  9
$DIMSHO
 70
     0
  9
$DIMPOST
  1

  9
$DIMAPOST
  1

  9
$DIMALT
 70
     0
  9
$DIMALTD
 70
     2
  9
$DIMALTF
 40
25.399999999999999
  9
$DIMLFAC
 40
1.0
  9
$DIMTOFL
 70
     0
  9
$DIMTVP
 40
1.6000000000000001
  9
$DIMTIX
 70
     1
  9
$DIMSOXD
 70
     0
  9
$DIMSAH
 70
     0
  9
$DIMBLK1
  1

  9
$DIMBLK2
  1

  9
$DIMSTYLE
  2
STANDARD
  9
$DIMCLRD
 70
     4
  9
$DIMCLRE
 70
     4
  9
$DIMCLRT
 70
     4
  9
$DIMTFAC
 40
1.0
  9
$DIMGAP
 40
0.09
  9
$LUNITS
 70
     2
  9
$LUPREC
 70
     1
  9
$SKETCHINC
 40
0.1
  9
$FILLETRAD
 40
22.0
  9
$AUNITS
 70
     0
  9
$AUPREC
 70
     0
  9
$MENU
  1
E:\r13\win\SUPPORT\ACAD
  9
$ELEVATION
 40
0.0
  9
$PELEVATION
 40
0.0
  9
$THICKNESS
 40
0.0
  9
$LIMCHECK
 70
     0
  9
$BLIPMODE
 70
     0
  9
$CHAMFERA
 40
1.1999999999999991
  9
$CHAMFERB
 40
1.1999999999999991
  9
$SKPOLY
 70
     0
  9
$TDCREATE
 40
2449954.6020138888
  9
$TDUPDATE
 40
2456598.5913876388
  9
$TDINDWG
 40
0.4226909144
  9
$TDUSRTIMER
 40
0.4226909144
  9
$USRTIMER
 70
     1
  9
$ANGBASE
 50
0.0
  9
$ANGDIR
 70
     0
  9
$PDMODE
 70
     0
  9
$PDSIZE
 40
0.0
  9
$PLINEWID
 40
0.0
  9
$COORDS
 70
     1
  9
$SPLFRAME
 70
     0
  9
$SPLINETYPE
 70
     6
  9
$SPLINESEGS
 70
     8
  9
$ATTDIA
 70
     0
  9
$ATTREQ
 70
     1
  9
$HANDLING
 70
     1
  9
$HANDSEED
  5
2452
  9
$SURFTAB1
 70
     6
  9
$SURFTAB2
 70
     6
  9
$SURFTYPE
 70
     6
  9
$SURFU
 70
     6
  9
$SURFV
 70
     6
  9
$UCSNAME
  2

  9
$UCSORG
 10
0.0
 20
0.0
 30
0.0
  9
$UCSXDIR
 10
1.0
 20
0.0
 30
0.0
  9
$UCSYDIR
 10
0.0
 20
1.0
 30
0.0
  9
$PUCSNAME
  2

  9
$PUCSORG
 10
0.0
 20
0.0
 30
0.0
  9
$PUCSXDIR
 10
1.0
 20
0.0
 30
0.0
  9
$PUCSYDIR
 10
0.0
 20
1.0
 30
0.0
  9
$USERI1
 70
     0
  9
$USERI2
 70
     1
  9
$USERI3
 70
     0
  9
$USERI4
 70
     0
  9
$USERI5
 70
     0
  9
$USERR1
 40
0.0
  9
$USERR2
 40
0.0
  9
$USERR3
 40
0.0
  9
$USERR4
 40
0.0
  9
$USERR5
 40
0.0
  9
$WORLDVIEW
 70
     1
  9
$SHADEDGE
 70
     3
  9
$SHADEDIF
 70
    70
  9
$TILEMODE
 70
     1
  9
$MAXACTVP
 70
    16
  9
$PLIMCHECK
 70
     0
  9
$PEXTMIN
 10
1.049999952316284
 20
0.7999999523162842
 30
0.0
  9
$PEXTMAX
 10
9.4499995708465558
 20
7.1999995708465558
 30
0.0
  9
$PLIMMIN
 10
-0.2500002402958907
 20
-0.2499999962453767
  9
$PLIMMAX
 10
10.74999951940821
 20
8.2499997634587316
  9
$UNITMODE
 70
     0
  9
$VISRETAIN
 70
     0
  9
$PLINEGEN
 70
     0
  9
$PSLTSCALE
 70
     0
  0
ENDSEC
  0
SECTION
  2
TABLES
  0
TABLE
  2
VPORT
 70
     1
  0
VPORT
  2
*ACTIVE
 70
     0
 10
0.0
 20
0.0
 11
1.0
 21
1.0
 12
195.0581083320873
 22
133.5127261426681
 13
0.0
 23
0.0
 14
10.0
 24
10.0
 15
10.0
 25
10.0
 16
0.0
 26
0.0
 36
1.0
 17
0.0
 27
0.0
 37
0.0
 40
275.42274993631997
 41
1.831871345029239
 42
50.0
 43
0.0
 44
0.0
 50
0.0
 51
0.0
 71
     0
 72
   500
 73
     1
 74
     0
 75
     0
 76
     0
 77
     0
 78
     2
  0
ENDTAB
  0
TABLE
  2
LTYPE
 70
     3
  0
LTYPE
  2
CONTINUOUS
 70
     0
  3
Solid Line
 72
    65
 73
     0
 40
0.0
  0
LTYPE
  2
CENTER
 70
     0
  3
____ _ ____ _ ____ _ ____ _ ____ _ ____ _ ____
 72
    65
 73
     4
 40
2.0
 49
1.25
 49
-0.25
 49
0.25
 49
-0.25
  0
LTYPE
  2
PHANTOM2
 70
     0
  3
___ _ _ ___ _ _ ___ _ _ ___ _ _
 72
    65
 73
     6
 40
1.25
 49
0.625
 49
-0.125
 49
0.125
 49
-0.125
 49
0.125
 49
-0.125
  0
ENDTAB
  0
TABLE
  2
LAYER
 70
     3
  0
LAYER
  2
0
 70
     0
 62
     7
  6
CONTINUOUS
  0
LAYER
  2
1
 70
     0
 62
     1
  6
CENTER
  0
LAYER
  2
3
 70
     0
 62
     3
  6
CONTINUOUS
  0
ENDTAB
  0
TABLE
  2
STYLE
 70
     2
  0
STYLE
  2
STANDARD
 70
     0
 40
0.0
 41
1.0
 50
0.0
 71
     0
 42
4.000000000000048
  3
SIMPLEX
  4
BIGFONT
  0
STYLE
  2
STANDARD1
 70
     0
 40
0.0
 41
1.0
 50
0.0
 71
     0
 42
3.0
  3
txt
  4

  0
ENDTAB
  0
TABLE
  2
VIEW
 70
     1
  0
VIEW
  2
ALL
 70
     0
 40
270.0
 10
220.78595317725751
 20
135.0
 41
441.57190635451502
 11
0.0
 21
0.0
 31
1.0
 12
0.0
 22
0.0
 32
0.0
 42
50.0
 43
0.0
 44
0.0
 50
0.0
 71
     0
  0
ENDTAB
  0
TABLE
  2
UCS
 70
     0
  0
ENDTAB
  0
TABLE
  2
APPID
 70
     3
  0
APPID
  2
ACAD
 70
     0
  0
APPID
  2
ACAD_MLEADERVER
 70
     0
  0
APPID
  2
ACAD_NAV_VCDISPLAY
 70
     0
  0
ENDTAB
  0
TABLE
  2
DIMSTYLE
 70
     1
  0
DIMSTYLE
  2
STANDARD
 70
     0
  3

  4

  5

  6

  7

 40
1.0
 41
0.18
 42
0.0625
 43
0.38
 44
0.18
 45
0.0
 46
0.0
 47
0.0
 48
0.0
140
0.18
141
0.09
142
0.0
143
25.399999999999999
144
1.0
145
0.0
146
1.0
147
0.09
 71
     0
 72
     0
 73
     1
 74
     1
 75
     0
 76
     0
 77
     0
 78
     0
170
     0
171
     2
172
     0
173
     0
174
     0
175
     0
176
     0
177
     0
178
     0
  0
ENDTAB
  0
ENDSEC
  0
SECTION
  2
BLOCKS
  0
BLOCK
  8
0
  2
$MODEL_SPACE
 70
     0
 10
0.0
 20
0.0
 30
0.0
  3
$MODEL_SPACE
  1

  0
ENDBLK
  5
1126
  8
0
  0
BLOCK
 67
     1
  8
0
  2
$PAPER_SPACE
 70
     0
 10
0.0
 20
0.0
 30
0.0
  3
$PAPER_SPACE
  1

  0
ENDBLK
  5
1124
 67
     1
  8
0
  0
ENDSEC
  0
SECTION
  2
ENTITIES
  0
LINE
  5
20A7
  8
1
 10
106.76352618473661
 20
87.064499804820088
 30
23.234219521518622
 11
106.76352618473661
 21
36.190774740926898
 31
23.234219521518622
  0
LINE
  5
20D6
  8
0
 10
109.26352618473661
 20
42.090774740926932
 30
16.984219521518622
 11
104.26352618473661
 21
42.090774740926932
 31
16.984219521518622
  0
LINE
  5
20D7
  8
0
 10
105.1635261847366
 20
41.190774740926898
 30
16.984219521518622
 11
104.26352618473661
 21
42.090774740926904
 31
16.984219521518622
  0
LINE
  5
20D8
  8
0
 10
109.2635261847367
 20
42.090774740926904
 30
16.984219521518622
 11
108.3635261847367
 21
41.190774740926898
 31
16.984219521518622
  0
LINE
  5
20DB
  8
0
 10
108.3635261847367
 20
41.190774740926898
 30
16.984219521518622
 11
105.1635261847366
 21
41.190774740926898
 31
16.984219521518622
  0
LINE
  5
20DC
  8
0
 10
109.26352618473661
 20
44.219520719147717
 30
16.984219521518622
 11
109.26352618473661
 21
42.090774740926932
 31
16.984219521518622
  0
LINE
  5
20DD
  8
3
 10
108.8305261847368
 20
44.219520719147717
 30
16.984219521518622
 11
108.8305261847368
 21
41.657774740927131
 31
16.984219521518622
  0
LINE
  5
20DE
  8
3
 10
104.6965261847365
 20
51.179548723678479
 30
16.984219521518622
 11
104.6965261847365
 21
49.519520719147764
 31
16.984219521518622
  0
LINE
  5
20DF
  8
0
 10
104.2635261847367
 20
51.179548723678458
 30
16.984219521518622
 11
104.2635261847367
 21
49.519520719147764
 31
16.984219521518622
  0
LINE
  5
20FA
  8
0
 10
31.504515872657379
 20
51.183369710144333
 30
22.72727272727273
 11
31.504515872657361
 21
49.523341705613639
 31
22.72727272727273
  0
LINE
  5
20FB
  8
3
 10
31.937515872657102
 20
51.183369710144348
 30
22.72727272727273
 11
31.937515872657102
 21
49.523341705613639
 31
22.72727272727273
  0
LINE
  5
20FC
  8
3
 10
36.071515872657507
 20
51.183369710144319
 30
22.72727272727273
 11
36.071515872657521
 21
49.523341705613653
 31
22.72727272727273
  0
LINE
  5
20FD
  8
0
 10
36.504515872657329
 20
51.183369710144333
 30
22.72727272727273
 11
36.504515872657322
 21
49.523341705613639
 31
22.72727272727273
  0
LINE
  5
20FE
  8
0
 10
35.604515872657302
 20
38.181406805147283
 30
22.72727272727273
 11
32.404515872657278
 21
38.181406805147283
 31
22.72727272727273
  0
LINE
  5
20FF
  8
0
 10
36.504515872657301
 20
39.081406805147282
 30
22.72727272727273
 11
35.604515872657302
 21
38.181406805147283
 31
22.72727272727273
  0
LINE
  5
2100
  8
0
 10
32.404515872657278
 20
38.181406805147283
 30
22.72727272727273
 11
31.504515872657269
 21
39.081406805147282
 31
22.72727272727273
  0
LINE
  5
2101
  8
0
 10
36.504515872657272
 20
39.08140680514731
 30
22.72727272727273
 11
31.504515872657269
 21
39.08140680514731
 31
22.72727272727273
  0
LINE
  5
210C
  8
0
 10
119.0377376061826
 20
88.183369710144348
 30
18.334452743718451
 11
206.40861692964589
 21
88.183369710144305
 31
29.698089107354829
210
0.0000000000000005
220
1.0
230
0.0
  0
LINE
  5
210E
  8
0
 10
119.0377376061826
 20
88.183369710144348
 30
18.334452743718451
 11
119.0377376061826
 21
88.183369710144348
 31
41.061725470991171
210
0.0000000000000005
220
1.0
230
0.0
  0
LINE
  5
210F
  8
0
 10
195.04498056600951
 20
88.183369710144305
 30
6.9708163800820939
 11
195.04498056600951
 21
79.360775483634256
 31
6.9708163800820939
  0
ARC
  5
2112
  8
0
 10
119.0377376061826
 20
85.910642437417025
 30
63.788998198263897
 40
2.272727272727272
 50
90.0
 51
122.0
  0
ARC
  5
2113
  8
0
 10
181.5348795559085
 20
77.259100648187413
 30
29.698089107354821
 40
1.5151515151515149
 50
228.79690076066331
 51
311.20309923933661
  0
LINE
  5
2114
  8
0
 10
82.476982238206787
 20
65.744897842046541
 30
63.788998198263897
 11
117.83337564201619
 21
87.838024474136176
 31
63.788998198263897
  0
ARC
  5
2115
  8
0
 10
171.05508157611061
 20
65.2894303162049
 30
29.698089107354821
 40
14.39393939393941
 50
48.796900760662957
 51
131.20309923933709
  0
ARC
  5
2116
  8
0
 10
83.681344202373154
 20
63.817515805327389
 30
63.788998198263897
 40
2.272727272727272
 50
122.0000000000001
 51
180.0
  0
ARC
  5
2117
  8
0
 10
160.5752835963126
 20
77.259100648187385
 30
29.698089107354821
 40
1.5151515151515149
 50
228.79690076066299
 51
311.20309923933758
  0
LINE
  5
2118
  8
0
 10
81.408616929645916
 20
51.183369710144333
 30
22.72727272727273
 11
81.408616929645888
 21
63.817515805327382
 31
63.788998198263897
  0
ARC
  5
2119
  8
0
 10
150.09548561651459
 20
65.2894303162049
 30
29.698089107354821
 40
14.39393939393941
 50
48.796900760662929
 51
131.20309923933701
  0
LINE
  5
211A
  8
0
 10
114.7419502629792
 20
51.183369710144333
 30
22.72727272727273
 11
81.408616929645916
 21
51.183369710144319
 31
22.72727272727273
  0
ARC
  5
211B
  8
0
 10
139.61568763671659
 20
77.259100648187385
 30
29.698089107354821
 40
1.5151515151515149
 50
228.7969007606639
 51
311.20309923933689
  0
LINE
  5
211C
  8
0
 10
114.7419502629792
 20
65.2894303162048
 30
29.698089107354821
 11
114.7419502629792
 21
51.183369710144333
 31
22.72727272727273
  0
ARC
  5
211D
  8
0
 10
129.13588965691861
 20
65.2894303162049
 30
29.698089107354821
 40
14.39393939393941
 50
48.79690076066273
 51
180.00000000000011
  0
LINE
  5
212E
  8
0
 10
206.40861692964589
 20
88.183369710144305
 30
-4.3928199835542641
 11
206.40861692964589
 21
75.743949133035827
 31
-4.3928199835542676
  0
LINE
  5
21B3
  8
0
 10
46.004515872657286
 20
88.183369710144348
 30
22.72727272727273
 11
22.00451587265729
 21
88.183369710144333
 31
22.72727272727273
  0
LINE
  5
21B4
  8
0
 10
46.004515872657286
 20
51.183369710144319
 30
22.72727272727273
 11
22.00451587265729
 21
51.183369710144333
 31
22.72727272727273
  0
LINE
  5
21B5
  8
0
 10
22.00451587265729
 20
88.183369710144333
 30
22.72727272727273
 11
22.00451587265729
 21
51.183369710144333
 31
22.72727272727273
  0
LINE
  5
21B6
  8
0
 10
46.004515872657286
 20
51.183369710144319
 30
22.72727272727273
 11
46.004515872657286
 21
88.183369710144305
 31
22.72727272727273
  0
LINE
  5
21B7
  8
1
 10
34.004515872657301
 20
93.183369710144348
 30
22.72727272727273
 11
34.004515872657301
 21
33.181406805147283
 31
22.72727272727273
  0
LINE
  5
21B8
  8
0
 10
46.004515872657286
 20
63.817515805327382
 30
63.788998198263897
 11
22.004515872657301
 21
63.817515805327389
 31
63.788998198263897
  0
LINE
  5
21BA
  8
0
 10
95.233653879328614
 20
39.077391835880377
 30
19.66166798569494
 11
90.233653879328614
 21
39.077391835880377
 31
19.66166798569494
  0
LINE
  5
21BB
  8
0
 10
91.133653879328619
 20
38.177391835880343
 30
19.66166798569494
 11
90.233653879328614
 21
39.077391835880348
 31
19.66166798569494
  0
LINE
  5
21BC
  8
0
 10
95.233653879328642
 20
39.077391835880348
 30
19.66166798569494
 11
94.333653879328637
 21
38.177391835880343
 31
19.66166798569494
  0
LINE
  5
21BD
  8
0
 10
94.333653879328637
 20
38.177391835880343
 30
19.66166798569494
 11
91.133653879328619
 21
38.177391835880343
 31
19.66166798569494
  0
LINE
  5
21BE
  8
0
 10
95.233653879328685
 20
51.1793547408774
 30
19.66166798569494
 11
95.233653879328685
 21
49.509657771180422
 31
19.66166798569494
  0
LINE
  5
21BF
  8
3
 10
94.800653879328848
 20
51.179354740877379
 30
19.66166798569494
 11
94.800653879328834
 21
49.509657771180422
 31
19.66166798569494
  0
LINE
  5
21C0
  8
3
 10
90.666653879328436
 20
51.179354740877407
 30
19.66166798569494
 11
90.666653879328436
 21
49.509657771180422
 31
19.66166798569494
  0
LINE
  5
21C1
  8
0
 10
90.233653879328727
 20
51.1793547408774
 30
19.66166798569494
 11
90.233653879328756
 21
49.509657771180422
 31
19.66166798569494
  0
LINE
  5
2229
  8
3
 10
36.071515872657493
 20
44.223341705613649
 30
22.72727272727273
 11
36.071515872657478
 21
38.648406805147523
 31
22.72727272727273
  0
LINE
  5
222A
  8
0
 10
36.504515872657301
 20
44.223341705613649
 30
22.72727272727273
 11
36.504515872657272
 21
39.08140680514731
 31
22.72727272727273
  0
LINE
  5
222B
  8
3
 10
31.937515872657102
 20
44.223341705613649
 30
22.72727272727273
 11
31.937515872657102
 21
38.648406805147459
 31
22.72727272727273
  0
LINE
  5
222C
  8
0
 10
31.504515872657372
 20
44.223341705613649
 30
22.72727272727273
 11
31.504515872657372
 21
39.081406805147282
 31
22.72727272727273
  0
ARC
  5
223B
  8
0
 10
192.01467753570651
 20
65.289430316204914
 30
29.698089107354821
 40
14.39393939393941
 50
48.796900760662957
 51
131.20309923933709
  0
ARC
  5
223C
  8
0
 10
202.4944755155046
 20
77.259100648187442
 30
29.698089107354821
 40
1.5151515151515149
 50
228.79690076066331
 51
269.99999999999892
  0
LINE
  5
223D
  8
0
 10
206.40861692964589
 20
75.743949133035827
 30
-4.3928199835542676
 11
202.4944755155046
 21
75.743949133035926
 31
29.698089107354821
  0
LINE
  5
22B5
  8
0
 10
33.830348897577068
 20
49.52334170561366
 30
16.666665979813519
 11
34.17868284773752
 21
48.223341705613628
 31
16.666665979813519
  0
LINE
  5
22B6
  8
0
 10
29.404515872657299
 20
49.523341705613639
 30
16.666665979813519
 11
38.604515872657302
 21
49.523341705613639
 31
16.666665979813519
  0
LINE
  5
22B7
  8
0
 10
29.404515872657299
 20
48.223341705613649
 30
16.666665979813519
 11
29.404515872657299
 21
49.523341705613639
 31
16.666665979813519
  0
LINE
  5
22B8
  8
0
 10
38.604515872657302
 20
48.223341705613649
 30
16.666665979813519
 11
29.404515872657299
 21
48.223341705613649
 31
16.666665979813519
  0
LINE
  5
22B9
  8
0
 10
38.604515872657302
 20
49.523341705613639
 30
16.666665979813519
 11
38.604515872657302
 21
48.223341705613649
 31
16.666665979813519
  0
LINE
  5
22BB
  8
0
 10
30.004515872653471
 20
44.281076732533357
 30
16.666665979813519
 11
30.104515872654861
 21
44.223341705613649
 31
16.666665979813519
  0
ARC
  5
22BC
  8
0
 10
32.004515872653471
 20
50.057785738860979
 30
16.666665979813519
 40
5.7767090063276196
 50
249.7438419996578
 51
290.25615800034223
  0
LINE
  5
22BD
  8
0
 10
30.0045158726533
 20
44.281076732533357
 30
16.666665979813519
 11
30.00451587265362
 21
48.223341705613649
 31
16.666665979813519
  0
LINE
  5
22BE
  8
0
 10
38.004515872653641
 20
44.281076732533357
 30
16.666665979813519
 11
38.004515872653357
 21
48.223341705613649
 31
16.666665979813519
  0
ARC
  5
22BF
  8
0
 10
36.004515872653471
 20
50.057785738860979
 30
16.666665979813519
 40
5.7767090063276196
 50
249.7438419996578
 51
290.25615800034223
  0
LINE
  5
22C0
  8
0
 10
38.004515872653471
 20
44.281076732533357
 30
16.666665979813519
 11
37.904515872652077
 21
44.223341705613649
 31
16.666665979813519
  0
LINE
  5
22C1
  8
0
 10
30.104515872654861
 20
44.223341705613649
 30
16.666665979813519
 11
37.904515872652141
 21
44.223341705613649
 31
16.666665979813519
  0
LINE
  5
22C2
  8
0
 10
34.004515872657301
 20
48.22334170561362
 30
16.666665979813519
 11
34.004515872646188
 21
44.638342322440188
 31
16.666665979813519
  0
LINE
  5
22D4
  8
0
 10
88.11485172581186
 20
44.624658388007028
 30
19.66166798569494
 11
88.114851725811604
 21
48.209657771180431
 31
19.66166798569494
  0
LINE
  5
22D5
  8
0
 10
90.424252802570194
 20
48.209657771180431
 30
19.66166798569494
 11
90.424252802570194
 21
44.624658388015099
 31
19.66166798569494
  0
LINE
  5
22D6
  8
0
 10
95.043054956087175
 20
44.624658388017089
 30
19.66166798569494
 11
95.043054956074911
 21
48.209657771180403
 31
19.66166798569494
  0
LINE
  5
22D7
  8
0
 10
96.633653879329685
 20
44.209657771180368
 30
19.66166798569494
 11
88.833653879326079
 21
44.209657771180431
 31
19.66166798569494
  0
LINE
  5
22D8
  8
0
 10
97.352456032845666
 20
44.624658388006978
 30
19.66166798569494
 11
97.352456032845666
 21
48.209657771180368
 31
19.66166798569494
  0
LINE
  5
22D9
  8
0
 10
88.114851725811704
 20
44.624658388006978
 30
19.66166798569494
 11
88.833653879325894
 21
44.209657771180431
 31
19.66166798569494
  0
ARC
  5
22DA
  8
0
 10
89.269552264190935
 20
46.31205099684454
 30
19.66166798569494
 40
2.044658198744437
 50
244.38424746667931
 51
304.384247467926
  0
ARC
  5
22DB
  8
0
 10
92.733653879315824
 20
51.910127208136132
 30
19.66166798569494
 40
7.6427344100359971
 50
252.4120462259749
 51
287.58795377422672
  0
ARC
  5
22DC
  8
0
 10
96.197755494466406
 20
46.31205099684454
 30
19.66166798569494
 40
2.044658198744437
 50
235.615752532074
 51
295.61575253332069
  0
LINE
  5
22DD
  8
0
 10
97.352456032845666
 20
44.624658388006978
 30
19.66166798569494
 11
96.633653879331433
 21
44.209657771180431
 31
19.66166798569494
  0
LINE
  5
22DE
  8
0
 10
92.559486904248388
 20
49.509657771180443
 30
19.66166798569494
 11
92.90782085440884
 21
48.209657771180417
 31
19.66166798569494
  0
LINE
  5
22DF
  8
0
 10
88.133653879328605
 20
49.509657771180422
 30
19.66166798569494
 11
97.333653879328637
 21
49.509657771180422
 31
19.66166798569494
  0
LINE
  5
22E0
  8
0
 10
88.133653879328605
 20
48.209657771180431
 30
19.66166798569494
 11
88.133653879328605
 21
49.509657771180422
 31
19.66166798569494
  0
LINE
  5
22E1
  8
0
 10
97.352456032845666
 20
48.209657771180368
 30
19.66166798569494
 11
88.114851725811604
 21
48.209657771180431
 31
19.66166798569494
  0
LINE
  5
22E2
  8
0
 10
97.333653879328637
 20
49.509657771180422
 30
19.66166798569494
 11
97.333653879328637
 21
48.209657771180431
 31
19.66166798569494
  0
LINE
  5
22E3
  8
0
 10
102.14472403121989
 20
44.634521335974348
 30
23.234219521518629
 11
102.1447240312196
 21
48.219520719147752
 31
23.234219521518629
  0
LINE
  5
22E4
  8
0
 10
104.4541251079782
 20
48.219520719147752
 30
23.234219521518629
 11
104.4541251079782
 21
44.63452133598242
 31
23.234219521518629
  0
LINE
  5
22E5
  8
0
 10
109.0729272614952
 20
44.63452133598441
 30
23.234219521518629
 11
109.0729272614829
 21
48.219520719147717
 31
23.234219521518629
  0
LINE
  5
22E6
  8
0
 10
110.66352618473771
 20
44.219520719147688
 30
23.234219521518629
 11
102.8635261847341
 21
44.219520719147752
 31
23.234219521518629
  0
LINE
  5
22E7
  8
0
 10
111.3823283382536
 20
44.634521335974298
 30
23.234219521518629
 11
111.3823283382536
 21
48.219520719147688
 31
23.234219521518629
  0
LINE
  5
22E8
  8
0
 10
102.1447240312197
 20
44.634521335974298
 30
23.234219521518629
 11
102.8635261847339
 21
44.219520719147752
 31
23.234219521518629
  0
ARC
  5
22E9
  8
0
 10
103.2994245695989
 20
46.321913944811861
 30
23.234219521518629
 40
2.044658198744437
 50
244.38424746667931
 51
304.384247467926
  0
ARC
  5
22EA
  8
0
 10
106.7635261847238
 20
51.919990156103452
 30
23.234219521518629
 40
7.6427344100359971
 50
252.4120462259749
 51
287.58795377422672
  0
ARC
  5
22EB
  8
0
 10
110.2276277998744
 20
46.321913944811861
 30
23.234219521518629
 40
2.044658198744437
 50
235.615752532074
 51
295.61575253332069
  0
LINE
  5
22EC
  8
0
 10
111.3823283382536
 20
44.634521335974298
 30
23.234219521518629
 11
110.6635261847394
 21
44.219520719147752
 31
23.234219521518629
  0
LINE
  5
22ED
  8
0
 10
106.58935920965639
 20
49.519520719147764
 30
23.234219521518629
 11
106.9376931598168
 21
48.219520719147738
 31
23.234219521518629
  0
LINE
  5
22EE
  8
0
 10
102.1635261847366
 20
49.519520719147742
 30
23.234219521518629
 11
111.3635261847367
 21
49.519520719147742
 31
23.234219521518629
  0
LINE
  5
22EF
  8
0
 10
102.1635261847366
 20
48.219520719147752
 30
23.234219521518629
 11
102.1635261847366
 21
49.519520719147742
 31
23.234219521518629
  0
LINE
  5
22F0
  8
0
 10
111.3823283382536
 20
48.219520719147688
 30
23.234219521518629
 11
102.1447240312196
 21
48.219520719147752
 31
23.234219521518629
  0
LINE
  5
22F1
  8
0
 10
111.3635261847367
 20
49.519520719147742
 30
23.234219521518629
 11
111.3635261847367
 21
48.219520719147752
 31
23.234219521518629
  0
LINE
  5
22FE
  8
3
 10
104.6965261847365
 20
44.219520719147759
 30
16.984219521518622
 11
104.6965261847365
 21
41.657774740927081
 31
16.984219521518622
  0
LINE
  5
22FF
  8
0
 10
104.2635261847367
 20
44.219520719147759
 30
16.984219521518622
 11
104.2635261847367
 21
42.090774740926904
 31
16.984219521518622
  0
LINE
  5
2300
  8
0
 10
90.233653879328713
 20
44.209657771180417
 30
19.66166798569494
 11
90.233653879328685
 21
39.077391835880348
 31
19.66166798569494
  0
LINE
  5
2301
  8
3
 10
90.66665387932845
 20
44.209657771180417
 30
19.66166798569494
 11
90.666653879328436
 21
38.644391835880533
 31
19.66166798569494
  0
LINE
  5
2302
  8
3
 10
94.800653879328834
 20
44.209657771180389
 30
19.66166798569494
 11
94.80065387932882
 21
38.64439183588059
 31
19.66166798569494
  0
LINE
  5
2303
  8
0
 10
95.233653879328656
 20
44.209657771180389
 30
19.66166798569494
 11
95.233653879328614
 21
39.077391835880377
 31
19.66166798569494
  0
LINE
  5
2304
  8
0
 10
109.2203743412217
 20
51.17954872367865
 30
16.984219521518622
 11
109.2203743412218
 21
49.519520719147948
 31
16.984219521518622
  0
LINE
  5
2305
  8
3
 10
108.78737434122201
 20
51.179548723678643
 30
16.984219521518622
 11
108.7873743412221
 21
49.51952071914792
 31
16.984219521518622
  0
LINE
  5
2308
  8
1
 10
92.733653879328642
 20
78.049869619991611
 30
19.66166798569494
 11
92.733653879328614
 21
33.177585818681408
 31
19.66166798569494
  0
TEXT
  5
23BA
  8
0
 62
     3
 10
0.0
 20
0.0
 30
0.0
 40
10.0
  1
CLH-125FB
  7
STANDARD1
  0
VIEWPORT
  5
1261
 67
     1
  8
0
 10
5.2499996395561626
 20
3.999999883606677
 30
0.0
 40
12.04062743738797
 41
8.9929997457669462
 68
     2
 69
     1
1001
ACAD
1000
MVIEW
1002
{
1070
    16
1010
0.0
1020
0.0
1030
0.0
1010
0.0
1020
0.0
1030
1.0
1040
0.0
1040
8.9929997457669462
1040
5.2499996395561626
1040
3.999999883606677
1040
50.0
1040
0.0
1040
0.0
1070
     0
1070
   500
1070
     1
1070
     1
1070
     0
1070
     0
1070
     0
1070
     0
1040
0.0
1040
0.0
1040
0.0
1040
10.0
1040
10.0
1040
10.0
1040
10.0
1070
     0
1002
{
1002
}
1002
}
  0
VIEWPORT
  5
1263
 67
     1
  8
0
 10
5.24999976158142
 20
3.99999976158142
 30
0.0
 40
8.3999996185302717
 41
6.3999996185302717
 68
     1
 69
     2
1001
ACAD
1000
MVIEW
1002
{
1070
    16
1010
0.0
1020
0.0
1030
0.0
1010
0.0
1020
0.0
1030
1.0
1040
0.0
1040
666.47247834573625
1040
-533.63893377160775
1040
-441.53162407700779
1040
50.0
1040
0.0
1040
0.0
1070
     0
1070
   500
1070
     1
1070
     0
1070
     0
1070
     0
1070
     0
1070
     2
1040
0.0
1040
0.0
1040
0.0
1040
10.0
1040
10.0
1040
10.0
1040
10.0
1070
     0
1002
{
1002
}
1002
}
  0
ENDSEC
  0
EOF
