  0
SECTION
  2
HEADER
  9
$ACADVER
  1
AC1009
  9
$INSBASE
 10
0.0
 20
0.0
 30
0.0
  9
$EXTMIN
 10
0.0
 20
-2.960436562073669
 30
0.0
  9
$EXTMAX
 10
220.9017563058077087
 20
322.4653699702276981
 30
0.0
  9
$LIMMIN
 10
0.0
 20
0.0
  9
$LIMMAX
 10
750.0
 20
540.0
  9
$ORTHOMODE
 70
     1
  9
$REGENMODE
 70
     1
  9
$FILLMODE
 70
     1
  9
$QTEXTMODE
 70
     0
  9
$MIRRTEXT
 70
     0
  9
$DRAGMODE
 70
     2
  9
$LTSCALE
 40
5.0
  9
$OSMODE
 70
    37
  9
$ATTMODE
 70
     1
  9
$TEXTSIZE
 40
0.2
  9
$TRACEWID
 40
0.05
  9
$TEXTSTYLE
  7
STANDARD
  9
$CLAYER
  8
0
  9
$CELTYPE
  6
BYLAYER
  9
$CECOLOR
 62
   256
  9
$DIMSCALE
 40
1.0
  9
$DIMASZ
 40
3.0
  9
$DIMEXO
 40
2.0
  9
$DIMDLI
 40
0.38
  9
$DIMRND
 40
0.0
  9
$DIMDLE
 40
0.0
  9
$DIMEXE
 40
2.0
  9
$DIMTP
 40
0.0
  9
$DIMTM
 40
0.0
  9
$DIMTXT
 40
3.2000000000000002
  9
$DIMCEN
 40
0.0
  9
$DIMTSZ
 40
0.0
  9
$DIMTOL
 70
     0
  9
$DIMLIM
 70
     0
  9
$DIMTIH
 70
     0
  9
$DIMTOH
 70
     0
  9
$DIMSE1
 70
     0
  9
$DIMSE2
 70
     0
  9
$DIMTAD
 70
     1
  9
$DIMZIN
 70
     0
  9
$DIMBLK
  1

  9
$DIMASO
 70
     0
  9
$DIMSHO
 70
     0
  9
$DIMPOST
  1

  9
$DIMAPOST
  1

  9
$DIMALT
 70
     0
  9
$DIMALTD
 70
     2
  9
$DIMALTF
 40
25.3999999999999986
  9
$DIMLFAC
 40
1.0
  9
$DIMTOFL
 70
     0
  9
$DIMTVP
 40
1.6000000000000001
  9
$DIMTIX
 70
     1
  9
$DIMSOXD
 70
     0
  9
$DIMSAH
 70
     0
  9
$DIMBLK1
  1

  9
$DIMBLK2
  1

  9
$DIMSTYLE
  2
STANDARD
  9
$DIMCLRD
 70
     0
  9
$DIMCLRE
 70
     0
  9
$DIMCLRT
 70
     0
  9
$DIMTFAC
 40
1.0
  9
$DIMGAP
 40
0.09
  9
$LUNITS
 70
     2
  9
$LUPREC
 70
     4
  9
$SKETCHINC
 40
0.1
  9
$FILLETRAD
 40
0.0
  9
$AUNITS
 70
     0
  9
$AUPREC
 70
     4
  9
$MENU
  1
E:\r13\win\SUPPORT\ACAD
  9
$ELEVATION
 40
0.0
  9
$PELEVATION
 40
0.0
  9
$THICKNESS
 40
0.0
  9
$LIMCHECK
 70
     0
  9
$BLIPMODE
 70
     0
  9
$CHAMFERA
 40
0.0
  9
$CHAMFERB
 40
0.0
  9
$SKPOLY
 70
     0
  9
$TDCREATE
 40
2449840.6227546301670372
  9
$TDUPDATE
 40
2460580.571284722071141
  9
$TDINDWG
 40
0.1050662037
  9
$TDUSRTIMER
 40
0.1050662037
  9
$USRTIMER
 70
     1
  9
$ANGBASE
 50
0.0
  9
$ANGDIR
 70
     0
  9
$PDMODE
 70
     0
  9
$PDSIZE
 40
0.0
  9
$PLINEWID
 40
0.0
  9
$COORDS
 70
     1
  9
$SPLFRAME
 70
     0
  9
$SPLINETYPE
 70
     6
  9
$SPLINESEGS
 70
     8
  9
$ATTDIA
 70
     1
  9
$ATTREQ
 70
     1
  9
$HANDLING
 70
     1
  9
$HANDSEED
  5
6244
  9
$SURFTAB1
 70
     6
  9
$SURFTAB2
 70
     6
  9
$SURFTYPE
 70
     6
  9
$SURFU
 70
     6
  9
$SURFV
 70
     6
  9
$UCSNAME
  2

  9
$UCSORG
 10
0.0
 20
0.0
 30
0.0
  9
$UCSXDIR
 10
1.0
 20
0.0
 30
0.0
  9
$UCSYDIR
 10
0.0
 20
1.0
 30
0.0
  9
$PUCSNAME
  2

  9
$PUCSORG
 10
0.0
 20
0.0
 30
0.0
  9
$PUCSXDIR
 10
1.0
 20
0.0
 30
0.0
  9
$PUCSYDIR
 10
0.0
 20
1.0
 30
0.0
  9
$USERI1
 70
     0
  9
$USERI2
 70
     1
  9
$USERI3
 70
     0
  9
$USERI4
 70
     0
  9
$USERI5
 70
     0
  9
$USERR1
 40
0.0
  9
$USERR2
 40
0.0
  9
$USERR3
 40
0.0
  9
$USERR4
 40
0.0
  9
$USERR5
 40
0.0
  9
$WORLDVIEW
 70
     1
  9
$SHADEDGE
 70
     3
  9
$SHADEDIF
 70
    70
  9
$TILEMODE
 70
     1
  9
$MAXACTVP
 70
    16
  9
$PLIMCHECK
 70
     0
  9
$PEXTMIN
 10
1.0000000000000000E+20
 20
1.0000000000000000E+20
 30
1.0000000000000000E+20
  9
$PEXTMAX
 10
-1.0000000000000000E+20
 20
-1.0000000000000000E+20
 30
-1.0000000000000000E+20
  9
$PLIMMIN
 10
0.0
 20
0.0
  9
$PLIMMAX
 10
12.0
 20
9.0
  9
$UNITMODE
 70
     0
  9
$VISRETAIN
 70
     0
  9
$PLINEGEN
 70
     0
  9
$PSLTSCALE
 70
     0
  0
ENDSEC
  0
SECTION
  2
TABLES
  0
TABLE
  2
VPORT
 70
     1
  0
VPORT
  2
*ACTIVE
 70
     0
 10
0.0
 20
0.0
 11
1.0
 21
1.0
 12
387.5061576354680142
 22
165.0
 13
0.0
 23
0.0
 14
20.0
 24
20.0
 15
20.0
 25
20.0
 16
0.0
 26
0.0
 36
1.0
 17
0.0
 27
0.0
 37
0.0
 40
330.0
 41
2.3485221674876842
 42
50.0
 43
0.0
 44
0.0
 50
0.0
 51
0.0
 71
     0
 72
   100
 73
     1
 74
     0
 75
     0
 76
     0
 77
     0
 78
     2
  0
ENDTAB
  0
TABLE
  2
LTYPE
 70
     3
  0
LTYPE
  2
CONTINUOUS
 70
     0
  3
Solid Line
 72
    65
 73
     0
 40
0.0
  0
LTYPE
  2
CENTER
 70
     0
  3
____ _ ____ _ ____ _ ____ _ ____ _ ____ _ ____
 72
    65
 73
     4
 40
2.0
 49
1.25
 49
-0.25
 49
0.25
 49
-0.25
  0
LTYPE
  2
PHANTOM2
 70
     0
  3
___ _ _ ___ _ _ ___ _ _ ___ _ _
 72
    65
 73
     6
 40
1.25
 49
0.625
 49
-0.125
 49
0.125
 49
-0.125
 49
0.125
 49
-0.125
  0
ENDTAB
  0
TABLE
  2
LAYER
 70
     3
  0
LAYER
  2
0
 70
     0
 62
     7
  6
CONTINUOUS
  0
LAYER
  2
1
 70
     0
 62
     1
  6
CENTER
  0
LAYER
  2
3
 70
     0
 62
     3
  6
CONTINUOUS
  0
ENDTAB
  0
TABLE
  2
STYLE
 70
     2
  0
STYLE
  2
STANDARD
 70
     0
 40
0.0
 41
1.0
 50
0.0
 71
     0
 42
0.2
  3
TXT
  4
BIGFONT
  0
STYLE
  2
STANDARD1
 70
     0
 40
0.0
 41
1.0
 50
0.0
 71
     0
 42
3.0
  3
txt
  4

  0
ENDTAB
  0
TABLE
  2
VIEW
 70
     1
  0
VIEW
  2
ALL
 70
     0
 40
540.0
 10
441.9831929999999147
 20
270.0
 41
0.0
 11
0.0
 21
0.0
 31
1.0
 12
0.0
 22
0.0
 32
0.0
 42
0.0
 43
0.0
 44
0.0
 50
0.0
 71
     0
  0
ENDTAB
  0
TABLE
  2
UCS
 70
     0
  0
ENDTAB
  0
TABLE
  2
APPID
 70
    11
  0
APPID
  2
ACAD
 70
     0
  0
APPID
  2
ACAD_NAV_VCDISPLAY
 70
     0
  0
APPID
  2
ACAD_EXEMPT_FROM_CAD_STANDARDS
 70
     0
  0
APPID
  2
ACAD_DSTYLE_DIMJAG
 70
     0
  0
APPID
  2
ACAD_DSTYLE_DIMTALN
 70
     0
  0
APPID
  2
ACAD_MLEADERVER
 70
     0
  0
APPID
  2
ACADANNOTATIVE
 70
     0
  0
APPID
  2
GRADIENTCOLOR1ACI
 70
     0
  0
APPID
  2
GRADIENTCOLOR2ACI
 70
     0
  0
APPID
  2
ACAD_TC
 70
     0
  0
APPID
  2
ACAD_DSTYLE_DIMRADIAL_EXTENSION
 70
     0
  0
ENDTAB
  0
TABLE
  2
DIMSTYLE
 70
     1
  0
DIMSTYLE
  2
STANDARD
 70
     0
  3

  4

  5

  6

  7

 40
1.0
 41
0.18
 42
0.0625
 43
0.38
 44
0.18
 45
0.0
 46
0.0
 47
0.0
 48
0.0
140
0.18
141
0.09
142
0.0
143
25.3999999999999986
144
1.0
145
0.0
146
1.0
147
0.09
 71
     0
 72
     0
 73
     1
 74
     1
 75
     0
 76
     0
 77
     0
 78
     0
170
     0
171
     2
172
     0
173
     0
174
     0
175
     0
176
     0
177
     0
178
     0
  0
ENDTAB
  0
ENDSEC
  0
SECTION
  2
BLOCKS
  0
BLOCK
  8
0
  2
$MODEL_SPACE
 70
     0
 10
0.0
 20
0.0
 30
0.0
  3
$MODEL_SPACE
  1

  0
ENDBLK
  5
11D
  8
0
  0
BLOCK
 67
     1
  8
0
  2
$PAPER_SPACE
 70
     0
 10
0.0
 20
0.0
 30
0.0
  3
$PAPER_SPACE
  1

  0
ENDBLK
  5
11B
 67
     1
  8
0
  0
ENDSEC
  0
SECTION
  2
ENTITIES
  0
LINE
  5
48A9
  8
0
 10
66.4813427333945128
 20
68.8395612973819908
 30
0.0
 11
65.0382076933603912
 21
70.0601660326824032
 31
0.0
  0
LINE
  5
48AA
  8
0
 10
65.982986179468071
 20
69.2610716569228799
 30
0.0
 11
66.9984553671263257
 21
69.2610717041162189
 31
0.0
  0
LINE
  5
48AF
  8
0
 10
65.5686321966434207
 20
67.4523081368810864
 30
0.0
 11
68.365288554003655
 21
69.7319270868972154
 31
0.0
  0
LINE
  5
48B0
  8
0
 10
68.0214707784787151
 20
70.0949551059253082
 30
0.0
 11
65.2248144278669315
 21
67.8153361623006532
 31
0.0
  0
LINE
  5
48BC
  8
0
 10
59.6583249851287292
 20
68.4862240451142981
 30
0.0
 11
59.65832495632025
 21
69.2610713629874937
 31
0.0
  0
LINE
  5
48BD
  8
0
 10
59.6583249335537786
 20
69.2610713629874937
 30
0.0
 11
63.8605878048892919
 21
69.261071558285451
 31
0.0
  0
LINE
  5
48BE
  8
0
 10
62.5552822860533908
 20
67.4196259246237588
 30
0.0
 11
62.9835424793447984
 21
67.1615693180269346
 31
0.0
  0
LINE
  5
48BF
  8
0
 10
62.9835424793447984
 20
67.1615693180269346
 30
0.0
 11
65.0700610635794732
 21
70.1051028299951469
 31
0.0
  0
LINE
  5
48C0
  8
0
 10
65.0700610635794732
 20
70.1051028299951469
 30
0.0
 11
64.6418008654907226
 21
70.3631594286307092
 31
0.0
  0
LINE
  5
48C1
  8
0
 10
64.6418008654907226
 20
70.3631594286307092
 30
0.0
 11
62.5552822860533908
 21
67.4196259246237588
 31
0.0
  0
LINE
  5
48C2
  8
0
 10
65.2248144278669315
 20
67.8153361623006532
 30
0.0
 11
65.5686321966434207
 21
67.4523081368810864
 31
0.0
  0
LINE
  5
48C3
  8
0
 10
59.65832495632025
 20
68.4862240451142981
 30
0.0
 11
61.7478529985933093
 21
68.4862241616460352
 31
0.0
  0
LINE
  5
48C4
  8
0
 10
63.9225218355243214
 20
68.4862242829259031
 30
0.0
 11
66.0478659557675201
 21
68.4862244014550043
 31
0.0
  0
LINE
  5
48C5
  8
0
 10
64.471770992251777
 20
69.2610715866899938
 30
0.0
 11
65.3040177781151669
 21
69.2610716253681886
 31
0.0
  0
LINE
  5
48C6
  8
0
 10
62.9817971522757034
 20
68.0213271560700861
 30
0.0
 11
61.5160331923839294
 21
69.261071449323552
 31
0.0
  0
LINE
  5
48C7
  8
0
 10
60.868094069286137
 20
69.2610714192108645
 30
0.0
 11
62.7104020895933374
 21
67.6384595086401106
 31
0.0
  0
LINE
  5
48C8
  8
0
 10
64.7954155207871736
 20
69.7090228210352763
 30
0.0
 11
66.1184510343607599
 21
68.5437599232086114
 31
0.0
  0
LINE
  5
48C9
  8
0
 10
64.5377597506487746
 20
70.2163845518816316
 30
0.0
 11
61.888398668868831
 21
69.2609808239972864
 31
0.0
  0
LINE
  5
48D3
  8
0
 10
71.8396545334790062
 20
67.3342700295030028
 30
0.0
 11
74.4437565119808369
 21
69.8315890367585581
 31
0.0
  0
LINE
  5
48D4
  8
0
 10
74.0718349778537686
 20
70.1657662020750905
 30
0.0
 11
71.4677330055642415
 21
67.6684472017334002
 31
0.0
  0
LINE
  5
48D5
  8
0
 10
73.0408657788250366
 20
68.4862247914503115
 30
0.0
 11
75.2177586894299566
 21
68.4862249128542118
 31
0.0
  0
LINE
  5
48D8
  8
0
 10
68.365288554003655
 20
69.7319270868972154
 30
0.0
 11
68.0214707784787151
 21
70.0949551059253082
 31
0.0
  0
LINE
  5
48D9
  8
0
 10
68.3958202773847006
 20
67.7052284273726883
 30
0.0
 11
68.7579854872581109
 21
67.360501918203866
 31
0.0
  0
LINE
  5
48DA
  8
0
 10
68.7579854872581109
 20
67.360501918203866
 30
0.0
 11
71.4327737075468434
 21
69.7819596021291346
 31
0.0
  0
LINE
  5
48DB
  8
0
 10
71.4327737075468434
 20
69.7819596021291346
 30
0.0
 11
71.0706084912651477
 21
70.1266861045654224
 31
0.0
  0
LINE
  5
48DC
  8
0
 10
71.0706084912651477
 20
70.1266861045654224
 30
0.0
 11
68.3958202773847006
 21
67.7052284273726883
 31
0.0
  0
LINE
  5
48DD
  8
0
 10
71.4677330055642415
 20
67.6684472017334002
 30
0.0
 11
71.8396545334790062
 21
67.3342700295030028
 31
0.0
  0
LINE
  5
48DE
  8
0
 10
70.0014802000789587
 20
68.4862246219456239
 30
0.0
 11
72.2381664240426744
 21
68.4862247466843002
 31
0.0
  0
LINE
  5
48DF
  8
0
 10
70.8573912248205033
 20
69.2610718834582286
 30
0.0
 11
71.358407605443972
 21
69.2610719067427709
 31
0.0
  0
LINE
  5
48E0
  8
0
 10
67.7876391196236909
 20
69.2610717407931844
 30
0.0
 11
68.2348964042271291
 21
69.2610717615792311
 31
0.0
  0
LINE
  5
48E1
  8
0
 10
69.5094814189476438
 20
68.748925853331869
 30
0.0
 11
68.3714683589389551
 21
69.7114581814550434
 31
0.0
  0
LINE
  5
48E2
  8
0
 10
68.0199217075398792
 20
69.450410623197925
 30
0.0
 11
69.1676948012807316
 21
68.4395100180830269
 31
0.0
  0
LINE
  5
48E3
  8
0
 10
72.6131162434435282
 20
68.7668632211774167
 30
0.0
 11
71.462767595392279
 21
69.7398289992271003
 31
0.0
  0
LINE
  5
48E4
  8
0
 10
71.1044574739491964
 20
69.4847383639868923
 30
0.0
 11
72.2810725454107796
 21
68.4484352007447825
 31
0.0
  0
LINE
  5
48E5
  8
0
 10
68.903965374891186
 20
69.2610717926738317
 30
0.0
 11
70.1144345178156527
 21
69.2610718489298307
 31
0.0
  0
LINE
  5
48E6
  8
0
 10
72.0288075843295701
 20
69.261071937899203
 30
0.0
 11
73.1284569055078464
 21
69.2610719890049751
 31
0.0
  0
LINE
  5
48E7
  8
0
 10
66.8370497176354093
 20
68.4862244454672719
 30
0.0
 11
69.1146552557895575
 21
68.4862245724879841
 31
0.0
  0
LINE
  5
48E9
  8
0
 10
77.0293782329449641
 20
70.2805750164114471
 30
0.0
 11
76.5647807400434885
 21
70.4653699702277549
 31
0.0
  0
LINE
  5
48EA
  8
0
 10
80.1583250032272048
 20
68.4862251883865412
 30
0.0
 11
80.1583249335537857
 21
69.261072315714344
 31
0.0
  0
LINE
  5
48EB
  8
0
 10
76.1561802407941286
 20
68.4862249651894928
 30
0.0
 11
80.1583250234725568
 21
68.4862251883865412
 31
0.0
  0
LINE
  5
48EC
  8
0
 10
77.5839223614914317
 20
69.261072196070316
 30
0.0
 11
80.1583249335537857
 21
69.261072315714344
 31
0.0
  0
LINE
  5
48ED
  8
0
 10
76.6890616167722641
 20
69.5812523620415533
 30
0.0
 11
77.6721972776199436
 21
68.4862250497368024
 31
0.0
  0
LINE
  5
48EE
  8
0
 10
78.3081363580513425
 20
68.4862250852026619
 30
0.0
 11
76.9011975887601693
 21
69.9915293816279274
 31
0.0
  0
LINE
  5
48EF
  8
0
 10
74.4437565119808369
 20
69.8315890367585581
 30
0.0
 11
74.0718349778537686
 21
70.1657662020750905
 31
0.0
  0
LINE
  5
48F0
  8
0
 10
74.9859910189347829
 20
67.2210869542024767
 30
0.0
 11
75.450588508401097
 21
67.0362919917492519
 31
0.0
  0
LINE
  5
48F1
  8
0
 10
73.8488447360630289
 20
69.2610720224846119
 30
0.0
 11
74.337999902276124
 21
69.2610720452177731
 31
0.0
  0
LINE
  5
48F2
  8
0
 10
74.0805601567585654
 20
69.4878119783488302
 30
0.0
 11
75.4864793539188668
 21
68.2495493157176298
 31
0.0
  0
LINE
  5
48F3
  8
0
 10
75.6947994536537863
 20
68.6776299856326915
 30
0.0
 11
74.3906613092437965
 21
69.7806710388906168
 31
0.0
  0
LINE
  5
48F4
  8
0
 10
75.450588508401097
 20
67.0362919917492519
 30
0.0
 11
77.0293782329449641
 21
70.2805750164114471
 31
0.0
  0
LINE
  5
48F5
  8
0
 10
76.5647807400434885
 20
70.4653699702277549
 30
0.0
 11
74.9859910189347829
 21
67.2210869542024767
 31
0.0
  0
LINE
  5
48F6
  8
0
 10
75.450588508401097
 20
67.0362919917492519
 30
0.0
 11
77.8611647113038998
 21
68.4862250602753448
 31
0.0
  0
LINE
  5
48F7
  8
0
 10
75.0049891486462457
 20
69.2610720762157399
 30
0.0
 11
75.9787242661227538
 21
69.2610721214695815
 31
0.0
  0
LINE
  5
49A0
  8
0
 10
199.0328562465325035
 20
297.12719563682748
 30
0.0
 11
196.535537239277005
 21
294.5230936583257062
 31
0.0
  0
LINE
  5
49A1
  8
0
 10
196.2013600739603874
 20
294.8950151924528882
 30
0.0
 11
198.6986790743019924
 21
297.4991171647423016
 31
0.0
  0
LINE
  5
49A2
  8
0
 10
197.8809014845851948
 20
295.9259843914816202
 30
0.0
 11
197.8809013631812945
 21
293.7490914808765865
 31
0.0
  0
LINE
  5
49AC
  8
0
 10
196.535537239277005
 20
294.5230936583257062
 30
0.0
 11
196.2013600739603874
 21
294.8950151924528882
 31
0.0
  0
LINE
  5
49AD
  8
0
 10
199.1460393218332001
 20
293.9808591513717033
 30
0.0
 11
199.3308342842861975
 21
293.5162616619055029
 31
0.0
  0
LINE
  5
49AE
  8
0
 10
199.3308342842861975
 20
293.5162616619055029
 30
0.0
 11
196.0865512596240876
 21
291.9374719373615221
 31
0.0
  0
LINE
  5
49AF
  8
0
 10
196.0865512596240876
 20
291.9374719373615221
 30
0.0
 11
195.9017563058077087
 21
292.4020694302631114
 31
0.0
  0
LINE
  5
49B0
  8
0
 10
195.9017563058077087
 20
292.4020694302631114
 30
0.0
 11
199.1460393218332001
 21
293.9808591513717033
 31
0.0
  0
LINE
  5
49B1
  8
0
 10
197.1060542535508944
 20
295.1180054342436847
 30
0.0
 11
197.1060542308175911
 21
294.6288502680304759
 31
0.0
  0
LINE
  5
49B2
  8
0
 10
196.7858739139938962
 20
292.2777885535343785
 30
0.0
 11
197.8809012262987039
 21
291.2946528926865994
 31
0.0
  0
LINE
  5
49B3
  8
0
 10
199.3308342842861975
 20
293.5162616619055029
 30
0.0
 11
197.8809012157601899
 21
291.1056854590025864
 31
0.0
  0
LINE
  5
49B4
  8
0
 10
196.8793142976865909
 20
294.8862900135480913
 30
0.0
 11
198.1175769603179049
 21
293.4803708163879037
 31
0.0
  0
LINE
  5
49B5
  8
0
 10
197.6894962904027864
 20
293.2720507166527
 30
0.0
 11
196.5864552371448042
 21
294.5761888610628034
 31
0.0
  0
LINE
  5
49B6
  8
0
 10
197.1060541998197948
 20
293.9618610216604111
 30
0.0
 11
197.1060541545658964
 21
292.9881259041837893
 31
0.0
  0
LINE
  5
49B7
  8
0
 10
197.8809010876489936
 20
288.8085251670793809
 30
0.0
 11
197.1060539603211907
 21
288.8085252367527005
 31
0.0
  0
LINE
  5
49B9
  8
0
 10
197.8809013108460988
 20
292.8106699295124145
 30
0.0
 11
197.8809010876489936
 21
288.8085251468339152
 31
0.0
  0
LINE
  5
49BA
  8
0
 10
197.1060540799651903
 20
291.3829278088151113
 30
0.0
 11
197.1060539603211907
 21
288.8085252367527005
 31
0.0
  0
LINE
  5
49BB
  8
0
 10
197.8809011908327875
 20
290.6587138122552005
 30
0.0
 11
196.3755968944074937
 21
292.0656525815463169
 31
0.0
  0
LINE
  5
49C4
  8
0
 10
198.9475003514118043
 20
306.4115678842533157
 30
0.0
 11
199.2055569580084864
 21
305.9833076909616807
 31
0.0
  0
LINE
  5
49C5
  8
0
 10
196.0039668474047119
 20
304.3250493048158773
 30
0.0
 11
198.9475003514118043
 21
306.4115678842533157
 31
0.0
  0
LINE
  5
49C6
  8
0
 10
198.3457991199655908
 20
305.9850530180307828
 30
0.0
 11
197.1060548267120112
 21
307.4508169779226137
 31
0.0
  0
LINE
  5
49C7
  8
0
 10
196.1507417241537894
 20
304.4290904196578254
 30
0.0
 11
197.1061454520383052
 21
307.0784515014377121
 31
0.0
  0
LINE
  5
49C9
  8
0
 10
197.1060549130480126
 20
309.3085252367527005
 30
0.0
 11
197.1060547177499984
 21
305.1062623654171944
 31
0.0
  0
LINE
  5
49CA
  8
0
 10
199.2055569580084864
 20
305.9833076909616807
 30
0.0
 11
196.2620234460403879
 21
303.8967891067269989
 31
0.0
  0
LINE
  5
49CB
  8
0
 10
196.2620234460403879
 20
303.8967891067269989
 30
0.0
 11
196.0039668474047119
 21
304.3250493048158773
 31
0.0
  0
LINE
  5
49CC
  8
0
 10
198.5517901137349099
 20
303.7420357424394979
 30
0.0
 11
198.9148181391545904
 21
303.3982179736632929
 31
0.0
  0
LINE
  5
49CD
  8
0
 10
198.9148181391545904
 20
303.3982179736632929
 30
0.0
 11
196.6351991891384046
 21
300.6015616163030018
 31
0.0
  0
LINE
  5
49CE
  8
0
 10
196.6351991891384046
 20
300.6015616163030018
 30
0.0
 11
196.2721711701101981
 21
300.9453793918278848
 31
0.0
  0
LINE
  5
49CF
  8
0
 10
196.2721711701101981
 20
300.9453793918278848
 30
0.0
 11
198.5517901137349099
 21
303.7420357424394979
 31
0.0
  0
LINE
  5
49D0
  8
0
 10
198.6618978486627043
 20
300.5710298929218993
 30
0.0
 11
199.0066243578316119
 21
300.2088646830483754
 31
0.0
  0
LINE
  5
49D1
  8
0
 10
197.8809018305682059
 20
302.129800452671077
 30
0.0
 11
197.8809017035474085
 21
299.8521949145168719
 31
0.0
  0
LINE
  5
49D2
  8
0
 10
197.1060545352424072
 20
301.1792110506830227
 30
0.0
 11
197.1060545144563037
 21
300.7319537660793003
 31
0.0
  0
LINE
  5
49D3
  8
0
 10
197.8809019931096032
 20
305.0443283347822785
 30
0.0
 11
197.8809018745803883
 21
302.9189842145389093
 31
0.0
  0
LINE
  5
49D4
  8
0
 10
197.1060546893455125
 20
304.4950791780547092
 30
0.0
 11
197.106054650667204
 21
303.6628323921913193
 31
0.0
  0
LINE
  5
49D5
  8
0
 10
197.5275649786534018
 20
302.4855074369119734
 30
0.0
 11
196.3069602433529894
 21
303.928642476946095
 31
0.0
  0
LINE
  5
49D6
  8
0
 10
196.6581034550002869
 20
304.1714346495194263
 30
0.0
 11
197.8233663528270085
 21
302.8483991359458969
 31
0.0
  0
LINE
  5
49D7
  8
0
 10
197.6182004227036089
 20
299.4573687513588993
 30
0.0
 11
196.6556680945805908
 21
300.5953818113674743
 31
0.0
  0
LINE
  5
49D8
  8
0
 10
196.916715652837496
 20
300.946928462766607
 30
0.0
 11
197.9276162579525078
 21
299.7991553690256978
 31
0.0
  0
LINE
  5
49D9
  8
0
 10
197.1060546191125127
 20
302.9838639908385858
 30
0.0
 11
197.1060545719192874
 21
301.9683948031802743
 31
0.0
  0
LINE
  5
49DA
  8
0
 10
196.5851666739064001
 20
297.5340764627595718
 30
0.0
 11
196.2404401714701123
 21
297.8962416790416228
 31
0.0
  0
LINE
  5
49DB
  8
0
 10
198.6986790743019924
 20
297.4991171647423016
 30
0.0
 11
199.0328562465325035
 21
297.12719563682748
 31
0.0
  0
LINE
  5
49DC
  8
0
 10
197.8809016540897971
 20
298.9653699702278118
 30
0.0
 11
197.8809015293512061
 21
296.7286837462638118
 31
0.0
  0
LINE
  5
49DD
  8
0
 10
197.1060543925771924
 20
298.1094589454860966
 30
0.0
 11
197.1060543692927922
 21
297.6084425648625142
 31
0.0
  0
LINE
  5
49DE
  8
0
 10
197.6002630548580896
 20
296.3537339268630717
 30
0.0
 11
196.627297276808406
 21
297.5040825749142073
 31
0.0
  0
LINE
  5
49DF
  8
0
 10
196.8823879120485003
 20
297.8623926963574036
 30
0.0
 11
197.9186910752906954
 21
296.6857776248958203
 31
0.0
  0
LINE
  5
49E0
  8
0
 10
197.1060543381362038
 20
296.9380425859770867
 30
0.0
 11
197.1060542870305881
 21
295.838393264798583
 31
0.0
  0
LINE
  5
49E1
  8
0
 10
199.0066243578316119
 20
300.2088646830483754
 30
0.0
 11
196.5851666739064001
 21
297.5340764627595718
 31
0.0
  0
LINE
  5
49E2
  8
0
 10
196.2404401714701123
 20
297.8962416790416228
 30
0.0
 11
198.6618978486627043
 21
300.5710298929218993
 31
0.0
  0
LINE
  5
49E3
  8
0
 10
197.1060544833615893
 20
300.0628847954153002
 30
0.0
 11
197.106054427105704
 21
298.8524156524908904
 31
0.0
  0
LINE
  5
49E5
  8
0
 10
197.8809022309210945
 20
309.3085251851779276
 30
0.0
 11
197.1060549130480126
 21
309.308525213986286
 31
0.0
  0
LINE
  5
49E6
  8
0
 10
197.8809022309210945
 20
309.308525213986286
 30
0.0
 11
197.8809021143896132
 21
307.2189971717132266
 31
0.0
  0
LINE
  5
49E7
  8
0
 10
197.1060548568246986
 20
308.0987561010202853
 30
0.0
 11
198.7286667673953104
 21
306.2564480807133123
 31
0.0
  0
LINE
  5
49F4
  8
0
 10
199.3308341778678141
 20
304.9653699702275844
 30
0.0
 11
197.880901988706114
 21
304.9653699702275844
 31
0.0
  0
LINE
  5
49F5
  8
0
 10
196.3441330611543094
 20
304.9653699702278118
 30
0.0
 11
195.9017563058077087
 21
304.9653699702278118
 31
0.0
  0
LINE
  5
49F6
  8
3
 10
199.3308341866703017
 20
303.8918699702277877
 30
0.0
 11
197.8809019358926093
 21
303.8918699702277877
 31
0.0
  0
LINE
  5
49F7
  8
3
 10
197.1060546671909037
 20
303.8918699702277877
 30
0.0
 11
196.9043299130048865
 21
303.8918699702277877
 31
0.0
  0
LINE
  5
49F8
  8
3
 10
196.338062458034301
 20
303.8918699702277877
 30
0.0
 11
195.9017563058077087
 21
303.8918699702277877
 31
0.0
  0
LINE
  5
49F9
  8
0
 10
199.3308342894065959
 20
292.9653699702279823
 30
0.0
 11
198.9994794488831076
 21
292.9653699702279823
 31
0.0
  0
LINE
  5
49FA
  8
0
 10
197.0592925820396033
 20
292.9653699702275844
 30
0.0
 11
195.9017563058077087
 21
292.9653699702275844
 31
0.0
  0
LINE
  5
49FC
  8
3
 10
199.3308342842863112
 20
294.038869970228177
 30
0.0
 11
197.8809013722867007
 21
294.0388699702280064
 31
0.0
  0
LINE
  5
49FD
  8
3
 10
197.0409199714389956
 20
294.038869970227779
 30
0.0
 11
195.9017563058077087
 21
294.038869970227779
 31
0.0
  0
LINE
  5
4A08
  8
0
 10
75.9999999999995453
 20
67.0362919917492519
 30
0.0
 11
75.9999999999995453
 21
67.3667565043159158
 31
0.0
  0
LINE
  5
4A09
  8
0
 10
75.9999999999996447
 20
69.3047920045848542
 30
0.0
 11
75.9999999999996447
 21
70.4653699702277549
 31
0.0
  0
LINE
  5
4A0B
  8
3
 10
74.9264999999999191
 20
67.0362919917492519
 30
0.0
 11
74.9265000000000327
 21
68.4862249036657147
 31
0.0
  0
LINE
  5
4A0C
  8
3
 10
74.9265000000000327
 20
69.3274582589703527
 30
0.0
 11
74.9265000000000327
 21
70.4653699702277834
 31
0.0
  0
LINE
  5
4A0D
  8
0
 10
64.0000000000004547
 20
67.0362919917492519
 30
0.0
 11
64.0000000000002274
 21
68.4862242872467988
 31
0.0
  0
LINE
  5
4A0E
  8
0
 10
64.0000000000002274
 20
70.0224594300818239
 30
0.0
 11
64.0000000000001137
 21
70.4653699702273144
 31
0.0
  0
LINE
  5
4A0F
  8
3
 10
65.0735000000002941
 20
67.0362919917492519
 30
0.0
 11
65.0735000000000809
 21
68.4862243400603603
 31
0.0
  0
LINE
  5
4A10
  8
3
 10
65.0734999999997257
 20
70.0303157723749621
 30
0.0
 11
65.0734999999999673
 21
70.4653699702274281
 31
0.0
  0
LINE
  5
4A11
  8
3
 10
65.073500033236428
 20
69.4641000192717257
 30
0.0
 11
65.0735000426719807
 21
69.2610716087760494
 31
0.0
  0
LINE
  5
4D6A
  8
1
 10
56.9999999999998792
 20
298.9653699702278118
 30
0.0
 11
82.9999999999998863
 21
298.9653699702278118
 31
0.0
  0
LINE
  5
4D6C
  8
1
 10
56.9999999999998792
 20
171.9653699702276981
 30
0.0
 11
82.9999999999998863
 21
171.9653699702276981
 31
0.0
  0
LINE
  5
4D6D
  8
1
 10
70.0
 20
148.4653699702276981
 30
0.0
 11
69.9999999999994316
 21
322.4653699702276981
 31
0.0
  0
LINE
  5
4D6E
  8
0
 10
55.1499999999998565
 20
270.9653699702278118
 30
0.0
 11
55.1499999999998565
 21
199.9653699702276981
 31
0.0
  0
LINE
  5
4D6F
  8
0
 10
84.8499999999998948
 20
270.9653699702278118
 30
0.0
 11
84.8499999999998948
 21
199.9653699702276981
 31
0.0
  0
LINE
  5
4D70
  8
0
 10
86.4999999999998863
 20
317.4653699702278118
 30
0.0
 11
53.4999999999998792
 21
317.4653699702278118
 31
0.0
  0
LINE
  5
4D71
  8
0
 10
86.4999999999998863
 20
153.4653699702276981
 30
0.0
 11
53.4999999999998792
 21
153.4653699702276981
 31
0.0
  0
LINE
  5
4D72
  8
0
 10
86.4999999999998863
 20
317.2733642560173735
 30
0.0
 11
53.4999999999998792
 21
317.2733642560173735
 31
0.0
  0
LINE
  5
4D73
  8
0
 10
86.4999999999998863
 20
153.657375684438108
 30
0.0
 11
53.4999999999998792
 21
153.657375684438108
 31
0.0
  0
LINE
  5
4D76
  8
0
 10
86.4999999999998863
 20
317.4653699702278118
 30
0.0
 11
86.4999999999998863
 21
270.9653699702278118
 31
0.0
  0
LINE
  5
4D77
  8
0
 10
53.4999999999998792
 20
270.9653699702278118
 30
0.0
 11
86.4999999999998863
 21
270.9653699702278118
 31
0.0
  0
LINE
  5
4D78
  8
0
 10
53.4999999999998792
 20
317.4653699702278118
 30
0.0
 11
53.4999999999998792
 21
270.9653699702278118
 31
0.0
  0
POLYLINE
  5
4D79
  8
0
 66
     1
 10
0.0
 20
0.0
 30
0.0
 70
     8
  0
VERTEX
  5
4D7A
  8
0
 10
86.4999999999998863
 20
316.0035892048268238
 30
0.0
 70
    32
  0
VERTEX
  5
4D7B
  8
0
 10
86.4982548267971652
 20
315.9481867696716222
 30
0.0
 70
    32
  0
VERTEX
  5
4D7C
  8
0
 10
86.4842956561005849
 20
315.8374287753526914
 30
0.0
 70
    32
  0
VERTEX
  5
4D7D
  8
0
 10
86.4563891255593262
 20
315.7268113693456826
 30
0.0
 70
    32
  0
VERTEX
  5
4D7E
  8
0
 10
86.4372125185136468
 20
315.6715846416998943
 30
0.0
 70
    32
  0
VERTEX
  5
4D7F
  8
0
 10
86.4145588468844466
 20
315.6164281450198246
 30
0.0
 70
    32
  0
VERTEX
  5
4D80
  8
0
 10
86.3588402126678147
 20
315.5063724976030244
 30
0.0
 70
    32
  0
VERTEX
  5
4D81
  8
0
 10
86.2892803664365147
 20
315.3967375451604198
 30
0.0
 70
    32
  0
VERTEX
  5
4D82
  8
0
 10
86.2059381627652783
 20
315.2876160498072977
 30
0.0
 70
    32
  0
VERTEX
  5
4D83
  8
0
 10
86.1088841174787376
 20
315.1791003392229982
 30
0.0
 70
    32
  0
VERTEX
  5
4D84
  8
0
 10
85.9982003479888135
 20
315.0712822285323114
 30
0.0
 70
    32
  0
VERTEX
  5
4D85
  8
0
 10
85.937776133769475
 20
315.0176633060942777
 30
0.0
 70
    32
  0
VERTEX
  5
4D86
  8
0
 10
85.8739805038145505
 20
314.9642529426209876
 30
0.0
 70
    32
  0
VERTEX
  5
4D87
  8
0
 10
85.7363296873455738
 20
314.8581030389502189
 30
0.0
 70
    32
  0
VERTEX
  5
4D88
  8
0
 10
85.5853643649153355
 20
314.752922330936201
 30
0.0
 70
    32
  0
VERTEX
  5
4D89
  8
0
 10
85.4212122682581594
 20
314.6487998119583835
 30
0.0
 70
    32
  0
VERTEX
  5
4D8A
  8
0
 10
85.2440122864361456
 20
314.5458235800631996
 30
0.0
 70
    32
  0
VERTEX
  5
4D8B
  8
0
 10
85.0539143483246107
 20
314.4440807634235853
 30
0.0
 70
    32
  0
VERTEX
  5
4D8C
  8
0
 10
84.9540784861046632
 20
314.3936988300191047
 30
0.0
 70
    32
  0
VERTEX
  5
4D8D
  8
0
 10
84.851079295757927
 20
314.3436574466197726
 30
0.0
 70
    32
  0
VERTEX
  5
4D8E
  8
0
 10
84.635678747440565
 20
314.2446385978037142
 30
0.0
 70
    32
  0
VERTEX
  5
4D8F
  8
0
 10
84.4078949537411063
 20
314.1471079968069944
 30
0.0
 70
    32
  0
VERTEX
  5
4D90
  8
0
 10
84.289419162443096
 20
314.0989266280408856
 30
0.0
 70
    32
  0
VERTEX
  5
4D91
  8
0
 10
84.1679206424899888
 20
314.0511481642553235
 30
0.0
 70
    32
  0
VERTEX
  5
4D92
  8
0
 10
83.9159588559124359
 20
313.956840291747028
 30
0.0
 70
    32
  0
VERTEX
  5
4D93
  8
0
 10
83.6522227788347976
 20
313.864264173157494
 30
0.0
 70
    32
  0
VERTEX
  5
4D94
  8
0
 10
83.5160087307682346
 20
313.818650058338676
 30
0.0
 70
    32
  0
VERTEX
  5
4D95
  8
0
 10
83.3769355583084462
 20
313.7734981371257277
 30
0.0
 70
    32
  0
VERTEX
  5
4D96
  8
0
 10
83.0903301148052691
 20
313.6846189807794758
 30
0.0
 70
    32
  0
VERTEX
  5
4D97
  8
0
 10
82.7926489451440233
 20
313.5977019047587078
 30
0.0
 70
    32
  0
VERTEX
  5
4D98
  8
0
 10
82.4841439173135313
 20
313.5128204495870818
 30
0.0
 70
    32
  0
VERTEX
  5
4D99
  8
0
 10
82.1650760573669459
 20
313.4300464334497178
 30
0.0
 70
    32
  0
VERTEX
  5
4D9A
  8
0
 10
81.8357153285681989
 20
313.3494498914279802
 30
0.0
 70
    32
  0
VERTEX
  5
4D9B
  8
0
 10
81.6672618895779436
 20
313.3099895569916953
 30
0.0
 70
    32
  0
VERTEX
  5
4D9C
  8
0
 10
81.496340402975747
 20
313.2710990162431131
 30
0.0
 70
    32
  0
VERTEX
  5
4D9D
  8
0
 10
81.1472384256583155
 20
313.1950601005576118
 30
0.0
 70
    32
  0
VERTEX
  5
4D9E
  8
0
 10
80.7887047717415356
 20
313.1213974808853777
 30
0.0
 70
    32
  0
VERTEX
  5
4D9F
  8
0
 10
80.421042796491065
 20
313.050173483156982
 30
0.0
 70
    32
  0
VERTEX
  5
4DA0
  8
0
 10
80.0445635786437464
 20
312.9814483699851735
 30
0.0
 70
    32
  0
VERTEX
  5
4DA1
  8
0
 10
79.6595856572039338
 20
312.9152802896769003
 30
0.0
 70
    32
  0
VERTEX
  5
4DA2
  8
0
 10
79.4640111997921252
 20
312.8831727179169775
 30
0.0
 70
    32
  0
VERTEX
  5
4DA3
  8
0
 10
79.2664347619275986
 20
312.8517252270340236
 30
0.0
 70
    32
  0
VERTEX
  5
4DA4
  8
0
 10
78.8654435377225127
 20
312.7908369559845028
 30
0.0
 70
    32
  0
VERTEX
  5
4DA5
  8
0
 10
78.4569512631976522
 20
312.7326669940845818
 30
0.0
 70
    32
  0
VERTEX
  5
4DA6
  8
0
 10
78.0413035635993992
 20
312.6772645589293802
 30
0.0
 70
    32
  0
VERTEX
  5
4DA7
  8
0
 10
77.6188521183779585
 20
312.6246765265103136
 30
0.0
 70
    32
  0
VERTEX
  5
4DA8
  8
0
 10
77.1899543636317134
 20
312.5749473915528256
 30
0.0
 70
    32
  0
VERTEX
  5
4DA9
  8
0
 10
76.9732013187214079
 20
312.5511681547901048
 30
0.0
 70
    32
  0
VERTEX
  5
4DAA
  8
0
 10
76.7549731896804133
 20
312.5281192298699011
 30
0.0
 70
    32
  0
VERTEX
  5
4DAB
  8
0
 10
76.3142766340239405
 20
312.4842316627613741
 30
0.0
 70
    32
  0
VERTEX
  5
4DAC
  8
0
 10
75.868237569945336
 20
312.443321823490578
 30
0.0
 70
    32
  0
VERTEX
  5
4DAD
  8
0
 10
75.4172333910236148
 20
312.4054243258659085
 30
0.0
 70
    32
  0
VERTEX
  5
4DAE
  8
0
 10
74.9616456918204221
 20
312.3705712349537862
 30
0.0
 70
    32
  0
VERTEX
  5
4DAF
  8
0
 10
74.5018599450130523
 20
312.3387920399486006
 30
0.0
 70
    32
  0
VERTEX
  5
4DB0
  8
0
 10
74.2705142441915314
 20
312.3240636582593197
 30
0.0
 70
    32
  0
VERTEX
  5
4DB1
  8
0
 10
74.038265175246238
 20
312.3101136292222009
 30
0.0
 70
    32
  0
VERTEX
  5
4DB2
  8
0
 10
73.5712536299785143
 20
312.2845602675731129
 30
0.0
 70
    32
  0
VERTEX
  5
4DB3
  8
0
 10
73.1012204476018042
 20
312.2621535756964022
 30
0.0
 70
    32
  0
VERTEX
  5
4DB4
  8
0
 10
72.628563323113994
 20
312.2429125118903812
 30
0.0
 70
    32
  0
VERTEX
  5
4DB5
  8
0
 10
72.1536821716307344
 20
312.2268533560160222
 30
0.0
 70
    32
  0
VERTEX
  5
4DB6
  8
0
 10
71.6769787900160509
 20
312.2139896957223755
 30
0.0
 70
    32
  0
VERTEX
  5
4DB7
  8
0
 10
71.438069755336187
 20
312.2087596835311274
 30
0.0
 70
    32
  0
VERTEX
  5
4DB8
  8
0
 10
71.1988565169230014
 20
312.2043324149504997
 30
0.0
 70
    32
  0
VERTEX
  5
4DB9
  8
0
 10
70.7197198915279159
 20
312.1978896847239184
 30
0.0
 70
    32
  0
VERTEX
  5
4DBA
  8
0
 10
70.2399743112509896
 20
312.1946669562354941
 30
0.0
 70
    32
  0
VERTEX
  5
4DBB
  8
0
 10
69.9999999999998863
 20
312.1942640512550042
 30
0.0
 70
    32
  0
VERTEX
  5
4DBC
  8
0
 10
69.7600256887487831
 20
312.1946669562354941
 30
0.0
 70
    32
  0
VERTEX
  5
4DBD
  8
0
 10
69.2802801084718567
 20
312.1978896847239184
 30
0.0
 70
    32
  0
VERTEX
  5
4DBE
  8
0
 10
68.8011434830767712
 20
312.2043324149504997
 30
0.0
 70
    32
  0
VERTEX
  5
4DBF
  8
0
 10
68.5619302446635857
 20
312.2087596835311274
 30
0.0
 70
    32
  0
VERTEX
  5
4DC0
  8
0
 10
68.3230212099837217
 20
312.2139896957223755
 30
0.0
 70
    32
  0
VERTEX
  5
4DC1
  8
0
 10
67.846317828369024
 20
312.2268533560160222
 30
0.0
 70
    32
  0
VERTEX
  5
4DC2
  8
0
 10
67.3714366768857644
 20
312.2429125118903812
 30
0.0
 70
    32
  0
VERTEX
  5
4DC3
  8
0
 10
66.8987795523980822
 20
312.2621535756964022
 30
0.0
 70
    32
  0
VERTEX
  5
4DC4
  8
0
 10
66.4287463700212584
 20
312.2845602675731129
 30
0.0
 70
    32
  0
VERTEX
  5
4DC5
  8
0
 10
65.9617348247535347
 20
312.3101136292222009
 30
0.0
 70
    32
  0
VERTEX
  5
4DC6
  8
0
 10
65.7294857558082413
 20
312.3240636582593197
 30
0.0
 70
    32
  0
VERTEX
  5
4DC7
  8
0
 10
65.4981400549867203
 20
312.3387920399486006
 30
0.0
 70
    32
  0
VERTEX
  5
4DC8
  8
0
 10
65.0383543081794642
 20
312.3705712349537862
 30
0.0
 70
    32
  0
VERTEX
  5
4DC9
  8
0
 10
64.5827666089761578
 20
312.4054243258659085
 30
0.0
 70
    32
  0
VERTEX
  5
4DCA
  8
0
 10
64.1317624300544367
 20
312.443321823490578
 30
0.0
 70
    32
  0
VERTEX
  5
4DCB
  8
0
 10
63.6857233659758322
 20
312.4842316627613741
 30
0.0
 70
    32
  0
VERTEX
  5
4DCC
  8
0
 10
63.2450268103193594
 20
312.5281192298699011
 30
0.0
 70
    32
  0
VERTEX
  5
4DCD
  8
0
 10
63.0267986812783576
 20
312.5511681547901048
 30
0.0
 70
    32
  0
VERTEX
  5
4DCE
  8
0
 10
62.8100456363680522
 20
312.5749473915528256
 30
0.0
 70
    32
  0
VERTEX
  5
4DCF
  8
0
 10
62.3811478816218212
 20
312.6246765265103136
 30
0.0
 70
    32
  0
VERTEX
  5
4DD0
  8
0
 10
61.9586964364003734
 20
312.6772645589293802
 30
0.0
 70
    32
  0
VERTEX
  5
4DD1
  8
0
 10
61.5430487368021204
 20
312.7326669940845818
 30
0.0
 70
    32
  0
VERTEX
  5
4DD2
  8
0
 10
61.1345564622773807
 20
312.7908369559845028
 30
0.0
 70
    32
  0
VERTEX
  5
4DD3
  8
0
 10
60.7335652380722877
 20
312.8517252270340236
 30
0.0
 70
    32
  0
VERTEX
  5
4DD4
  8
0
 10
60.5359888002076332
 20
312.8831727179169775
 30
0.0
 70
    32
  0
VERTEX
  5
4DD5
  8
0
 10
60.3404143427959525
 20
312.9152802896769003
 30
0.0
 70
    32
  0
VERTEX
  5
4DD6
  8
0
 10
59.955436421356012
 20
312.9814483699851735
 30
0.0
 70
    32
  0
VERTEX
  5
4DD7
  8
0
 10
59.5789572035085868
 20
313.050173483156982
 30
0.0
 70
    32
  0
VERTEX
  5
4DD8
  8
0
 10
59.2112952282582228
 20
313.1213974808853777
 30
0.0
 70
    32
  0
VERTEX
  5
4DD9
  8
0
 10
58.8527615743415708
 20
313.1950601005576118
 30
0.0
 70
    32
  0
VERTEX
  5
4DDA
  8
0
 10
58.5036595970240114
 20
313.2710990162431131
 30
0.0
 70
    32
  0
VERTEX
  5
4DDB
  8
0
 10
58.3327381104219285
 20
313.3099895569916953
 30
0.0
 70
    32
  0
VERTEX
  5
4DDC
  8
0
 10
58.1642846714315809
 20
313.3494498914279802
 30
0.0
 70
    32
  0
VERTEX
  5
4DDD
  8
0
 10
57.8349239426328268
 20
313.4300464334497178
 30
0.0
 70
    32
  0
VERTEX
  5
4DDE
  8
0
 10
57.5158560826862413
 20
313.5128204495870818
 30
0.0
 70
    32
  0
VERTEX
  5
4DDF
  8
0
 10
57.207351054855728
 20
313.5977019047587078
 30
0.0
 70
    32
  0
VERTEX
  5
4DE0
  8
0
 10
56.9096698851944822
 20
313.6846189807794758
 30
0.0
 70
    32
  0
VERTEX
  5
4DE1
  8
0
 10
56.6230644416913194
 20
313.7734981371257277
 30
0.0
 70
    32
  0
VERTEX
  5
4DE2
  8
0
 10
56.4839912692315167
 20
313.818650058338676
 30
0.0
 70
    32
  0
VERTEX
  5
4DE3
  8
0
 10
56.3477772211649608
 20
313.864264173157494
 30
0.0
 70
    32
  0
VERTEX
  5
4DE4
  8
0
 10
56.0840411440873368
 20
313.956840291747028
 30
0.0
 70
    32
  0
VERTEX
  5
4DE5
  8
0
 10
55.8320793575097625
 20
314.0511481642553235
 30
0.0
 70
    32
  0
VERTEX
  5
4DE6
  8
0
 10
55.7105808375566767
 20
314.0989266280408856
 30
0.0
 70
    32
  0
VERTEX
  5
4DE7
  8
0
 10
55.5921050462586592
 20
314.1471079968069944
 30
0.0
 70
    32
  0
VERTEX
  5
4DE8
  8
0
 10
55.3643212525593071
 20
314.2446385978037142
 30
0.0
 70
    32
  0
VERTEX
  5
4DE9
  8
0
 10
55.1489207042419523
 20
314.3436574466197726
 30
0.0
 70
    32
  0
VERTEX
  5
4DEA
  8
0
 10
55.0459215138952231
 20
314.3936988300191047
 30
0.0
 70
    32
  0
VERTEX
  5
4DEB
  8
0
 10
54.9460856516751619
 20
314.4440807634234716
 30
0.0
 70
    32
  0
VERTEX
  5
4DEC
  8
0
 10
54.755987713563627
 20
314.5458235800631996
 30
0.0
 70
    32
  0
VERTEX
  5
4DED
  8
0
 10
54.5787877317414996
 20
314.6487998119583835
 30
0.0
 70
    32
  0
VERTEX
  5
4DEE
  8
0
 10
54.4146356350844371
 20
314.752922330936201
 30
0.0
 70
    32
  0
VERTEX
  5
4DEF
  8
0
 10
54.2636703126541988
 20
314.8581030389502189
 30
0.0
 70
    32
  0
VERTEX
  5
4DF0
  8
0
 10
54.1260194961852221
 20
314.9642529426209876
 30
0.0
 70
    32
  0
VERTEX
  5
4DF1
  8
0
 10
54.0622238662302834
 20
315.0176633060942777
 30
0.0
 70
    32
  0
VERTEX
  5
4DF2
  8
0
 10
54.0017996520109591
 20
315.0712822285323114
 30
0.0
 70
    32
  0
VERTEX
  5
4DF3
  8
0
 10
53.8911158825209213
 20
315.1791003392229982
 30
0.0
 70
    32
  0
VERTEX
  5
4DF4
  8
0
 10
53.7940618372345014
 20
315.2876160498072977
 30
0.0
 70
    32
  0
VERTEX
  5
4DF5
  8
0
 10
53.7107196335631372
 20
315.3967375451604198
 30
0.0
 70
    32
  0
VERTEX
  5
4DF6
  8
0
 10
53.6411597873319508
 20
315.5063724976030244
 30
0.0
 70
    32
  0
VERTEX
  5
4DF7
  8
0
 10
53.5854411531153119
 20
315.6164281450198246
 30
0.0
 70
    32
  0
VERTEX
  5
4DF8
  8
0
 10
53.5627874814861116
 20
315.6715846416998943
 30
0.0
 70
    32
  0
VERTEX
  5
4DF9
  8
0
 10
53.5436108744404393
 20
315.7268113693456826
 30
0.0
 70
    32
  0
VERTEX
  5
4DFA
  8
0
 10
53.5157043438993014
 20
315.8374287753526914
 30
0.0
 70
    32
  0
VERTEX
  5
4DFB
  8
0
 10
53.5017451732026075
 20
315.9481867696716222
 30
0.0
 70
    32
  0
VERTEX
  5
4DFC
  8
0
 10
53.4999999999998792
 20
316.0035892048268238
 30
0.0
 70
    32
  0
SEQEND
  5
4DFD
  8
0
  0
LINE
  5
4F17
  8
0
 10
53.4999999999998792
 20
199.9653699702276981
 30
0.0
 11
53.4999999999998792
 21
153.4653699702276981
 31
0.0
  0
LINE
  5
4F18
  8
0
 10
86.4999999999998863
 20
199.9653699702276981
 30
0.0
 11
53.4999999999998792
 21
199.9653699702276981
 31
0.0
  0
LINE
  5
4F19
  8
0
 10
86.4999999999998863
 20
199.9653699702276981
 30
0.0
 11
86.4999999999998863
 21
153.4653699702276981
 31
0.0
  0
POLYLINE
  5
4F1A
  8
0
 66
     1
 10
0.0
 20
0.0
 30
0.0
 70
     8
  0
VERTEX
  5
4F1B
  8
0
 10
53.4999999999998792
 20
154.9271507356286861
 30
0.0
 70
    32
  0
VERTEX
  5
4F1C
  8
0
 10
53.5017451732026075
 20
154.9825531707838877
 30
0.0
 70
    32
  0
VERTEX
  5
4F1D
  8
0
 10
53.5157043438993014
 20
155.0933111651029037
 30
0.0
 70
    32
  0
VERTEX
  5
4F1E
  8
0
 10
53.5436108744404393
 20
155.2039285711099126
 30
0.0
 70
    32
  0
VERTEX
  5
4F1F
  8
0
 10
53.5627874814861116
 20
155.2591552987555872
 30
0.0
 70
    32
  0
VERTEX
  5
4F20
  8
0
 10
53.5854411531153119
 20
155.3143117954357137
 30
0.0
 70
    32
  0
VERTEX
  5
4F21
  8
0
 10
53.6411597873319508
 20
155.4243674428525139
 30
0.0
 70
    32
  0
VERTEX
  5
4F22
  8
0
 10
53.7107196335631372
 20
155.5340023952950901
 30
0.0
 70
    32
  0
VERTEX
  5
4F23
  8
0
 10
53.7940618372345014
 20
155.6431238906482122
 30
0.0
 70
    32
  0
VERTEX
  5
4F24
  8
0
 10
53.8911158825209213
 20
155.7516396012325117
 30
0.0
 70
    32
  0
VERTEX
  5
4F25
  8
0
 10
54.0017996520109591
 20
155.8594577119231985
 30
0.0
 70
    32
  0
VERTEX
  5
4F26
  8
0
 10
54.0622238662302834
 20
155.9130766343612038
 30
0.0
 70
    32
  0
VERTEX
  5
4F27
  8
0
 10
54.1260194961852221
 20
155.9664869978344939
 30
0.0
 70
    32
  0
VERTEX
  5
4F28
  8
0
 10
54.2636703126541988
 20
156.072636901505291
 30
0.0
 70
    32
  0
VERTEX
  5
4F29
  8
0
 10
54.4146356350844371
 20
156.1778176095193942
 30
0.0
 70
    32
  0
VERTEX
  5
4F2A
  8
0
 10
54.5787877317414996
 20
156.2819401284970979
 30
0.0
 70
    32
  0
VERTEX
  5
4F2B
  8
0
 10
54.755987713563627
 20
156.3849163603923103
 30
0.0
 70
    32
  0
VERTEX
  5
4F2C
  8
0
 10
54.9460856516751619
 20
156.4866591770320099
 30
0.0
 70
    32
  0
VERTEX
  5
4F2D
  8
0
 10
55.0459215138952231
 20
156.5370411104364052
 30
0.0
 70
    32
  0
VERTEX
  5
4F2E
  8
0
 10
55.1489207042419523
 20
156.5870824938357941
 30
0.0
 70
    32
  0
VERTEX
  5
4F2F
  8
0
 10
55.3643212525593071
 20
156.6861013426517957
 30
0.0
 70
    32
  0
VERTEX
  5
4F30
  8
0
 10
55.5921050462586592
 20
156.7836319436484871
 30
0.0
 70
    32
  0
VERTEX
  5
4F31
  8
0
 10
55.7105808375566767
 20
156.8318133124145959
 30
0.0
 70
    32
  0
VERTEX
  5
4F32
  8
0
 10
55.8320793575097625
 20
156.8795917762003
 30
0.0
 70
    32
  0
VERTEX
  5
4F33
  8
0
 10
56.0840411440873368
 20
156.9738996487085956
 30
0.0
 70
    32
  0
VERTEX
  5
4F34
  8
0
 10
56.3477772211649608
 20
157.0664757672979874
 30
0.0
 70
    32
  0
VERTEX
  5
4F35
  8
0
 10
56.4839912692315167
 20
157.1120898821168055
 30
0.0
 70
    32
  0
VERTEX
  5
4F36
  8
0
 10
56.6230644416913194
 20
157.1572418033298959
 30
0.0
 70
    32
  0
VERTEX
  5
4F37
  8
0
 10
56.9096698851944822
 20
157.2461209596760057
 30
0.0
 70
    32
  0
VERTEX
  5
4F38
  8
0
 10
57.2073510548556214
 20
157.3330380356966884
 30
0.0
 70
    32
  0
VERTEX
  5
4F39
  8
0
 10
57.5158560826862413
 20
157.4179194908685133
 30
0.0
 70
    32
  0
VERTEX
  5
4F3A
  8
0
 10
57.8349239426328268
 20
157.5006935070059058
 30
0.0
 70
    32
  0
VERTEX
  5
4F3B
  8
0
 10
58.1642846714315809
 20
157.5812900490275013
 30
0.0
 70
    32
  0
VERTEX
  5
4F3C
  8
0
 10
58.3327381104219285
 20
157.6207503834638999
 30
0.0
 70
    32
  0
VERTEX
  5
4F3D
  8
0
 10
58.5036595970240114
 20
157.6596409242123968
 30
0.0
 70
    32
  0
VERTEX
  5
4F3E
  8
0
 10
58.8527615743414501
 20
157.7356798398978981
 30
0.0
 70
    32
  0
VERTEX
  5
4F3F
  8
0
 10
59.2112952282582228
 20
157.8093424595701038
 30
0.0
 70
    32
  0
VERTEX
  5
4F40
  8
0
 10
59.5789572035085868
 20
157.8805664572984995
 30
0.0
 70
    32
  0
VERTEX
  5
4F41
  8
0
 10
59.955436421356012
 20
157.949291570470308
 30
0.0
 70
    32
  0
VERTEX
  5
4F42
  8
0
 10
60.3404143427958388
 20
158.0154596507786096
 30
0.0
 70
    32
  0
VERTEX
  5
4F43
  8
0
 10
60.5359888002076332
 20
158.0475672225385892
 30
0.0
 70
    32
  0
VERTEX
  5
4F44
  8
0
 10
60.7335652380721669
 20
158.0790147134215999
 30
0.0
 70
    32
  0
VERTEX
  5
4F45
  8
0
 10
61.1345564622773807
 20
158.1399029844710071
 30
0.0
 70
    32
  0
VERTEX
  5
4F46
  8
0
 10
61.5430487368021204
 20
158.1980729463710134
 30
0.0
 70
    32
  0
VERTEX
  5
4F47
  8
0
 10
61.9586964364003734
 20
158.2534753815261013
 30
0.0
 70
    32
  0
VERTEX
  5
4F48
  8
0
 10
62.3811478816218212
 20
158.3060634139451963
 30
0.0
 70
    32
  0
VERTEX
  5
4F49
  8
0
 10
62.8100456363680522
 20
158.3557925489027127
 30
0.0
 70
    32
  0
VERTEX
  5
4F4A
  8
0
 10
63.0267986812783576
 20
158.3795717856654051
 30
0.0
 70
    32
  0
VERTEX
  5
4F4B
  8
0
 10
63.2450268103193594
 20
158.4026207105856088
 30
0.0
 70
    32
  0
VERTEX
  5
4F4C
  8
0
 10
63.6857233659758322
 20
158.4465082776941074
 30
0.0
 70
    32
  0
VERTEX
  5
4F4D
  8
0
 10
64.1317624300544367
 20
158.4874181169649034
 30
0.0
 70
    32
  0
VERTEX
  5
4F4E
  8
0
 10
64.5827666089761578
 20
158.5253156145896014
 30
0.0
 70
    32
  0
VERTEX
  5
4F4F
  8
0
 10
65.0383543081793505
 20
158.5601687055016953
 30
0.0
 70
    32
  0
VERTEX
  5
4F50
  8
0
 10
65.4981400549867203
 20
158.5919479005069093
 30
0.0
 70
    32
  0
VERTEX
  5
4F51
  8
0
 10
65.7294857558082413
 20
158.6066762821963039
 30
0.0
 70
    32
  0
VERTEX
  5
4F52
  8
0
 10
65.9617348247535347
 20
158.620626311233309
 30
0.0
 70
    32
  0
VERTEX
  5
4F53
  8
0
 10
66.4287463700212584
 20
158.646179672882397
 30
0.0
 70
    32
  0
VERTEX
  5
4F54
  8
0
 10
66.8987795523979685
 20
158.6685863647591077
 30
0.0
 70
    32
  0
VERTEX
  5
4F55
  8
0
 10
67.3714366768857644
 20
158.6878274285651003
 30
0.0
 70
    32
  0
VERTEX
  5
4F56
  8
0
 10
67.846317828369024
 20
158.7038865844394877
 30
0.0
 70
    32
  0
VERTEX
  5
4F57
  8
0
 10
68.3230212099837217
 20
158.716750244733106
 30
0.0
 70
    32
  0
VERTEX
  5
4F58
  8
0
 10
68.5619302446635857
 20
158.7219802569244962
 30
0.0
 70
    32
  0
VERTEX
  5
4F59
  8
0
 10
68.8011434830767712
 20
158.7264075255050102
 30
0.0
 70
    32
  0
VERTEX
  5
4F5A
  8
0
 10
69.2802801084718567
 20
158.7328502557317051
 30
0.0
 70
    32
  0
VERTEX
  5
4F5B
  8
0
 10
69.7600256887487831
 20
158.7360729842199873
 30
0.0
 70
    32
  0
VERTEX
  5
4F5C
  8
0
 10
69.9999999999998863
 20
158.7364758892005057
 30
0.0
 70
    32
  0
VERTEX
  5
4F5D
  8
0
 10
70.2399743112509896
 20
158.7360729842199873
 30
0.0
 70
    32
  0
VERTEX
  5
4F5E
  8
0
 10
70.7197198915279159
 20
158.7328502557317051
 30
0.0
 70
    32
  0
VERTEX
  5
4F5F
  8
0
 10
71.1988565169230014
 20
158.7264075255050102
 30
0.0
 70
    32
  0
VERTEX
  5
4F60
  8
0
 10
71.438069755336187
 20
158.7219802569244962
 30
0.0
 70
    32
  0
VERTEX
  5
4F61
  8
0
 10
71.6769787900160509
 20
158.716750244733106
 30
0.0
 70
    32
  0
VERTEX
  5
4F62
  8
0
 10
72.1536821716307344
 20
158.7038865844394877
 30
0.0
 70
    32
  0
VERTEX
  5
4F63
  8
0
 10
72.628563323113994
 20
158.6878274285651003
 30
0.0
 70
    32
  0
VERTEX
  5
4F64
  8
0
 10
73.1012204476016905
 20
158.6685863647591077
 30
0.0
 70
    32
  0
VERTEX
  5
4F65
  8
0
 10
73.5712536299785143
 20
158.646179672882397
 30
0.0
 70
    32
  0
VERTEX
  5
4F66
  8
0
 10
74.038265175246238
 20
158.620626311233309
 30
0.0
 70
    32
  0
VERTEX
  5
4F67
  8
0
 10
74.2705142441915314
 20
158.6066762821963039
 30
0.0
 70
    32
  0
VERTEX
  5
4F68
  8
0
 10
74.5018599450130523
 20
158.5919479005069093
 30
0.0
 70
    32
  0
VERTEX
  5
4F69
  8
0
 10
74.9616456918203085
 20
158.5601687055016953
 30
0.0
 70
    32
  0
VERTEX
  5
4F6A
  8
0
 10
75.4172333910236148
 20
158.5253156145896014
 30
0.0
 70
    32
  0
VERTEX
  5
4F6B
  8
0
 10
75.868237569945336
 20
158.4874181169649034
 30
0.0
 70
    32
  0
VERTEX
  5
4F6C
  8
0
 10
76.3142766340239405
 20
158.4465082776941074
 30
0.0
 70
    32
  0
VERTEX
  5
4F6D
  8
0
 10
76.7549731896804133
 20
158.4026207105856088
 30
0.0
 70
    32
  0
VERTEX
  5
4F6E
  8
0
 10
76.9732013187214079
 20
158.3795717856654051
 30
0.0
 70
    32
  0
VERTEX
  5
4F6F
  8
0
 10
77.1899543636317134
 20
158.3557925489027127
 30
0.0
 70
    32
  0
VERTEX
  5
4F70
  8
0
 10
77.6188521183779585
 20
158.3060634139451963
 30
0.0
 70
    32
  0
VERTEX
  5
4F71
  8
0
 10
78.0413035635993992
 20
158.2534753815261013
 30
0.0
 70
    32
  0
VERTEX
  5
4F72
  8
0
 10
78.4569512631976522
 20
158.1980729463710134
 30
0.0
 70
    32
  0
VERTEX
  5
4F73
  8
0
 10
78.865443537722399
 20
158.1399029844710071
 30
0.0
 70
    32
  0
VERTEX
  5
4F74
  8
0
 10
79.2664347619274849
 20
158.0790147134215999
 30
0.0
 70
    32
  0
VERTEX
  5
4F75
  8
0
 10
79.4640111997921252
 20
158.0475672225385892
 30
0.0
 70
    32
  0
VERTEX
  5
4F76
  8
0
 10
79.6595856572038201
 20
158.0154596507786948
 30
0.0
 70
    32
  0
VERTEX
  5
4F77
  8
0
 10
80.0445635786437464
 20
157.949291570470308
 30
0.0
 70
    32
  0
VERTEX
  5
4F78
  8
0
 10
80.421042796491065
 20
157.8805664572984995
 30
0.0
 70
    32
  0
VERTEX
  5
4F79
  8
0
 10
80.7887047717415356
 20
157.8093424595701038
 30
0.0
 70
    32
  0
VERTEX
  5
4F7A
  8
0
 10
81.147238425658216
 20
157.7356798398978981
 30
0.0
 70
    32
  0
VERTEX
  5
4F7B
  8
0
 10
81.496340402975747
 20
157.6596409242123968
 30
0.0
 70
    32
  0
VERTEX
  5
4F7C
  8
0
 10
81.6672618895778442
 20
157.6207503834638999
 30
0.0
 70
    32
  0
VERTEX
  5
4F7D
  8
0
 10
81.8357153285681989
 20
157.5812900490275013
 30
0.0
 70
    32
  0
VERTEX
  5
4F7E
  8
0
 10
82.1650760573669459
 20
157.5006935070059058
 30
0.0
 70
    32
  0
VERTEX
  5
4F7F
  8
0
 10
82.4841439173135313
 20
157.4179194908685133
 30
0.0
 70
    32
  0
VERTEX
  5
4F80
  8
0
 10
82.7926489451440233
 20
157.3330380356966884
 30
0.0
 70
    32
  0
VERTEX
  5
4F81
  8
0
 10
83.0903301148052691
 20
157.2461209596760057
 30
0.0
 70
    32
  0
VERTEX
  5
4F82
  8
0
 10
83.3769355583084462
 20
157.1572418033298959
 30
0.0
 70
    32
  0
VERTEX
  5
4F83
  8
0
 10
83.5160087307682346
 20
157.1120898821168055
 30
0.0
 70
    32
  0
VERTEX
  5
4F84
  8
0
 10
83.6522227788347976
 20
157.0664757672979874
 30
0.0
 70
    32
  0
VERTEX
  5
4F85
  8
0
 10
83.9159588559124359
 20
156.9738996487085956
 30
0.0
 70
    32
  0
VERTEX
  5
4F86
  8
0
 10
84.1679206424899888
 20
156.8795917762003
 30
0.0
 70
    32
  0
VERTEX
  5
4F87
  8
0
 10
84.289419162443096
 20
156.8318133124145959
 30
0.0
 70
    32
  0
VERTEX
  5
4F88
  8
0
 10
84.4078949537411063
 20
156.7836319436484871
 30
0.0
 70
    32
  0
VERTEX
  5
4F89
  8
0
 10
84.635678747440565
 20
156.6861013426517957
 30
0.0
 70
    32
  0
VERTEX
  5
4F8A
  8
0
 10
84.851079295757927
 20
156.5870824938357941
 30
0.0
 70
    32
  0
VERTEX
  5
4F8B
  8
0
 10
84.9540784861045353
 20
156.5370411104364052
 30
0.0
 70
    32
  0
VERTEX
  5
4F8C
  8
0
 10
85.0539143483246107
 20
156.4866591770320099
 30
0.0
 70
    32
  0
VERTEX
  5
4F8D
  8
0
 10
85.2440122864361456
 20
156.3849163603923103
 30
0.0
 70
    32
  0
VERTEX
  5
4F8E
  8
0
 10
85.4212122682581594
 20
156.2819401284970979
 30
0.0
 70
    32
  0
VERTEX
  5
4F8F
  8
0
 10
85.5853643649153355
 20
156.1778176095193942
 30
0.0
 70
    32
  0
VERTEX
  5
4F90
  8
0
 10
85.7363296873455738
 20
156.072636901505291
 30
0.0
 70
    32
  0
VERTEX
  5
4F91
  8
0
 10
85.8739805038145505
 20
155.9664869978344939
 30
0.0
 70
    32
  0
VERTEX
  5
4F92
  8
0
 10
85.937776133769475
 20
155.9130766343612038
 30
0.0
 70
    32
  0
VERTEX
  5
4F93
  8
0
 10
85.9982003479888135
 20
155.8594577119231985
 30
0.0
 70
    32
  0
VERTEX
  5
4F94
  8
0
 10
86.1088841174787376
 20
155.7516396012325117
 30
0.0
 70
    32
  0
VERTEX
  5
4F95
  8
0
 10
86.2059381627652783
 20
155.6431238906482122
 30
0.0
 70
    32
  0
VERTEX
  5
4F96
  8
0
 10
86.2892803664365147
 20
155.5340023952950901
 30
0.0
 70
    32
  0
VERTEX
  5
4F97
  8
0
 10
86.3588402126678147
 20
155.4243674428525139
 30
0.0
 70
    32
  0
VERTEX
  5
4F98
  8
0
 10
86.4145588468844466
 20
155.3143117954357137
 30
0.0
 70
    32
  0
VERTEX
  5
4F99
  8
0
 10
86.4372125185136468
 20
155.2591552987555872
 30
0.0
 70
    32
  0
VERTEX
  5
4F9A
  8
0
 10
86.4563891255593262
 20
155.2039285711099126
 30
0.0
 70
    32
  0
VERTEX
  5
4F9B
  8
0
 10
86.4842956561005849
 20
155.0933111651029037
 30
0.0
 70
    32
  0
VERTEX
  5
4F9C
  8
0
 10
86.4982548267971652
 20
154.9825531707838877
 30
0.0
 70
    32
  0
VERTEX
  5
4F9D
  8
0
 10
86.4999999999998863
 20
154.9271507356286861
 30
0.0
 70
    32
  0
SEQEND
  5
4F9E
  8
0
  0
LINE
  5
545C
  8
1
 10
157.9017563058077087
 20
298.9653699702278118
 30
0.0
 11
220.9017563058077087
 21
298.9653699702278118
 31
0.0
  0
LINE
  5
545D
  8
1
 10
157.9017563058077087
 20
171.9653699702276981
 30
0.0
 11
220.9017563058077087
 21
171.9653699702276981
 31
0.0
  0
LINE
  5
5460
  8
0
 10
164.5517563058076007
 20
270.9653699702278118
 30
0.0
 11
164.5517563058076007
 21
199.9653699702276981
 31
0.0
  0
LINE
  5
5461
  8
0
 10
214.828256305807713
 20
304.9653699702278118
 30
0.0
 11
209.3631044870450069
 21
304.9653699702278118
 31
0.0
  0
LINE
  5
5462
  8
0
 10
209.3631044870450069
 20
292.9653699702278118
 30
0.0
 11
214.828256305807713
 21
292.9653699702278118
 31
0.0
  0
LINE
  5
5463
  8
0
 10
215.9017563058077087
 20
303.8918699702277877
 30
0.0
 11
214.828256305807713
 21
304.9653699702278118
 31
0.0
  0
LINE
  5
5464
  8
0
 10
214.828256305807713
 20
292.9653699702278118
 30
0.0
 11
215.9017563058077087
 21
294.0388699702277222
 31
0.0
  0
LINE
  5
546D
  8
0
 10
162.901756305807595
 20
288.9653699702276981
 30
0.0
 11
162.901756305807595
 21
270.9653699702278118
 31
0.0
  0
LINE
  5
546E
  8
0
 10
162.901756305807595
 20
312.1942640512550042
 30
0.0
 11
162.901756305807595
 21
308.9653699702278118
 31
0.0
  0
LINE
  5
546F
  8
0
 10
162.901756305807595
 20
161.9653699702276981
 30
0.0
 11
162.901756305807595
 21
158.7364758892005057
 31
0.0
  0
LINE
  5
5470
  8
0
 10
162.901756305807595
 20
199.9653699702276981
 30
0.0
 11
162.901756305807595
 21
181.9653699702276981
 31
0.0
  0
LINE
  5
5471
  8
0
 10
195.9017563058077087
 20
317.4653699702278118
 30
0.0
 11
195.9017563058077087
 21
270.9653699702278118
 31
0.0
  0
LINE
  5
5472
  8
0
 10
162.901756305807595
 20
270.9653699702278118
 30
0.0
 11
195.9017563058077087
 21
270.9653699702278118
 31
0.0
  0
LINE
  5
5473
  8
0
 10
194.251756305807703
 20
270.9653699702278118
 30
0.0
 11
194.251756305807703
 21
199.9653699702276981
 31
0.0
  0
LINE
  5
5474
  8
0
 10
195.9017563058077087
 20
199.9653699702276981
 30
0.0
 11
162.901756305807595
 21
199.9653699702276981
 31
0.0
  0
LINE
  5
5475
  8
0
 10
195.9017563058077087
 20
199.9653699702276981
 30
0.0
 11
195.9017563058077087
 21
153.4653699702276981
 31
0.0
  0
LINE
  5
5476
  8
0
 10
195.9017563058077087
 20
317.4653699702278118
 30
0.0
 11
184.901756305807595
 21
317.2733642560173735
 31
0.0
  0
LINE
  5
5477
  8
0
 10
184.901756305807595
 20
153.657375684438108
 30
0.0
 11
195.9017563058077087
 21
153.4653699702276981
 31
0.0
  0
LINE
  5
5478
  8
0
 10
184.901756305807595
 20
317.2733642560173735
 30
0.0
 11
162.901756305807595
 21
312.1942640512550042
 31
0.0
  0
LINE
  5
5479
  8
0
 10
162.901756305807595
 20
158.7364758892005057
 30
0.0
 11
184.901756305807595
 21
153.657375684438108
 31
0.0
  0
LINE
  5
547A
  8
0
 10
214.828256305807713
 20
292.9653699702278118
 30
0.0
 11
214.828256305807713
 21
304.9653699702278118
 31
0.0
  0
LINE
  5
547B
  8
0
 10
215.9017563058077087
 20
294.0388699702277222
 30
0.0
 11
215.9017563058077087
 21
303.8918699702277877
 31
0.0
  0
LINE
  5
547E
  8
0
 10
209.3308342842861975
 20
289.4653699702278118
 30
0.0
 11
209.3308342842861975
 21
308.4653699702278118
 31
0.0
  0
LINE
  5
547F
  8
0
 10
199.3308342842861975
 20
289.4653699702278118
 30
0.0
 11
199.3308342842861975
 21
308.4653699702278118
 31
0.0
  0
POLYLINE
  5
5480
  8
0
 66
     1
 10
0.0
 20
0.0
 30
0.0
 70
     8
  0
VERTEX
  5
5481
  8
0
 10
208.4823285082543123
 20
298.9653699702278118
 30
0.0
 70
    32
  0
VERTEX
  5
5482
  8
0
 10
208.5282802936104076
 20
298.8259691874816895
 30
0.0
 70
    32
  0
VERTEX
  5
5483
  8
0
 10
208.6161987142675116
 20
298.5498274796204896
 30
0.0
 70
    32
  0
VERTEX
  5
5484
  8
0
 10
208.6988756565679921
 20
298.2769478378517078
 30
0.0
 70
    32
  0
VERTEX
  5
5485
  8
0
 10
208.7382725384223932
 20
298.1416260329388024
 30
0.0
 70
    32
  0
VERTEX
  5
5486
  8
0
 10
208.7763861970524033
 20
298.0069940548361274
 30
0.0
 70
    32
  0
VERTEX
  5
5487
  8
0
 10
208.8487925612618881
 20
297.7396344706689888
 30
0.0
 70
    32
  0
VERTEX
  5
5488
  8
0
 10
208.9161442327045108
 20
297.474540576283573
 30
0.0
 70
    32
  0
VERTEX
  5
5489
  8
0
 10
208.9784779794877068
 20
297.2113856143560042
 30
0.0
 70
    32
  0
VERTEX
  5
548A
  8
0
 10
209.0358177971272085
 20
296.9498431646653103
 30
0.0
 70
    32
  0
VERTEX
  5
548B
  8
0
 10
209.0881747649586089
 20
296.6895857003331116
 30
0.0
 70
    32
  0
VERTEX
  5
548C
  8
0
 10
209.1124845551306066
 20
296.5598358180632204
 30
0.0
 70
    32
  0
VERTEX
  5
548D
  8
0
 10
209.1355468124270942
 20
296.4302831005953749
 30
0.0
 70
    32
  0
VERTEX
  5
548E
  8
0
 10
209.1779183902629029
 20
296.1716011047349184
 30
0.0
 70
    32
  0
VERTEX
  5
548F
  8
0
 10
209.2152600401686016
 20
295.9131996904829975
 30
0.0
 70
    32
  0
VERTEX
  5
5490
  8
0
 10
209.2475278550845132
 20
295.6547313585501229
 30
0.0
 70
    32
  0
VERTEX
  5
5491
  8
0
 10
209.2746628203354078
 20
295.3958393029093941
 30
0.0
 70
    32
  0
VERTEX
  5
5492
  8
0
 10
209.2965900239443897
 20
295.1361554439798169
 30
0.0
 70
    32
  0
VERTEX
  5
5493
  8
0
 10
209.3055727314641103
 20
295.0058979604792171
 30
0.0
 70
    32
  0
VERTEX
  5
5494
  8
0
 10
209.3132177220705898
 20
294.875298298845621
 30
0.0
 70
    32
  0
VERTEX
  5
5495
  8
0
 10
209.3244362428067973
 20
294.6128706590160959
 30
0.0
 70
    32
  0
VERTEX
  5
5496
  8
0
 10
209.3301167083961047
 20
294.3484570418482917
 30
0.0
 70
    32
  0
VERTEX
  5
5497
  8
0
 10
209.3308342842861975
 20
294.2153699702278118
 30
0.0
 70
    32
  0
SEQEND
  5
5498
  8
0
  0
POLYLINE
  5
5499
  8
0
 66
     1
 10
0.0
 20
0.0
 30
0.0
 70
     8
  0
VERTEX
  5
549A
  8
0
 10
209.3308342842861975
 20
294.2153699702278118
 30
0.0
 70
    32
  0
VERTEX
  5
549B
  8
0
 10
209.3301167083961047
 20
294.0822828986071045
 30
0.0
 70
    32
  0
VERTEX
  5
549C
  8
0
 10
209.3244362428067973
 20
293.817869281439414
 30
0.0
 70
    32
  0
VERTEX
  5
549D
  8
0
 10
209.3132177220705898
 20
293.5554416416098888
 30
0.0
 70
    32
  0
VERTEX
  5
549E
  8
0
 10
209.3055727314641103
 20
293.4248419799762928
 30
0.0
 70
    32
  0
VERTEX
  5
549F
  8
0
 10
209.2965900239443897
 20
293.294584496475693
 30
0.0
 70
    32
  0
VERTEX
  5
54A0
  8
0
 10
209.2746628203354078
 20
293.0349006375461158
 30
0.0
 70
    32
  0
VERTEX
  5
54A1
  8
0
 10
209.2475278550845132
 20
292.776008581905387
 30
0.0
 70
    32
  0
VERTEX
  5
54A2
  8
0
 10
209.2152600401686016
 20
292.5175402499725124
 30
0.0
 70
    32
  0
VERTEX
  5
54A3
  8
0
 10
209.1779183902629029
 20
292.2591388357205915
 30
0.0
 70
    32
  0
VERTEX
  5
54A4
  8
0
 10
209.1355468124270942
 20
292.0004568398600782
 30
0.0
 70
    32
  0
VERTEX
  5
54A5
  8
0
 10
209.1124845551306066
 20
291.8709041223922895
 30
0.0
 70
    32
  0
VERTEX
  5
54A6
  8
0
 10
209.0881747649586089
 20
291.7411542401223983
 30
0.0
 70
    32
  0
VERTEX
  5
54A7
  8
0
 10
209.0358177971272085
 20
291.4808967757901996
 30
0.0
 70
    32
  0
VERTEX
  5
54A8
  8
0
 10
208.9784779794877068
 20
291.2193543260995057
 30
0.0
 70
    32
  0
VERTEX
  5
54A9
  8
0
 10
208.9161442327045108
 20
290.95619936417188
 30
0.0
 70
    32
  0
VERTEX
  5
54AA
  8
0
 10
208.8487925612618881
 20
290.6911054697865779
 30
0.0
 70
    32
  0
VERTEX
  5
54AB
  8
0
 10
208.7763861970524033
 20
290.4237458856193825
 30
0.0
 70
    32
  0
VERTEX
  5
54AC
  8
0
 10
208.7382725384223932
 20
290.2891139075165938
 30
0.0
 70
    32
  0
VERTEX
  5
54AD
  8
0
 10
208.6988756565679921
 20
290.153792102603802
 30
0.0
 70
    32
  0
VERTEX
  5
54AE
  8
0
 10
208.6161987142675116
 20
289.8809124608350203
 30
0.0
 70
    32
  0
VERTEX
  5
54AF
  8
0
 10
208.5282802936104076
 20
289.6047707529738204
 30
0.0
 70
    32
  0
VERTEX
  5
54B0
  8
0
 10
208.4823285082543123
 20
289.4653699702278118
 30
0.0
 70
    32
  0
SEQEND
  5
54B1
  8
0
  0
POLYLINE
  5
54B2
  8
0
 66
     1
 10
0.0
 20
0.0
 30
0.0
 70
     8
  0
VERTEX
  5
54B3
  8
0
 10
200.1793400603181112
 20
289.4653699702278118
 30
0.0
 70
    32
  0
VERTEX
  5
54B4
  8
0
 10
200.1333882749619875
 20
289.6047707529738204
 30
0.0
 70
    32
  0
VERTEX
  5
54B5
  8
0
 10
200.0454698543049119
 20
289.8809124608350203
 30
0.0
 70
    32
  0
VERTEX
  5
54B6
  8
0
 10
199.962792912004403
 20
290.153792102603802
 30
0.0
 70
    32
  0
VERTEX
  5
54B7
  8
0
 10
199.9233960301500019
 20
290.2891139075165938
 30
0.0
 70
    32
  0
VERTEX
  5
54B8
  8
0
 10
199.8852823715199918
 20
290.4237458856193825
 30
0.0
 70
    32
  0
VERTEX
  5
54B9
  8
0
 10
199.812876007310507
 20
290.6911054697865779
 30
0.0
 70
    32
  0
VERTEX
  5
54BA
  8
0
 10
199.7455243358679127
 20
290.95619936417188
 30
0.0
 70
    32
  0
VERTEX
  5
54BB
  8
0
 10
199.6831905890844894
 20
291.2193543260995057
 30
0.0
 70
    32
  0
VERTEX
  5
54BC
  8
0
 10
199.6258507714451866
 20
291.4808967757901996
 30
0.0
 70
    32
  0
VERTEX
  5
54BD
  8
0
 10
199.5734938036137862
 20
291.7411542401223983
 30
0.0
 70
    32
  0
VERTEX
  5
54BE
  8
0
 10
199.5491840134417032
 20
291.8709041223922895
 30
0.0
 70
    32
  0
VERTEX
  5
54BF
  8
0
 10
199.5261217561451872
 20
292.0004568398600782
 30
0.0
 70
    32
  0
VERTEX
  5
54C0
  8
0
 10
199.4837501783094922
 20
292.2591388357205915
 30
0.0
 70
    32
  0
VERTEX
  5
54C1
  8
0
 10
199.4464085284037935
 20
292.5175402499725124
 30
0.0
 70
    32
  0
VERTEX
  5
54C2
  8
0
 10
199.4141407134879103
 20
292.776008581905387
 30
0.0
 70
    32
  0
VERTEX
  5
54C3
  8
0
 10
199.387005748237101
 20
293.0349006375461158
 30
0.0
 70
    32
  0
VERTEX
  5
54C4
  8
0
 10
199.3650785446278917
 20
293.294584496475693
 30
0.0
 70
    32
  0
VERTEX
  5
54C5
  8
0
 10
199.3560958371081995
 20
293.4248419799762928
 30
0.0
 70
    32
  0
VERTEX
  5
54C6
  8
0
 10
199.3484508465018052
 20
293.5554416416098888
 30
0.0
 70
    32
  0
VERTEX
  5
54C7
  8
0
 10
199.3372323257655978
 20
293.817869281439414
 30
0.0
 70
    32
  0
VERTEX
  5
54C8
  8
0
 10
199.3315518601762903
 20
294.0822828986071045
 30
0.0
 70
    32
  0
VERTEX
  5
54C9
  8
0
 10
199.3308342842861975
 20
294.2153699702278118
 30
0.0
 70
    32
  0
SEQEND
  5
54CA
  8
0
  0
POLYLINE
  5
54CB
  8
0
 66
     1
 10
0.0
 20
0.0
 30
0.0
 70
     8
  0
VERTEX
  5
54CC
  8
0
 10
199.3308342842861975
 20
294.2153699702278118
 30
0.0
 70
    32
  0
VERTEX
  5
54CD
  8
0
 10
199.3315518601762903
 20
294.3484570418482917
 30
0.0
 70
    32
  0
VERTEX
  5
54CE
  8
0
 10
199.3372323257655978
 20
294.6128706590160959
 30
0.0
 70
    32
  0
VERTEX
  5
54CF
  8
0
 10
199.3484508465018052
 20
294.875298298845621
 30
0.0
 70
    32
  0
VERTEX
  5
54D0
  8
0
 10
199.3560958371081995
 20
295.0058979604792171
 30
0.0
 70
    32
  0
VERTEX
  5
54D1
  8
0
 10
199.3650785446278917
 20
295.1361554439798169
 30
0.0
 70
    32
  0
VERTEX
  5
54D2
  8
0
 10
199.3870057482369873
 20
295.3958393029093941
 30
0.0
 70
    32
  0
VERTEX
  5
54D3
  8
0
 10
199.4141407134879103
 20
295.6547313585501229
 30
0.0
 70
    32
  0
VERTEX
  5
54D4
  8
0
 10
199.4464085284037935
 20
295.9131996904829975
 30
0.0
 70
    32
  0
VERTEX
  5
54D5
  8
0
 10
199.4837501783094922
 20
296.1716011047349184
 30
0.0
 70
    32
  0
VERTEX
  5
54D6
  8
0
 10
199.5261217561451872
 20
296.4302831005953749
 30
0.0
 70
    32
  0
VERTEX
  5
54D7
  8
0
 10
199.5491840134417032
 20
296.5598358180632204
 30
0.0
 70
    32
  0
VERTEX
  5
54D8
  8
0
 10
199.5734938036137862
 20
296.6895857003331116
 30
0.0
 70
    32
  0
VERTEX
  5
54D9
  8
0
 10
199.6258507714451866
 20
296.9498431646653103
 30
0.0
 70
    32
  0
VERTEX
  5
54DA
  8
0
 10
199.6831905890844894
 20
297.2113856143560042
 30
0.0
 70
    32
  0
VERTEX
  5
54DB
  8
0
 10
199.7455243358679127
 20
297.474540576283573
 30
0.0
 70
    32
  0
VERTEX
  5
54DC
  8
0
 10
199.812876007310507
 20
297.7396344706689888
 30
0.0
 70
    32
  0
VERTEX
  5
54DD
  8
0
 10
199.8852823715199918
 20
298.0069940548361274
 30
0.0
 70
    32
  0
VERTEX
  5
54DE
  8
0
 10
199.9233960301500019
 20
298.1416260329389161
 30
0.0
 70
    32
  0
VERTEX
  5
54DF
  8
0
 10
199.962792912004403
 20
298.2769478378517078
 30
0.0
 70
    32
  0
VERTEX
  5
54E0
  8
0
 10
200.0454698543049119
 20
298.5498274796204896
 30
0.0
 70
    32
  0
VERTEX
  5
54E1
  8
0
 10
200.1333882749619875
 20
298.8259691874816895
 30
0.0
 70
    32
  0
VERTEX
  5
54E2
  8
0
 10
200.1793400603181112
 20
298.9653699702278118
 30
0.0
 70
    32
  0
SEQEND
  5
54E3
  8
0
  0
LINE
  5
54E4
  8
0
 10
199.3308342842861975
 20
289.4653699702278118
 30
0.0
 11
209.3308342842861975
 21
289.4653699702278118
 31
0.0
  0
LINE
  5
54E5
  8
0
 10
209.3308342842861975
 20
308.4653699702278118
 30
0.0
 11
199.3308342842861975
 21
308.4653699702278118
 31
0.0
  0
POLYLINE
  5
54E6
  8
0
 66
     1
 10
0.0
 20
0.0
 30
0.0
 70
     8
  0
VERTEX
  5
54E7
  8
0
 10
199.3308342842861975
 20
303.7153699702276981
 30
0.0
 70
    32
  0
VERTEX
  5
54E8
  8
0
 10
199.3315518601762903
 20
303.8484570418482917
 30
0.0
 70
    32
  0
VERTEX
  5
54E9
  8
0
 10
199.3372323257655978
 20
304.1128706590160959
 30
0.0
 70
    32
  0
VERTEX
  5
54EA
  8
0
 10
199.3484508465018052
 20
304.3752982988455074
 30
0.0
 70
    32
  0
VERTEX
  5
54EB
  8
0
 10
199.3560958371081995
 20
304.5058979604792171
 30
0.0
 70
    32
  0
VERTEX
  5
54EC
  8
0
 10
199.3650785446278917
 20
304.6361554439798169
 30
0.0
 70
    32
  0
VERTEX
  5
54ED
  8
0
 10
199.387005748237101
 20
304.8958393029092804
 30
0.0
 70
    32
  0
VERTEX
  5
54EE
  8
0
 10
199.4141407134879103
 20
305.1547313585501229
 30
0.0
 70
    32
  0
VERTEX
  5
54EF
  8
0
 10
199.4464085284037935
 20
305.4131996904829975
 30
0.0
 70
    32
  0
VERTEX
  5
54F0
  8
0
 10
199.4837501783094922
 20
305.6716011047349184
 30
0.0
 70
    32
  0
VERTEX
  5
54F1
  8
0
 10
199.5261217561451872
 20
305.930283100595318
 30
0.0
 70
    32
  0
VERTEX
  5
54F2
  8
0
 10
199.5491840134417032
 20
306.0598358180631067
 30
0.0
 70
    32
  0
VERTEX
  5
54F3
  8
0
 10
199.5734938036137862
 20
306.1895857003331116
 30
0.0
 70
    32
  0
VERTEX
  5
54F4
  8
0
 10
199.6258507714451866
 20
306.4498431646653103
 30
0.0
 70
    32
  0
VERTEX
  5
54F5
  8
0
 10
199.6831905890844894
 20
306.7113856143560042
 30
0.0
 70
    32
  0
VERTEX
  5
54F6
  8
0
 10
199.7455243358679127
 20
306.974540576283573
 30
0.0
 70
    32
  0
VERTEX
  5
54F7
  8
0
 10
199.812876007310507
 20
307.2396344706688751
 30
0.0
 70
    32
  0
VERTEX
  5
54F8
  8
0
 10
199.8852823715199918
 20
307.5069940548361274
 30
0.0
 70
    32
  0
VERTEX
  5
54F9
  8
0
 10
199.9233960301500019
 20
307.6416260329388024
 30
0.0
 70
    32
  0
VERTEX
  5
54FA
  8
0
 10
199.962792912004403
 20
307.7769478378518215
 30
0.0
 70
    32
  0
VERTEX
  5
54FB
  8
0
 10
200.0454698543049119
 20
308.0498274796206033
 30
0.0
 70
    32
  0
VERTEX
  5
54FC
  8
0
 10
200.1333882749619875
 20
308.3259691874816895
 30
0.0
 70
    32
  0
VERTEX
  5
54FD
  8
0
 10
200.1793400603181112
 20
308.4653699702278118
 30
0.0
 70
    32
  0
SEQEND
  5
54FE
  8
0
  0
POLYLINE
  5
54FF
  8
0
 66
     1
 10
0.0
 20
0.0
 30
0.0
 70
     8
  0
VERTEX
  5
5500
  8
0
 10
208.4823285082543123
 20
308.4653699702278118
 30
0.0
 70
    32
  0
VERTEX
  5
5501
  8
0
 10
208.5282802936104076
 20
308.3259691874816895
 30
0.0
 70
    32
  0
VERTEX
  5
5502
  8
0
 10
208.6161987142675116
 20
308.0498274796206033
 30
0.0
 70
    32
  0
VERTEX
  5
5503
  8
0
 10
208.6988756565679921
 20
307.7769478378517078
 30
0.0
 70
    32
  0
VERTEX
  5
5504
  8
0
 10
208.7382725384223932
 20
307.6416260329388024
 30
0.0
 70
    32
  0
VERTEX
  5
5505
  8
0
 10
208.7763861970524033
 20
307.5069940548361274
 30
0.0
 70
    32
  0
VERTEX
  5
5506
  8
0
 10
208.8487925612618881
 20
307.2396344706688751
 30
0.0
 70
    32
  0
VERTEX
  5
5507
  8
0
 10
208.9161442327045108
 20
306.974540576283573
 30
0.0
 70
    32
  0
VERTEX
  5
5508
  8
0
 10
208.9784779794877068
 20
306.7113856143560042
 30
0.0
 70
    32
  0
VERTEX
  5
5509
  8
0
 10
209.0358177971272085
 20
306.4498431646653103
 30
0.0
 70
    32
  0
VERTEX
  5
550A
  8
0
 10
209.0881747649586089
 20
306.1895857003331116
 30
0.0
 70
    32
  0
VERTEX
  5
550B
  8
0
 10
209.1124845551306066
 20
306.0598358180631067
 30
0.0
 70
    32
  0
VERTEX
  5
550C
  8
0
 10
209.1355468124270942
 20
305.930283100595318
 30
0.0
 70
    32
  0
VERTEX
  5
550D
  8
0
 10
209.1779183902629029
 20
305.6716011047349184
 30
0.0
 70
    32
  0
VERTEX
  5
550E
  8
0
 10
209.2152600401686016
 20
305.4131996904828839
 30
0.0
 70
    32
  0
VERTEX
  5
550F
  8
0
 10
209.2475278550845132
 20
305.1547313585501229
 30
0.0
 70
    32
  0
VERTEX
  5
5510
  8
0
 10
209.2746628203354078
 20
304.8958393029092804
 30
0.0
 70
    32
  0
VERTEX
  5
5511
  8
0
 10
209.2965900239443897
 20
304.6361554439798169
 30
0.0
 70
    32
  0
VERTEX
  5
5512
  8
0
 10
209.3055727314641103
 20
304.5058979604792171
 30
0.0
 70
    32
  0
VERTEX
  5
5513
  8
0
 10
209.3132177220705898
 20
304.3752982988455074
 30
0.0
 70
    32
  0
VERTEX
  5
5514
  8
0
 10
209.3244362428067973
 20
304.1128706590160959
 30
0.0
 70
    32
  0
VERTEX
  5
5515
  8
0
 10
209.3301167083961047
 20
303.8484570418482917
 30
0.0
 70
    32
  0
VERTEX
  5
5516
  8
0
 10
209.3308342842861975
 20
303.7153699702276981
 30
0.0
 70
    32
  0
SEQEND
  5
5517
  8
0
  0
POLYLINE
  5
5518
  8
0
 66
     1
 10
0.0
 20
0.0
 30
0.0
 70
     8
  0
VERTEX
  5
5519
  8
0
 10
209.3308342842861975
 20
303.7153699702276981
 30
0.0
 70
    32
  0
VERTEX
  5
551A
  8
0
 10
209.3301167083961047
 20
303.5822828986072182
 30
0.0
 70
    32
  0
VERTEX
  5
551B
  8
0
 10
209.3244362428067973
 20
303.317869281439414
 30
0.0
 70
    32
  0
VERTEX
  5
551C
  8
0
 10
209.3132177220705898
 20
303.0554416416098888
 30
0.0
 70
    32
  0
VERTEX
  5
551D
  8
0
 10
209.3055727314641103
 20
302.9248419799762928
 30
0.0
 70
    32
  0
VERTEX
  5
551E
  8
0
 10
209.2965900239443897
 20
302.794584496475693
 30
0.0
 70
    32
  0
VERTEX
  5
551F
  8
0
 10
209.2746628203354078
 20
302.5349006375461727
 30
0.0
 70
    32
  0
VERTEX
  5
5520
  8
0
 10
209.2475278550845132
 20
302.276008581905387
 30
0.0
 70
    32
  0
VERTEX
  5
5521
  8
0
 10
209.2152600401686016
 20
302.0175402499725124
 30
0.0
 70
    32
  0
VERTEX
  5
5522
  8
0
 10
209.1779183902629029
 20
301.7591388357207052
 30
0.0
 70
    32
  0
VERTEX
  5
5523
  8
0
 10
209.1355468124270942
 20
301.5004568398600782
 30
0.0
 70
    32
  0
VERTEX
  5
5524
  8
0
 10
209.1124845551306066
 20
301.3709041223922895
 30
0.0
 70
    32
  0
VERTEX
  5
5525
  8
0
 10
209.0881747649586089
 20
301.2411542401223983
 30
0.0
 70
    32
  0
VERTEX
  5
5526
  8
0
 10
209.0358177971272085
 20
300.9808967757901996
 30
0.0
 70
    32
  0
VERTEX
  5
5527
  8
0
 10
208.9784779794877068
 20
300.7193543260995057
 30
0.0
 70
    32
  0
VERTEX
  5
5528
  8
0
 10
208.9161442327045108
 20
300.45619936417188
 30
0.0
 70
    32
  0
VERTEX
  5
5529
  8
0
 10
208.8487925612618881
 20
300.1911054697865779
 30
0.0
 70
    32
  0
VERTEX
  5
552A
  8
0
 10
208.7763861970524033
 20
299.9237458856193825
 30
0.0
 70
    32
  0
VERTEX
  5
552B
  8
0
 10
208.7382725384223932
 20
299.7891139075167075
 30
0.0
 70
    32
  0
VERTEX
  5
552C
  8
0
 10
208.6988756565679921
 20
299.653792102603802
 30
0.0
 70
    32
  0
VERTEX
  5
552D
  8
0
 10
208.6161987142675116
 20
299.3809124608350203
 30
0.0
 70
    32
  0
VERTEX
  5
552E
  8
0
 10
208.5282802936104076
 20
299.1047707529738204
 30
0.0
 70
    32
  0
VERTEX
  5
552F
  8
0
 10
208.4823285082543123
 20
298.9653699702278118
 30
0.0
 70
    32
  0
SEQEND
  5
5530
  8
0
  0
LINE
  5
5531
  8
0
 10
208.4823285082543123
 20
298.9653699702278118
 30
0.0
 11
200.1793400603181112
 21
298.9653699702278118
 31
0.0
  0
POLYLINE
  5
5532
  8
0
 66
     1
 10
0.0
 20
0.0
 30
0.0
 70
     8
  0
VERTEX
  5
5533
  8
0
 10
200.1793400603181112
 20
298.9653699702278118
 30
0.0
 70
    32
  0
VERTEX
  5
5534
  8
0
 10
200.1333882749619875
 20
299.1047707529738204
 30
0.0
 70
    32
  0
VERTEX
  5
5535
  8
0
 10
200.0454698543049119
 20
299.3809124608350203
 30
0.0
 70
    32
  0
VERTEX
  5
5536
  8
0
 10
199.962792912004403
 20
299.653792102603802
 30
0.0
 70
    32
  0
VERTEX
  5
5537
  8
0
 10
199.9233960301500019
 20
299.7891139075165938
 30
0.0
 70
    32
  0
VERTEX
  5
5538
  8
0
 10
199.8852823715199918
 20
299.9237458856193825
 30
0.0
 70
    32
  0
VERTEX
  5
5539
  8
0
 10
199.812876007310507
 20
300.1911054697865779
 30
0.0
 70
    32
  0
VERTEX
  5
553A
  8
0
 10
199.7455243358679127
 20
300.45619936417188
 30
0.0
 70
    32
  0
VERTEX
  5
553B
  8
0
 10
199.6831905890844894
 20
300.7193543260995057
 30
0.0
 70
    32
  0
VERTEX
  5
553C
  8
0
 10
199.6258507714451866
 20
300.9808967757901996
 30
0.0
 70
    32
  0
VERTEX
  5
553D
  8
0
 10
199.5734938036137862
 20
301.2411542401223983
 30
0.0
 70
    32
  0
VERTEX
  5
553E
  8
0
 10
199.5491840134417032
 20
301.3709041223922895
 30
0.0
 70
    32
  0
VERTEX
  5
553F
  8
0
 10
199.5261217561451872
 20
301.5004568398600782
 30
0.0
 70
    32
  0
VERTEX
  5
5540
  8
0
 10
199.4837501783094922
 20
301.7591388357207052
 30
0.0
 70
    32
  0
VERTEX
  5
5541
  8
0
 10
199.4464085284037935
 20
302.0175402499725124
 30
0.0
 70
    32
  0
VERTEX
  5
5542
  8
0
 10
199.4141407134879103
 20
302.276008581905387
 30
0.0
 70
    32
  0
VERTEX
  5
5543
  8
0
 10
199.3870057482369873
 20
302.5349006375461158
 30
0.0
 70
    32
  0
VERTEX
  5
5544
  8
0
 10
199.3650785446278917
 20
302.794584496475693
 30
0.0
 70
    32
  0
VERTEX
  5
5545
  8
0
 10
199.3560958371081995
 20
302.9248419799762928
 30
0.0
 70
    32
  0
VERTEX
  5
5546
  8
0
 10
199.3484508465018052
 20
303.0554416416098888
 30
0.0
 70
    32
  0
VERTEX
  5
5547
  8
0
 10
199.3372323257655978
 20
303.317869281439414
 30
0.0
 70
    32
  0
VERTEX
  5
5548
  8
0
 10
199.3315518601762903
 20
303.5822828986072182
 30
0.0
 70
    32
  0
VERTEX
  5
5549
  8
0
 10
199.3308342842861975
 20
303.7153699702276981
 30
0.0
 70
    32
  0
SEQEND
  5
554A
  8
0
  0
POLYLINE
  5
5673
  8
0
 66
     1
 10
0.0
 20
0.0
 30
0.0
 70
     8
  0
VERTEX
  5
5674
  8
0
 10
162.901756305807595
 20
308.9653699702278118
 30
0.0
 70
    32
  0
VERTEX
  5
5675
  8
0
 10
162.902387382569998
 20
308.9643286592661866
 30
0.0
 70
    32
  0
VERTEX
  5
5676
  8
0
 10
162.9074741147254883
 20
308.9559327671400979
 30
0.0
 70
    32
  0
VERTEX
  5
5677
  8
0
 10
162.9177293378891989
 20
308.9389924354637742
 30
0.0
 70
    32
  0
VERTEX
  5
5678
  8
0
 10
162.9248138262933878
 20
308.9272790981619892
 30
0.0
 70
    32
  0
VERTEX
  5
5679
  8
0
 10
162.9332089728497976
 20
308.9133874238651742
 30
0.0
 70
    32
  0
VERTEX
  5
567A
  8
0
 10
162.9539377765551933
 20
308.8790339937471003
 30
0.0
 70
    32
  0
VERTEX
  5
567B
  8
0
 10
162.9799096980042066
 20
308.8358839391265178
 30
0.0
 70
    32
  0
VERTEX
  5
567C
  8
0
 10
163.0110890508402974
 20
308.7839224634957986
 30
0.0
 70
    32
  0
VERTEX
  5
567D
  8
0
 10
163.0474123676497129
 20
308.7231650924653081
 30
0.0
 70
    32
  0
VERTEX
  5
567E
  8
0
 10
163.088788880410192
 20
308.6536570335882175
 30
0.0
 70
    32
  0
VERTEX
  5
567F
  8
0
 10
163.1113358692632005
 20
308.6156444740635152
 30
0.0
 70
    32
  0
VERTEX
  5
5680
  8
0
 10
163.1350991285117118
 20
308.575475886588606
 30
0.0
 70
    32
  0
VERTEX
  5
5681
  8
0
 10
163.186195459937494
 20
308.4887314327639274
 30
0.0
 70
    32
  0
VERTEX
  5
5682
  8
0
 10
163.2419034966929985
 20
308.3935640079134259
 30
0.0
 70
    32
  0
VERTEX
  5
5683
  8
0
 10
163.302024162768106
 20
308.2901420895677802
 30
0.0
 70
    32
  0
VERTEX
  5
5684
  8
0
 10
163.366336226206414
 20
308.1786591293325728
 30
0.0
 70
    32
  0
VERTEX
  5
5685
  8
0
 10
163.4346208978579966
 20
308.0592917389586205
 30
0.0
 70
    32
  0
VERTEX
  5
5686
  8
0
 10
163.4701808082946002
 20
307.9967097286998978
 30
0.0
 70
    32
  0
VERTEX
  5
5687
  8
0
 10
163.5066413914047132
 20
307.9322355397607112
 30
0.0
 70
    32
  0
VERTEX
  5
5688
  8
0
 10
163.5821237981222112
 20
307.7977406983061996
 30
0.0
 70
    32
  0
VERTEX
  5
5689
  8
0
 10
163.6607749451389964
 20
307.6560830708265257
 30
0.0
 70
    32
  0
VERTEX
  5
568A
  8
0
 10
163.7011925026070003
 20
307.5826609446800148
 30
0.0
 70
    32
  0
VERTEX
  5
568B
  8
0
 10
163.7422848162520097
 20
307.5075621556217129
 30
0.0
 70
    32
  0
VERTEX
  5
568C
  8
0
 10
163.8263292202557011
 20
307.3524987338358869
 30
0.0
 70
    32
  0
VERTEX
  5
568D
  8
0
 10
163.9125726473488953
 20
307.1912322597062257
 30
0.0
 70
    32
  0
VERTEX
  5
568E
  8
0
 10
163.9564116517425134
 20
307.1083836312049016
 30
0.0
 70
    32
  0
VERTEX
  5
568F
  8
0
 10
164.0006703362971052
 20
307.0241198137366041
 30
0.0
 70
    32
  0
VERTEX
  5
5690
  8
0
 10
164.0902671755085862
 20
306.85154137257922
 30
0.0
 70
    32
  0
VERTEX
  5
5691
  8
0
 10
164.1809986409099054
 20
306.6739018598643156
 30
0.0
 70
    32
  0
VERTEX
  5
5692
  8
0
 10
164.2724936919458969
 20
306.4916298142138089
 30
0.0
 70
    32
  0
VERTEX
  5
5693
  8
0
 10
164.3643778921189949
 20
306.3051757957567816
 30
0.0
 70
    32
  0
VERTEX
  5
5694
  8
0
 10
164.4562766751265031
 20
306.115010617918017
 30
0.0
 70
    32
  0
VERTEX
  5
5695
  8
0
 10
164.5021237686972881
 20
306.0186705976587973
 30
0.0
 70
    32
  0
VERTEX
  5
5696
  8
0
 10
164.5481722858071976
 20
305.9208683879699038
 30
0.0
 70
    32
  0
VERTEX
  5
5697
  8
0
 10
164.6412069945137944
 20
305.7199103669638021
 30
0.0
 70
    32
  0
VERTEX
  5
5698
  8
0
 10
164.7352001192186037
 20
305.511962242118102
 30
0.0
 70
    32
  0
VERTEX
  5
5699
  8
0
 10
164.8297865481958127
 20
305.2972182483180745
 30
0.0
 70
    32
  0
VERTEX
  5
569A
  8
0
 10
164.9245865659262051
 20
305.0758890707083992
 30
0.0
 70
    32
  0
VERTEX
  5
569B
  8
0
 10
165.019208625707904
 20
304.848199032026514
 30
0.0
 70
    32
  0
VERTEX
  5
569C
  8
0
 10
165.0663280189976092
 20
304.7320418150853243
 30
0.0
 70
    32
  0
VERTEX
  5
569D
  8
0
 10
165.1132521604947101
 20
304.6143832212854932
 30
0.0
 70
    32
  0
VERTEX
  5
569E
  8
0
 10
165.2063103048868982
 20
304.374684821949586
 30
0.0
 70
    32
  0
VERTEX
  5
569F
  8
0
 10
165.2979707174982877
 20
304.1293575690705779
 30
0.0
 70
    32
  0
VERTEX
  5
56A0
  8
0
 10
165.3878158490244914
 20
303.8786710119171062
 30
0.0
 70
    32
  0
VERTEX
  5
56A1
  8
0
 10
165.4754259539890882
 20
303.6229097787515911
 30
0.0
 70
    32
  0
VERTEX
  5
56A2
  8
0
 10
165.5603826620767904
 20
303.3623717152091217
 30
0.0
 70
    32
  0
VERTEX
  5
56A3
  8
0
 10
165.6017365392281988
 20
303.2304075501305078
 30
0.0
 70
    32
  0
VERTEX
  5
56A4
  8
0
 10
165.6422726928313978
 20
303.0973657707779125
 30
0.0
 70
    32
  0
VERTEX
  5
56A5
  8
0
 10
165.7206917263328023
 20
302.8282093440257086
 30
0.0
 70
    32
  0
VERTEX
  5
56A6
  8
0
 10
165.7952683757087868
 20
302.5551490430852937
 30
0.0
 70
    32
  0
VERTEX
  5
56A7
  8
0
 10
165.8656350588084081
 20
302.2784619420067997
 30
0.0
 70
    32
  0
VERTEX
  5
56A8
  8
0
 10
165.9314201407358098
 20
301.9985129605997258
 30
0.0
 70
    32
  0
VERTEX
  5
56A9
  8
0
 10
165.9922730931284036
 20
301.715686321327496
 30
0.0
 70
    32
  0
VERTEX
  5
56AA
  8
0
 10
166.0207475732493947
 20
301.5733183402691111
 30
0.0
 70
    32
  0
VERTEX
  5
56AB
  8
0
 10
166.047869846751496
 20
301.4303818487722992
 30
0.0
 70
    32
  0
VERTEX
  5
56AC
  8
0
 10
166.0979178940125109
 20
301.1430100890618746
 30
0.0
 70
    32
  0
VERTEX
  5
56AD
  8
0
 10
166.1421608841664863
 20
300.8539860629279019
 30
0.0
 70
    32
  0
VERTEX
  5
56AE
  8
0
 10
166.1803820372848008
 20
300.5637246080843283
 30
0.0
 70
    32
  0
VERTEX
  5
56AF
  8
0
 10
166.2124046553452956
 20
300.2726560749327973
 30
0.0
 70
    32
  0
VERTEX
  5
56B0
  8
0
 10
166.2380948366572966
 20
299.9812357460037902
 30
0.0
 70
    32
  0
VERTEX
  5
56B1
  8
0
 10
166.2485362586278086
 20
299.8355409933794817
 30
0.0
 70
    32
  0
VERTEX
  5
56B2
  8
0
 10
166.2573659940123889
 20
299.6899365087998035
 30
0.0
 70
    32
  0
VERTEX
  5
56B3
  8
0
 10
166.2701820324350876
 20
299.3992396477784155
 30
0.0
 70
    32
  0
VERTEX
  5
56B4
  8
0
 10
166.276558804145111
 20
299.1096248060180756
 30
0.0
 70
    32
  0
VERTEX
  5
56B5
  8
0
 10
166.2773515574008911
 20
298.9653699702278118
 30
0.0
 70
    32
  0
VERTEX
  5
56B6
  8
0
 10
166.276558804145111
 20
298.8211151344373775
 30
0.0
 70
    32
  0
VERTEX
  5
56B7
  8
0
 10
166.2701820324350876
 20
298.5315002926770944
 30
0.0
 70
    32
  0
VERTEX
  5
56B8
  8
0
 10
166.2573659940123889
 20
298.2408034316557064
 30
0.0
 70
    32
  0
VERTEX
  5
56B9
  8
0
 10
166.2485362586278086
 20
298.0951989470760282
 30
0.0
 70
    32
  0
VERTEX
  5
56BA
  8
0
 10
166.2380948366572966
 20
297.9495041944517197
 30
0.0
 70
    32
  0
VERTEX
  5
56BB
  8
0
 10
166.2124046553452956
 20
297.6580838655227126
 30
0.0
 70
    32
  0
VERTEX
  5
56BC
  8
0
 10
166.1803820372848008
 20
297.3670153323711247
 30
0.0
 70
    32
  0
VERTEX
  5
56BD
  8
0
 10
166.1421608841664863
 20
297.0767538775274943
 30
0.0
 70
    32
  0
VERTEX
  5
56BE
  8
0
 10
166.0979178940125109
 20
296.7877298513935784
 30
0.0
 70
    32
  0
VERTEX
  5
56BF
  8
0
 10
166.047869846751496
 20
296.5003580916832107
 30
0.0
 70
    32
  0
VERTEX
  5
56C0
  8
0
 10
166.0207475732493947
 20
296.3574216001863988
 30
0.0
 70
    32
  0
VERTEX
  5
56C1
  8
0
 10
165.9922730931284036
 20
296.2150536191280139
 30
0.0
 70
    32
  0
VERTEX
  5
56C2
  8
0
 10
165.9314201407358098
 20
295.9322269798557841
 30
0.0
 70
    32
  0
VERTEX
  5
56C3
  8
0
 10
165.8656350588084081
 20
295.6522779984487102
 30
0.0
 70
    32
  0
VERTEX
  5
56C4
  8
0
 10
165.7952683757087868
 20
295.3755908973702162
 30
0.0
 70
    32
  0
VERTEX
  5
56C5
  8
0
 10
165.7206917263328023
 20
295.102530596429915
 30
0.0
 70
    32
  0
VERTEX
  5
56C6
  8
0
 10
165.6422726928313978
 20
294.8333741696777111
 30
0.0
 70
    32
  0
VERTEX
  5
56C7
  8
0
 10
165.6017365392281988
 20
294.7003323903248884
 30
0.0
 70
    32
  0
VERTEX
  5
56C8
  8
0
 10
165.5603826620767904
 20
294.5683682252463882
 30
0.0
 70
    32
  0
VERTEX
  5
56C9
  8
0
 10
165.4754259539890882
 20
294.3078301617039187
 30
0.0
 70
    32
  0
VERTEX
  5
56CA
  8
0
 10
165.3878158490244914
 20
294.0520689285384037
 30
0.0
 70
    32
  0
VERTEX
  5
56CB
  8
0
 10
165.2979707174982877
 20
293.8013823713848751
 30
0.0
 70
    32
  0
VERTEX
  5
56CC
  8
0
 10
165.2063103048868982
 20
293.5560551185059239
 30
0.0
 70
    32
  0
VERTEX
  5
56CD
  8
0
 10
165.1132521604947101
 20
293.3163567191700167
 30
0.0
 70
    32
  0
VERTEX
  5
56CE
  8
0
 10
165.0663280189976092
 20
293.1986981253700719
 30
0.0
 70
    32
  0
VERTEX
  5
56CF
  8
0
 10
165.019208625707904
 20
293.0825409084289959
 30
0.0
 70
    32
  0
VERTEX
  5
56D0
  8
0
 10
164.9245865659262051
 20
292.854850869746997
 30
0.0
 70
    32
  0
VERTEX
  5
56D1
  8
0
 10
164.8297865481958127
 20
292.6335216921373785
 30
0.0
 70
    32
  0
VERTEX
  5
56D2
  8
0
 10
164.7352001192186037
 20
292.4187776983375215
 30
0.0
 70
    32
  0
VERTEX
  5
56D3
  8
0
 10
164.6412069945137944
 20
292.2108295734917078
 30
0.0
 70
    32
  0
VERTEX
  5
56D4
  8
0
 10
164.5481722858071976
 20
292.0098715524856061
 30
0.0
 70
    32
  0
VERTEX
  5
56D5
  8
0
 10
164.5021237686972881
 20
291.9120693427967126
 30
0.0
 70
    32
  0
VERTEX
  5
56D6
  8
0
 10
164.4562766751265031
 20
291.8157293225376065
 30
0.0
 70
    32
  0
VERTEX
  5
56D7
  8
0
 10
164.3643778921189949
 20
291.6255641446987283
 30
0.0
 70
    32
  0
VERTEX
  5
56D8
  8
0
 10
164.2724936919458969
 20
291.439110126241701
 30
0.0
 70
    32
  0
VERTEX
  5
56D9
  8
0
 10
164.1809986409099054
 20
291.256838080591308
 30
0.0
 70
    32
  0
VERTEX
  5
56DA
  8
0
 10
164.0902671755085862
 20
291.0791985678762899
 30
0.0
 70
    32
  0
VERTEX
  5
56DB
  8
0
 10
164.0006703362971052
 20
290.9066201267189058
 30
0.0
 70
    32
  0
VERTEX
  5
56DC
  8
0
 10
163.9564116517425134
 20
290.822356309250722
 30
0.0
 70
    32
  0
VERTEX
  5
56DD
  8
0
 10
163.9125726473488953
 20
290.7395076807492842
 30
0.0
 70
    32
  0
VERTEX
  5
56DE
  8
0
 10
163.8263292202557011
 20
290.578241206619623
 30
0.0
 70
    32
  0
VERTEX
  5
56DF
  8
0
 10
163.742284816252095
 20
290.423177784833797
 30
0.0
 70
    32
  0
VERTEX
  5
56E0
  8
0
 10
163.7011925026070003
 20
290.3480789957753814
 30
0.0
 70
    32
  0
VERTEX
  5
56E1
  8
0
 10
163.6607749451389964
 20
290.2746568696289842
 30
0.0
 70
    32
  0
VERTEX
  5
56E2
  8
0
 10
163.5821237981222112
 20
290.1329992421493102
 30
0.0
 70
    32
  0
VERTEX
  5
56E3
  8
0
 10
163.5066413914047132
 20
289.9985044006947987
 30
0.0
 70
    32
  0
VERTEX
  5
56E4
  8
0
 10
163.4701808082946002
 20
289.9340302117556121
 30
0.0
 70
    32
  0
VERTEX
  5
56E5
  8
0
 10
163.4346208978579966
 20
289.8714482014968894
 30
0.0
 70
    32
  0
VERTEX
  5
56E6
  8
0
 10
163.366336226206414
 20
289.7520808111228803
 30
0.0
 70
    32
  0
VERTEX
  5
56E7
  8
0
 10
163.302024162768106
 20
289.6405978508876728
 30
0.0
 70
    32
  0
VERTEX
  5
56E8
  8
0
 10
163.2419034966929985
 20
289.537175932542084
 30
0.0
 70
    32
  0
VERTEX
  5
56E9
  8
0
 10
163.186195459937494
 20
289.4420085076915825
 30
0.0
 70
    32
  0
VERTEX
  5
56EA
  8
0
 10
163.1350991285117118
 20
289.3552640538669039
 30
0.0
 70
    32
  0
VERTEX
  5
56EB
  8
0
 10
163.1113358692632005
 20
289.3150954663919947
 30
0.0
 70
    32
  0
VERTEX
  5
56EC
  8
0
 10
163.088788880410192
 20
289.2770829068672924
 30
0.0
 70
    32
  0
VERTEX
  5
56ED
  8
0
 10
163.0474123676497129
 20
289.2075748479902018
 30
0.0
 70
    32
  0
VERTEX
  5
56EE
  8
0
 10
163.0110890508402974
 20
289.1468174769597113
 30
0.0
 70
    32
  0
VERTEX
  5
56EF
  8
0
 10
162.9799096980042066
 20
289.0948560013289921
 30
0.0
 70
    32
  0
VERTEX
  5
56F0
  8
0
 10
162.9539377765551933
 20
289.0517059467084096
 30
0.0
 70
    32
  0
VERTEX
  5
56F1
  8
0
 10
162.9332089728497976
 20
289.0173525165903925
 30
0.0
 70
    32
  0
VERTEX
  5
56F2
  8
0
 10
162.9248138262933878
 20
289.0034608422935207
 30
0.0
 70
    32
  0
VERTEX
  5
56F3
  8
0
 10
162.9177293378893125
 20
288.9917475049916789
 30
0.0
 70
    32
  0
VERTEX
  5
56F4
  8
0
 10
162.9074741147254883
 20
288.9748071733155257
 30
0.0
 70
    32
  0
VERTEX
  5
56F5
  8
0
 10
162.902387382569998
 20
288.9664112811893233
 30
0.0
 70
    32
  0
VERTEX
  5
56F6
  8
0
 10
162.901756305807595
 20
288.9653699702276981
 30
0.0
 70
    32
  0
SEQEND
  5
56F7
  8
0
  0
LINE
  5
56F8
  8
0
 10
165.9017563058077087
 20
295.8017736656677243
 30
0.0
 11
165.9017563058077087
 21
302.1289662747877856
 31
0.0
  0
LINE
  5
5712
  8
0
 10
179.401756305807595
 20
316.0035892048268238
 30
0.0
 11
179.401756305807595
 21
154.9271507356286861
 31
0.0
  0
POLYLINE
  5
5713
  8
0
 66
     1
 10
0.0
 20
0.0
 30
0.0
 70
     8
  0
VERTEX
  5
5714
  8
0
 10
162.901756305807595
 20
181.9653699702276981
 30
0.0
 70
    32
  0
VERTEX
  5
5715
  8
0
 10
162.902387382569998
 20
181.9643286592661866
 30
0.0
 70
    32
  0
VERTEX
  5
5716
  8
0
 10
162.9074741147254883
 20
181.9559327671400126
 30
0.0
 70
    32
  0
VERTEX
  5
5717
  8
0
 10
162.9177293378891989
 20
181.9389924354638026
 30
0.0
 70
    32
  0
VERTEX
  5
5718
  8
0
 10
162.9248138262933878
 20
181.9272790981619892
 30
0.0
 70
    32
  0
VERTEX
  5
5719
  8
0
 10
162.9332089728497976
 20
181.9133874238652027
 30
0.0
 70
    32
  0
VERTEX
  5
571A
  8
0
 10
162.9539377765551933
 20
181.8790339937471003
 30
0.0
 70
    32
  0
VERTEX
  5
571B
  8
0
 10
162.9799096980042066
 20
181.8358839391264894
 30
0.0
 70
    32
  0
VERTEX
  5
571C
  8
0
 10
163.0110890508402974
 20
181.7839224634957986
 30
0.0
 70
    32
  0
VERTEX
  5
571D
  8
0
 10
163.0474123676497129
 20
181.7231650924653081
 30
0.0
 70
    32
  0
VERTEX
  5
571E
  8
0
 10
163.088788880410192
 20
181.6536570335881891
 30
0.0
 70
    32
  0
VERTEX
  5
571F
  8
0
 10
163.1113358692632005
 20
181.6156444740634868
 30
0.0
 70
    32
  0
VERTEX
  5
5720
  8
0
 10
163.1350991285117118
 20
181.575475886588606
 30
0.0
 70
    32
  0
VERTEX
  5
5721
  8
0
 10
163.186195459937494
 20
181.4887314327638137
 30
0.0
 70
    32
  0
VERTEX
  5
5722
  8
0
 10
163.2419034966929985
 20
181.3935640079133975
 30
0.0
 70
    32
  0
VERTEX
  5
5723
  8
0
 10
163.302024162768106
 20
181.2901420895678086
 30
0.0
 70
    32
  0
VERTEX
  5
5724
  8
0
 10
163.366336226206414
 20
181.1786591293326012
 30
0.0
 70
    32
  0
VERTEX
  5
5725
  8
0
 10
163.4346208978579966
 20
181.0592917389585921
 30
0.0
 70
    32
  0
VERTEX
  5
5726
  8
0
 10
163.4701808082946002
 20
180.9967097286998978
 30
0.0
 70
    32
  0
VERTEX
  5
5727
  8
0
 10
163.5066413914047132
 20
180.9322355397607112
 30
0.0
 70
    32
  0
VERTEX
  5
5728
  8
0
 10
163.5821237981222112
 20
180.7977406983061996
 30
0.0
 70
    32
  0
VERTEX
  5
5729
  8
0
 10
163.6607749451389964
 20
180.6560830708264973
 30
0.0
 70
    32
  0
VERTEX
  5
572A
  8
0
 10
163.7011925026070003
 20
180.5826609446801001
 30
0.0
 70
    32
  0
VERTEX
  5
572B
  8
0
 10
163.7422848162520097
 20
180.5075621556217129
 30
0.0
 70
    32
  0
VERTEX
  5
572C
  8
0
 10
163.8263292202557011
 20
180.3524987338360006
 30
0.0
 70
    32
  0
VERTEX
  5
572D
  8
0
 10
163.9125726473488953
 20
180.1912322597061973
 30
0.0
 70
    32
  0
VERTEX
  5
572E
  8
0
 10
163.9564116517425134
 20
180.1083836312047879
 30
0.0
 70
    32
  0
VERTEX
  5
572F
  8
0
 10
164.0006703362971052
 20
180.0241198137366041
 30
0.0
 70
    32
  0
VERTEX
  5
5730
  8
0
 10
164.0902671755085862
 20
179.8515413725791916
 30
0.0
 70
    32
  0
VERTEX
  5
5731
  8
0
 10
164.1809986409099054
 20
179.6739018598642019
 30
0.0
 70
    32
  0
VERTEX
  5
5732
  8
0
 10
164.2724936919458969
 20
179.4916298142138089
 30
0.0
 70
    32
  0
VERTEX
  5
5733
  8
0
 10
164.3643778921189949
 20
179.3051757957566963
 30
0.0
 70
    32
  0
VERTEX
  5
5734
  8
0
 10
164.4562766751265031
 20
179.1150106179179033
 30
0.0
 70
    32
  0
VERTEX
  5
5735
  8
0
 10
164.5021237686972881
 20
179.0186705976587973
 30
0.0
 70
    32
  0
VERTEX
  5
5736
  8
0
 10
164.5481722858071976
 20
178.9208683879699038
 30
0.0
 70
    32
  0
VERTEX
  5
5737
  8
0
 10
164.6412069945137944
 20
178.7199103669638021
 30
0.0
 70
    32
  0
VERTEX
  5
5738
  8
0
 10
164.7352001192186037
 20
178.511962242118102
 30
0.0
 70
    32
  0
VERTEX
  5
5739
  8
0
 10
164.8297865481958127
 20
178.297218248318103
 30
0.0
 70
    32
  0
VERTEX
  5
573A
  8
0
 10
164.9245865659262051
 20
178.0758890707083992
 30
0.0
 70
    32
  0
VERTEX
  5
573B
  8
0
 10
165.019208625707904
 20
177.8481990320264003
 30
0.0
 70
    32
  0
VERTEX
  5
573C
  8
0
 10
165.0663280189976092
 20
177.7320418150854096
 30
0.0
 70
    32
  0
VERTEX
  5
573D
  8
0
 10
165.1132521604947101
 20
177.6143832212854932
 30
0.0
 70
    32
  0
VERTEX
  5
573E
  8
0
 10
165.2063103048868982
 20
177.374684821949586
 30
0.0
 70
    32
  0
VERTEX
  5
573F
  8
0
 10
165.2979707174982877
 20
177.1293575690706064
 30
0.0
 70
    32
  0
VERTEX
  5
5740
  8
0
 10
165.3878158490244914
 20
176.8786710119171062
 30
0.0
 70
    32
  0
VERTEX
  5
5741
  8
0
 10
165.4754259539890882
 20
176.6229097787515911
 30
0.0
 70
    32
  0
VERTEX
  5
5742
  8
0
 10
165.5603826620767904
 20
176.362371715209008
 30
0.0
 70
    32
  0
VERTEX
  5
5743
  8
0
 10
165.6017365392281988
 20
176.2304075501305078
 30
0.0
 70
    32
  0
VERTEX
  5
5744
  8
0
 10
165.6422726928313978
 20
176.0973657707777988
 30
0.0
 70
    32
  0
VERTEX
  5
5745
  8
0
 10
165.7206917263328023
 20
175.8282093440255949
 30
0.0
 70
    32
  0
VERTEX
  5
5746
  8
0
 10
165.7952683757087868
 20
175.5551490430854074
 30
0.0
 70
    32
  0
VERTEX
  5
5747
  8
0
 10
165.8656350588084081
 20
175.2784619420067997
 30
0.0
 70
    32
  0
VERTEX
  5
5748
  8
0
 10
165.9314201407358098
 20
174.9985129605996974
 30
0.0
 70
    32
  0
VERTEX
  5
5749
  8
0
 10
165.9922730931284036
 20
174.7156863213274107
 30
0.0
 70
    32
  0
VERTEX
  5
574A
  8
0
 10
166.0207475732493947
 20
174.5733183402691111
 30
0.0
 70
    32
  0
VERTEX
  5
574B
  8
0
 10
166.047869846751496
 20
174.4303818487722992
 30
0.0
 70
    32
  0
VERTEX
  5
574C
  8
0
 10
166.0979178940125109
 20
174.1430100890617894
 30
0.0
 70
    32
  0
VERTEX
  5
574D
  8
0
 10
166.1421608841664863
 20
173.8539860629279019
 30
0.0
 70
    32
  0
VERTEX
  5
574E
  8
0
 10
166.1803820372848008
 20
173.5637246080844136
 30
0.0
 70
    32
  0
VERTEX
  5
574F
  8
0
 10
166.2124046553452956
 20
173.2726560749327973
 30
0.0
 70
    32
  0
VERTEX
  5
5750
  8
0
 10
166.2380948366572966
 20
172.9812357460037902
 30
0.0
 70
    32
  0
VERTEX
  5
5751
  8
0
 10
166.2485362586278086
 20
172.8355409933795102
 30
0.0
 70
    32
  0
VERTEX
  5
5752
  8
0
 10
166.2573659940123889
 20
172.6899365087998035
 30
0.0
 70
    32
  0
VERTEX
  5
5753
  8
0
 10
166.2701820324350876
 20
172.3992396477783871
 30
0.0
 70
    32
  0
VERTEX
  5
5754
  8
0
 10
166.276558804145111
 20
172.109624806018104
 30
0.0
 70
    32
  0
VERTEX
  5
5755
  8
0
 10
166.2773515574008911
 20
171.9653699702276981
 30
0.0
 70
    32
  0
VERTEX
  5
5756
  8
0
 10
166.276558804145111
 20
171.8211151344374059
 30
0.0
 70
    32
  0
VERTEX
  5
5757
  8
0
 10
166.2701820324350876
 20
171.5315002926770944
 30
0.0
 70
    32
  0
VERTEX
  5
5758
  8
0
 10
166.2573659940123889
 20
171.2408034316557064
 30
0.0
 70
    32
  0
VERTEX
  5
5759
  8
0
 10
166.2485362586278086
 20
171.0951989470759997
 30
0.0
 70
    32
  0
VERTEX
  5
575A
  8
0
 10
166.2380948366572966
 20
170.9495041944516913
 30
0.0
 70
    32
  0
VERTEX
  5
575B
  8
0
 10
166.2124046553452956
 20
170.6580838655227126
 30
0.0
 70
    32
  0
VERTEX
  5
575C
  8
0
 10
166.1803820372848008
 20
170.3670153323710963
 30
0.0
 70
    32
  0
VERTEX
  5
575D
  8
0
 10
166.1421608841664863
 20
170.076753877527608
 30
0.0
 70
    32
  0
VERTEX
  5
575E
  8
0
 10
166.0979178940125109
 20
169.7877298513936921
 30
0.0
 70
    32
  0
VERTEX
  5
575F
  8
0
 10
166.047869846751496
 20
169.5003580916832107
 30
0.0
 70
    32
  0
VERTEX
  5
5760
  8
0
 10
166.0207475732493947
 20
169.3574216001863988
 30
0.0
 70
    32
  0
VERTEX
  5
5761
  8
0
 10
165.9922730931284036
 20
169.2150536191280139
 30
0.0
 70
    32
  0
VERTEX
  5
5762
  8
0
 10
165.9314201407358098
 20
168.9322269798558125
 30
0.0
 70
    32
  0
VERTEX
  5
5763
  8
0
 10
165.8656350588084081
 20
168.6522779984487102
 30
0.0
 70
    32
  0
VERTEX
  5
5764
  8
0
 10
165.7952683757087868
 20
168.3755908973701025
 30
0.0
 70
    32
  0
VERTEX
  5
5765
  8
0
 10
165.7206917263328023
 20
168.1025305964298013
 30
0.0
 70
    32
  0
VERTEX
  5
5766
  8
0
 10
165.6422726928313978
 20
167.8333741696777111
 30
0.0
 70
    32
  0
VERTEX
  5
5767
  8
0
 10
165.6017365392281988
 20
167.7003323903250021
 30
0.0
 70
    32
  0
VERTEX
  5
5768
  8
0
 10
165.5603826620767904
 20
167.5683682252463882
 30
0.0
 70
    32
  0
VERTEX
  5
5769
  8
0
 10
165.4754259539890882
 20
167.3078301617038903
 30
0.0
 70
    32
  0
VERTEX
  5
576A
  8
0
 10
165.3878158490244914
 20
167.0520689285384037
 30
0.0
 70
    32
  0
VERTEX
  5
576B
  8
0
 10
165.2979707174982877
 20
166.8013823713849035
 30
0.0
 70
    32
  0
VERTEX
  5
576C
  8
0
 10
165.2063103048868982
 20
166.5560551185058102
 30
0.0
 70
    32
  0
VERTEX
  5
576D
  8
0
 10
165.1132521604947101
 20
166.3163567191699883
 30
0.0
 70
    32
  0
VERTEX
  5
576E
  8
0
 10
165.0663280189976092
 20
166.198698125370214
 30
0.0
 70
    32
  0
VERTEX
  5
576F
  8
0
 10
165.019208625707904
 20
166.0825409084289959
 30
0.0
 70
    32
  0
VERTEX
  5
5770
  8
0
 10
164.9245865659262051
 20
165.8548508697471107
 30
0.0
 70
    32
  0
VERTEX
  5
5771
  8
0
 10
164.8297865481958127
 20
165.6335216921374069
 30
0.0
 70
    32
  0
VERTEX
  5
5772
  8
0
 10
164.7352001192186037
 20
165.4187776983374079
 30
0.0
 70
    32
  0
VERTEX
  5
5773
  8
0
 10
164.6412069945137944
 20
165.2108295734917078
 30
0.0
 70
    32
  0
VERTEX
  5
5774
  8
0
 10
164.5481722858071976
 20
165.0098715524856061
 30
0.0
 70
    32
  0
VERTEX
  5
5775
  8
0
 10
164.5021237686972881
 20
164.9120693427967126
 30
0.0
 70
    32
  0
VERTEX
  5
5776
  8
0
 10
164.4562766751265031
 20
164.8157293225374929
 30
0.0
 70
    32
  0
VERTEX
  5
5777
  8
0
 10
164.3643778921189949
 20
164.6255641446986999
 30
0.0
 70
    32
  0
VERTEX
  5
5778
  8
0
 10
164.2724936919458969
 20
164.439110126241701
 30
0.0
 70
    32
  0
VERTEX
  5
5779
  8
0
 10
164.1809986409099054
 20
164.256838080591308
 30
0.0
 70
    32
  0
VERTEX
  5
577A
  8
0
 10
164.0902671755085862
 20
164.0791985678762899
 30
0.0
 70
    32
  0
VERTEX
  5
577B
  8
0
 10
164.0006703362971052
 20
163.9066201267189058
 30
0.0
 70
    32
  0
VERTEX
  5
577C
  8
0
 10
163.9564116517425134
 20
163.8223563092506083
 30
0.0
 70
    32
  0
VERTEX
  5
577D
  8
0
 10
163.9125726473488953
 20
163.7395076807493126
 30
0.0
 70
    32
  0
VERTEX
  5
577E
  8
0
 10
163.8263292202557011
 20
163.5782412066195093
 30
0.0
 70
    32
  0
VERTEX
  5
577F
  8
0
 10
163.742284816252095
 20
163.423177784833797
 30
0.0
 70
    32
  0
VERTEX
  5
5780
  8
0
 10
163.7011925026070003
 20
163.3480789957754951
 30
0.0
 70
    32
  0
VERTEX
  5
5781
  8
0
 10
163.6607749451389964
 20
163.2746568696290126
 30
0.0
 70
    32
  0
VERTEX
  5
5782
  8
0
 10
163.5821237981222112
 20
163.1329992421493102
 30
0.0
 70
    32
  0
VERTEX
  5
5783
  8
0
 10
163.5066413914047132
 20
162.9985044006947987
 30
0.0
 70
    32
  0
VERTEX
  5
5784
  8
0
 10
163.4701808082946002
 20
162.9340302117556121
 30
0.0
 70
    32
  0
VERTEX
  5
5785
  8
0
 10
163.4346208978579966
 20
162.8714482014968894
 30
0.0
 70
    32
  0
VERTEX
  5
5786
  8
0
 10
163.366336226206414
 20
162.7520808111229087
 30
0.0
 70
    32
  0
VERTEX
  5
5787
  8
0
 10
163.302024162768106
 20
162.6405978508877013
 30
0.0
 70
    32
  0
VERTEX
  5
5788
  8
0
 10
163.2419034966929985
 20
162.5371759325421124
 30
0.0
 70
    32
  0
VERTEX
  5
5789
  8
0
 10
163.186195459937494
 20
162.4420085076916109
 30
0.0
 70
    32
  0
VERTEX
  5
578A
  8
0
 10
163.1350991285117118
 20
162.3552640538669039
 30
0.0
 70
    32
  0
VERTEX
  5
578B
  8
0
 10
163.1113358692632005
 20
162.3150954663919947
 30
0.0
 70
    32
  0
VERTEX
  5
578C
  8
0
 10
163.088788880410192
 20
162.2770829068672924
 30
0.0
 70
    32
  0
VERTEX
  5
578D
  8
0
 10
163.0474123676497129
 20
162.2075748479902018
 30
0.0
 70
    32
  0
VERTEX
  5
578E
  8
0
 10
163.0110890508402974
 20
162.1468174769595976
 30
0.0
 70
    32
  0
VERTEX
  5
578F
  8
0
 10
162.9799096980042066
 20
162.0948560013289921
 30
0.0
 70
    32
  0
VERTEX
  5
5790
  8
0
 10
162.9539377765551933
 20
162.0517059467084096
 30
0.0
 70
    32
  0
VERTEX
  5
5791
  8
0
 10
162.9332089728497976
 20
162.0173525165903072
 30
0.0
 70
    32
  0
VERTEX
  5
5792
  8
0
 10
162.9248138262933878
 20
162.003460842293407
 30
0.0
 70
    32
  0
VERTEX
  5
5793
  8
0
 10
162.9177293378893125
 20
161.9917475049917073
 30
0.0
 70
    32
  0
VERTEX
  5
5794
  8
0
 10
162.9074741147254883
 20
161.974807173315412
 30
0.0
 70
    32
  0
VERTEX
  5
5795
  8
0
 10
162.902387382569998
 20
161.9664112811892949
 30
0.0
 70
    32
  0
VERTEX
  5
5796
  8
0
 10
162.901756305807595
 20
161.9653699702276981
 30
0.0
 70
    32
  0
SEQEND
  5
5797
  8
0
  0
LINE
  5
5798
  8
0
 10
165.9017563058077087
 20
168.8017736656676959
 30
0.0
 11
165.9017563058077087
 21
175.128966274787814
 31
0.0
  0
LINE
  5
57B2
  8
3
 10
215.9017563058077087
 20
303.8918699702277877
 30
0.0
 11
209.3631044870450069
 21
303.8918699702277877
 31
0.0
  0
LINE
  5
57B3
  8
3
 10
215.9017563058077087
 20
294.0388699702277222
 30
0.0
 11
209.3631044870450069
 21
294.0388699702277222
 31
0.0
  0
LINE
  5
59DD
  8
1
 10
70.0
 20
108.4653699702276981
 30
0.0
 11
70.0
 21
45.4653699702277621
 31
0.0
  0
LINE
  5
59DE
  8
1
 10
48.5
 20
86.9653699702277976
 30
0.0
 11
91.5
 21
86.9653699702277976
 31
0.0
  0
LINE
  5
59DF
  8
0
 10
76.0
 20
51.5388699702277719
 30
0.0
 11
76.0
 21
57.0362919917492519
 31
0.0
  0
LINE
  5
59E0
  8
0
 10
64.0
 20
57.0362919917492519
 30
0.0
 11
64.0
 21
51.5388699702277719
 31
0.0
  0
LINE
  5
59E1
  8
0
 10
74.9265000000000327
 20
50.4653699702277621
 30
0.0
 11
76.0
 21
51.5388699702277719
 31
0.0
  0
LINE
  5
59E2
  8
0
 10
64.0
 20
51.5388699702277719
 30
0.0
 11
65.0734999999999673
 21
50.4653699702277621
 31
0.0
  0
LINE
  5
59E5
  8
0
 10
59.0303448853971986
 20
57.8847977677811301
 30
0.0
 11
60.5
 21
57.0362919917492519
 31
0.0
  0
LINE
  5
59E6
  8
0
 10
79.5
 20
57.0362919917492519
 30
0.0
 11
80.9696551146029151
 21
57.8847977677811301
 31
0.0
  0
LINE
  5
59E7
  8
0
 10
60.5
 20
67.0362919917492519
 30
0.0
 11
59.0303448853971986
 21
66.1877862157173666
 31
0.0
  0
LINE
  5
59E8
  8
0
 10
80.9696551146029151
 20
66.1877862157173809
 30
0.0
 11
79.5
 21
67.0362919917492519
 31
0.0
  0
LINE
  5
59E9
  8
0
 10
86.5
 20
86.9653699702277692
 30
0.0
 11
86.5
 21
70.4653699702277549
 31
0.0
  0
LINE
  5
59EA
  8
0
 10
86.5
 20
70.4653699702277549
 30
0.0
 11
53.5
 21
70.4653699702277549
 31
0.0
  0
LINE
  5
59EB
  8
0
 10
53.5
 20
70.4653699702277549
 30
0.0
 11
53.5
 21
86.9653699702277692
 31
0.0
  0
LINE
  5
59EC
  8
0
 10
86.5
 20
81.4653699702277549
 30
0.0
 11
53.5
 21
81.4653699702277549
 31
0.0
  0
LINE
  5
59ED
  8
0
 10
64.0
 20
51.5388699702277719
 30
0.0
 11
76.0
 21
51.5388699702277719
 31
0.0
  0
LINE
  5
59EE
  8
0
 10
65.0734999999999673
 20
50.4653699702277621
 30
0.0
 11
74.9265000000000327
 21
50.4653699702277621
 31
0.0
  0
LINE
  5
59EF
  8
0
 10
60.5
 20
57.0362919917492519
 30
0.0
 11
79.5
 21
57.0362919917492519
 31
0.0
  0
LINE
  5
59F0
  8
0
 10
60.5
 20
67.0362919917492519
 30
0.0
 11
79.5
 21
67.0362919917492519
 31
0.0
  0
POLYLINE
  5
59F1
  8
0
 66
     1
 10
0.0
 20
0.0
 30
0.0
 70
     8
  0
VERTEX
  5
59F2
  8
0
 10
80.9696551146029151
 20
57.8847977677811301
 30
0.0
 70
    32
  0
VERTEX
  5
59F3
  8
0
 10
80.889172035159163
 20
57.8388459824250418
 30
0.0
 70
    32
  0
VERTEX
  5
59F4
  8
0
 10
80.7297415457910432
 20
57.7509275617679023
 30
0.0
 70
    32
  0
VERTEX
  5
59F5
  8
0
 10
80.5721944111595576
 20
57.6682506194674005
 30
0.0
 70
    32
  0
VERTEX
  5
59F6
  8
0
 10
80.4940663306658593
 20
57.6288537376130634
 30
0.0
 70
    32
  0
VERTEX
  5
59F7
  8
0
 10
80.4163365218666968
 20
57.5907400789830106
 30
0.0
 70
    32
  0
VERTEX
  5
59F8
  8
0
 10
80.261976393977406
 20
57.5183337147735614
 30
0.0
 70
    32
  0
VERTEX
  5
59F9
  8
0
 10
80.1089243626934149
 20
57.4509820433309528
 30
0.0
 70
    32
  0
VERTEX
  5
59FA
  8
0
 10
79.9569917745859584
 20
57.3886482965476787
 30
0.0
 70
    32
  0
VERTEX
  5
59FB
  8
0
 10
79.8059901708525103
 20
57.3313084789083405
 30
0.0
 70
    32
  0
VERTEX
  5
59FC
  8
0
 10
79.6557304537617341
 20
57.2789515110768477
 30
0.0
 70
    32
  0
VERTEX
  5
59FD
  8
0
 10
79.5808193243058213
 20
57.2546417209047931
 30
0.0
 70
    32
  0
VERTEX
  5
59FE
  8
0
 10
79.5060220280015528
 20
57.2315794636082913
 30
0.0
 70
    32
  0
VERTEX
  5
59FF
  8
0
 10
79.3566719080570238
 20
57.1892078857725323
 30
0.0
 70
    32
  0
VERTEX
  5
5A00
  8
0
 10
79.207483781979704
 20
57.1518662358668479
 30
0.0
 70
    32
  0
VERTEX
  5
5A01
  8
0
 10
79.0582570209612641
 20
57.1195984209509433
 30
0.0
 70
    32
  0
VERTEX
  5
5A02
  8
0
 10
78.9087856229459703
 20
57.0924634557001127
 30
0.0
 70
    32
  0
VERTEX
  5
5A03
  8
0
 10
78.7588570770888055
 20
57.0705362520910313
 30
0.0
 70
    32
  0
VERTEX
  5
5A04
  8
0
 10
78.6836528839257738
 20
57.061553544571332
 30
0.0
 70
    32
  0
VERTEX
  5
5A05
  8
0
 10
78.6082511341255668
 20
57.0539085539648809
 30
0.0
 70
    32
  0
VERTEX
  5
5A06
  8
0
 10
78.4567384656272679
 20
57.0426900332286806
 30
0.0
 70
    32
  0
VERTEX
  5
5A07
  8
0
 10
78.3040791925780013
 20
57.0370095676393305
 30
0.0
 70
    32
  0
VERTEX
  5
5A08
  8
0
 10
78.2272413359521437
 20
57.0362919917492519
 30
0.0
 70
    32
  0
SEQEND
  5
5A09
  8
0
  0
POLYLINE
  5
5A0A
  8
0
 66
     1
 10
0.0
 20
0.0
 30
0.0
 70
     8
  0
VERTEX
  5
5A0B
  8
0
 10
78.2272413359521437
 20
57.0362919917492519
 30
0.0
 70
    32
  0
VERTEX
  5
5A0C
  8
0
 10
78.1504034793263145
 20
57.0370095676393305
 30
0.0
 70
    32
  0
VERTEX
  5
5A0D
  8
0
 10
77.9977442062771615
 20
57.0426900332287019
 30
0.0
 70
    32
  0
VERTEX
  5
5A0E
  8
0
 10
77.8462315377788627
 20
57.0539085539648809
 30
0.0
 70
    32
  0
VERTEX
  5
5A0F
  8
0
 10
77.7708297879785277
 20
57.0615535445713391
 30
0.0
 70
    32
  0
VERTEX
  5
5A10
  8
0
 10
77.6956255948155103
 20
57.0705362520910526
 30
0.0
 70
    32
  0
VERTEX
  5
5A11
  8
0
 10
77.5456970489583455
 20
57.0924634557001127
 30
0.0
 70
    32
  0
VERTEX
  5
5A12
  8
0
 10
77.3962256509430517
 20
57.1195984209509433
 30
0.0
 70
    32
  0
VERTEX
  5
5A13
  8
0
 10
77.2469988899247255
 20
57.1518662358668479
 30
0.0
 70
    32
  0
VERTEX
  5
5A14
  8
0
 10
77.0978107638474057
 20
57.1892078857725323
 30
0.0
 70
    32
  0
VERTEX
  5
5A15
  8
0
 10
76.948460643902763
 20
57.2315794636082984
 30
0.0
 70
    32
  0
VERTEX
  5
5A16
  8
0
 10
76.8736633475984945
 20
57.2546417209047931
 30
0.0
 70
    32
  0
VERTEX
  5
5A17
  8
0
 10
76.7987522181426812
 20
57.2789515110768477
 30
0.0
 70
    32
  0
VERTEX
  5
5A18
  8
0
 10
76.6484925010518054
 20
57.3313084789083476
 30
0.0
 70
    32
  0
VERTEX
  5
5A19
  8
0
 10
76.4974908973183574
 20
57.388648296547693
 30
0.0
 70
    32
  0
VERTEX
  5
5A1A
  8
0
 10
76.3455583092109009
 20
57.4509820433309528
 30
0.0
 70
    32
  0
VERTEX
  5
5A1B
  8
0
 10
76.1925062779270093
 20
57.5183337147735685
 30
0.0
 70
    32
  0
VERTEX
  5
5A1C
  8
0
 10
76.0381461500377327
 20
57.5907400789830177
 30
0.0
 70
    32
  0
VERTEX
  5
5A1D
  8
0
 10
75.960416341238556
 20
57.6288537376130705
 30
0.0
 70
    32
  0
VERTEX
  5
5A1E
  8
0
 10
75.8822882607448719
 20
57.6682506194674076
 30
0.0
 70
    32
  0
VERTEX
  5
5A1F
  8
0
 10
75.7247411261132584
 20
57.7509275617679094
 30
0.0
 70
    32
  0
VERTEX
  5
5A20
  8
0
 10
75.5653106367451528
 20
57.8388459824250489
 30
0.0
 70
    32
  0
VERTEX
  5
5A21
  8
0
 10
75.4848275573015144
 20
57.8847977677811372
 30
0.0
 70
    32
  0
SEQEND
  5
5A22
  8
0
  0
POLYLINE
  5
5A23
  8
0
 66
     1
 10
0.0
 20
0.0
 30
0.0
 70
     8
  0
VERTEX
  5
5A24
  8
0
 10
75.4848275573015144
 20
66.1877862157173666
 30
0.0
 70
    32
  0
VERTEX
  5
5A25
  8
0
 10
75.5653106367451528
 20
66.2337380010734336
 30
0.0
 70
    32
  0
VERTEX
  5
5A26
  8
0
 10
75.7247411261132584
 20
66.3216564217305944
 30
0.0
 70
    32
  0
VERTEX
  5
5A27
  8
0
 10
75.8822882607448719
 20
66.4043333640310891
 30
0.0
 70
    32
  0
VERTEX
  5
5A28
  8
0
 10
75.960416341238556
 20
66.4437302458854475
 30
0.0
 70
    32
  0
VERTEX
  5
5A29
  8
0
 10
76.0381461500377327
 20
66.4818439045154861
 30
0.0
 70
    32
  0
VERTEX
  5
5A2A
  8
0
 10
76.1925062779271229
 20
66.5542502687249424
 30
0.0
 70
    32
  0
VERTEX
  5
5A2B
  8
0
 10
76.3455583092109009
 20
66.621601940167551
 30
0.0
 70
    32
  0
VERTEX
  5
5A2C
  8
0
 10
76.4974908973183574
 20
66.683935686950818
 30
0.0
 70
    32
  0
VERTEX
  5
5A2D
  8
0
 10
76.6484925010518054
 20
66.7412755045901633
 30
0.0
 70
    32
  0
VERTEX
  5
5A2E
  8
0
 10
76.7987522181426812
 20
66.7936324724216348
 30
0.0
 70
    32
  0
VERTEX
  5
5A2F
  8
0
 10
76.8736633475984945
 20
66.8179422625937178
 30
0.0
 70
    32
  0
VERTEX
  5
5A30
  8
0
 10
76.948460643902763
 20
66.8410045198902054
 30
0.0
 70
    32
  0
VERTEX
  5
5A31
  8
0
 10
77.0978107638474057
 20
66.8833760977259715
 30
0.0
 70
    32
  0
VERTEX
  5
5A32
  8
0
 10
77.2469988899247255
 20
66.9207177476316417
 30
0.0
 70
    32
  0
VERTEX
  5
5A33
  8
0
 10
77.3962256509430517
 20
66.9529855625475676
 30
0.0
 70
    32
  0
VERTEX
  5
5A34
  8
0
 10
77.5456970489583455
 20
66.9801205277983769
 30
0.0
 70
    32
  0
VERTEX
  5
5A35
  8
0
 10
77.6956255948155103
 20
67.0020477314074583
 30
0.0
 70
    32
  0
VERTEX
  5
5A36
  8
0
 10
77.7708297879785277
 20
67.0110304389271789
 30
0.0
 70
    32
  0
VERTEX
  5
5A37
  8
0
 10
77.8462315377788627
 20
67.0186754295336158
 30
0.0
 70
    32
  0
VERTEX
  5
5A38
  8
0
 10
77.9977442062772752
 20
67.029893950269809
 30
0.0
 70
    32
  0
VERTEX
  5
5A39
  8
0
 10
78.1504034793263145
 20
67.0355744158591733
 30
0.0
 70
    32
  0
VERTEX
  5
5A3A
  8
0
 10
78.2272413359521437
 20
67.0362919917492519
 30
0.0
 70
    32
  0
SEQEND
  5
5A3B
  8
0
  0
POLYLINE
  5
5A3C
  8
0
 66
     1
 10
0.0
 20
0.0
 30
0.0
 70
     8
  0
VERTEX
  5
5A3D
  8
0
 10
78.2272413359521437
 20
67.0362919917492519
 30
0.0
 70
    32
  0
VERTEX
  5
5A3E
  8
0
 10
78.3040791925780013
 20
67.0355744158591733
 30
0.0
 70
    32
  0
VERTEX
  5
5A3F
  8
0
 10
78.4567384656272679
 20
67.029893950269809
 30
0.0
 70
    32
  0
VERTEX
  5
5A40
  8
0
 10
78.6082511341255668
 20
67.0186754295336158
 30
0.0
 70
    32
  0
VERTEX
  5
5A41
  8
0
 10
78.6836528839257738
 20
67.0110304389271789
 30
0.0
 70
    32
  0
VERTEX
  5
5A42
  8
0
 10
78.7588570770888055
 20
67.0020477314074583
 30
0.0
 70
    32
  0
VERTEX
  5
5A43
  8
0
 10
78.9087856229459703
 20
66.9801205277983769
 30
0.0
 70
    32
  0
VERTEX
  5
5A44
  8
0
 10
79.0582570209612641
 20
66.9529855625475676
 30
0.0
 70
    32
  0
VERTEX
  5
5A45
  8
0
 10
79.207483781979704
 20
66.9207177476316417
 30
0.0
 70
    32
  0
VERTEX
  5
5A46
  8
0
 10
79.3566719080570238
 20
66.8833760977259715
 30
0.0
 70
    32
  0
VERTEX
  5
5A47
  8
0
 10
79.5060220280015528
 20
66.8410045198902054
 30
0.0
 70
    32
  0
VERTEX
  5
5A48
  8
0
 10
79.5808193243058213
 20
66.8179422625937178
 30
0.0
 70
    32
  0
VERTEX
  5
5A49
  8
0
 10
79.6557304537617341
 20
66.7936324724216348
 30
0.0
 70
    32
  0
VERTEX
  5
5A4A
  8
0
 10
79.8059901708525103
 20
66.7412755045901633
 30
0.0
 70
    32
  0
VERTEX
  5
5A4B
  8
0
 10
79.9569917745859584
 20
66.683935686950818
 30
0.0
 70
    32
  0
VERTEX
  5
5A4C
  8
0
 10
80.1089243626934149
 20
66.621601940167551
 30
0.0
 70
    32
  0
VERTEX
  5
5A4D
  8
0
 10
80.261976393977406
 20
66.5542502687249424
 30
0.0
 70
    32
  0
VERTEX
  5
5A4E
  8
0
 10
80.4163365218666968
 20
66.4818439045154861
 30
0.0
 70
    32
  0
VERTEX
  5
5A4F
  8
0
 10
80.4940663306658593
 20
66.4437302458854617
 30
0.0
 70
    32
  0
VERTEX
  5
5A50
  8
0
 10
80.5721944111595576
 20
66.4043333640311033
 30
0.0
 70
    32
  0
VERTEX
  5
5A51
  8
0
 10
80.7297415457910432
 20
66.3216564217306086
 30
0.0
 70
    32
  0
VERTEX
  5
5A52
  8
0
 10
80.889172035159163
 20
66.233738001073462
 30
0.0
 70
    32
  0
VERTEX
  5
5A53
  8
0
 10
80.9696551146029151
 20
66.1877862157173809
 30
0.0
 70
    32
  0
SEQEND
  5
5A54
  8
0
  0
LINE
  5
5A55
  8
0
 10
75.4848275573015144
 20
57.8847977677811372
 30
0.0
 11
75.4848275573015144
 21
66.1877862157173666
 31
0.0
  0
POLYLINE
  5
5A56
  8
0
 66
     1
 10
0.0
 20
0.0
 30
0.0
 70
     8
  0
VERTEX
  5
5A57
  8
0
 10
75.4848275573015144
 20
57.8847977677811372
 30
0.0
 70
    32
  0
VERTEX
  5
5A58
  8
0
 10
75.3238613984141239
 20
57.8388459824250489
 30
0.0
 70
    32
  0
VERTEX
  5
5A59
  8
0
 10
75.0050004196777991
 20
57.7509275617679094
 30
0.0
 70
    32
  0
VERTEX
  5
5A5A
  8
0
 10
74.6899061504146857
 20
57.6682506194674076
 30
0.0
 70
    32
  0
VERTEX
  5
5A5B
  8
0
 10
74.5336499894273032
 20
57.6288537376130634
 30
0.0
 70
    32
  0
VERTEX
  5
5A5C
  8
0
 10
74.3781903718289641
 20
57.5907400789830177
 30
0.0
 70
    32
  0
VERTEX
  5
5A5D
  8
0
 10
74.0694701160502973
 20
57.5183337147735614
 30
0.0
 70
    32
  0
VERTEX
  5
5A5E
  8
0
 10
73.763366053482514
 20
57.4509820433309599
 30
0.0
 70
    32
  0
VERTEX
  5
5A5F
  8
0
 10
73.459500877267601
 20
57.3886482965476787
 30
0.0
 70
    32
  0
VERTEX
  5
5A60
  8
0
 10
73.1574976698007049
 20
57.3313084789083405
 30
0.0
 70
    32
  0
VERTEX
  5
5A61
  8
0
 10
72.8569782356191809
 20
57.2789515110768477
 30
0.0
 70
    32
  0
VERTEX
  5
5A62
  8
0
 10
72.7071559767073268
 20
57.2546417209047931
 30
0.0
 70
    32
  0
VERTEX
  5
5A63
  8
0
 10
72.5575613840987756
 20
57.2315794636082984
 30
0.0
 70
    32
  0
VERTEX
  5
5A64
  8
0
 10
72.258861144209618
 20
57.1892078857725323
 30
0.0
 70
    32
  0
VERTEX
  5
5A65
  8
0
 10
71.9604848920550921
 20
57.1518662358668621
 30
0.0
 70
    32
  0
VERTEX
  5
5A66
  8
0
 10
71.6620313700182123
 20
57.1195984209509433
 30
0.0
 70
    32
  0
VERTEX
  5
5A67
  8
0
 10
71.3630885739876248
 20
57.0924634557001127
 30
0.0
 70
    32
  0
VERTEX
  5
5A68
  8
0
 10
71.0632314822732951
 20
57.0705362520910526
 30
0.0
 70
    32
  0
VERTEX
  5
5A69
  8
0
 10
70.9128230959472603
 20
57.061553544571332
 30
0.0
 70
    32
  0
VERTEX
  5
5A6A
  8
0
 10
70.762019596346704
 20
57.053908553964888
 30
0.0
 70
    32
  0
VERTEX
  5
5A6B
  8
0
 10
70.4589942593499927
 20
57.0426900332287019
 30
0.0
 70
    32
  0
VERTEX
  5
5A6C
  8
0
 10
70.1536757132516868
 20
57.0370095676393305
 30
0.0
 70
    32
  0
VERTEX
  5
5A6D
  8
0
 10
70.0
 20
57.0362919917492519
 30
0.0
 70
    32
  0
SEQEND
  5
5A6E
  8
0
  0
POLYLINE
  5
5A6F
  8
0
 66
     1
 10
0.0
 20
0.0
 30
0.0
 70
     8
  0
VERTEX
  5
5A70
  8
0
 10
70.0
 20
57.0362919917492519
 30
0.0
 70
    32
  0
VERTEX
  5
5A71
  8
0
 10
69.8463242867484269
 20
57.0370095676393305
 30
0.0
 70
    32
  0
VERTEX
  5
5A72
  8
0
 10
69.5410057406500073
 20
57.0426900332286806
 30
0.0
 70
    32
  0
VERTEX
  5
5A73
  8
0
 10
69.2379804036533955
 20
57.0539085539648809
 30
0.0
 70
    32
  0
VERTEX
  5
5A74
  8
0
 10
69.0871769040527397
 20
57.061553544571332
 30
0.0
 70
    32
  0
VERTEX
  5
5A75
  8
0
 10
68.9367685177267049
 20
57.0705362520910526
 30
0.0
 70
    32
  0
VERTEX
  5
5A76
  8
0
 10
68.6369114260123752
 20
57.0924634557001127
 30
0.0
 70
    32
  0
VERTEX
  5
5A77
  8
0
 10
68.3379686299819014
 20
57.1195984209509291
 30
0.0
 70
    32
  0
VERTEX
  5
5A78
  8
0
 10
68.0395151079450216
 20
57.1518662358668479
 30
0.0
 70
    32
  0
VERTEX
  5
5A79
  8
0
 10
67.7411388557904957
 20
57.1892078857725323
 30
0.0
 70
    32
  0
VERTEX
  5
5A7A
  8
0
 10
67.4424386159012101
 20
57.2315794636082984
 30
0.0
 70
    32
  0
VERTEX
  5
5A7B
  8
0
 10
67.2928440232926732
 20
57.2546417209047931
 30
0.0
 70
    32
  0
VERTEX
  5
5A7C
  8
0
 10
67.1430217643809328
 20
57.2789515110768477
 30
0.0
 70
    32
  0
VERTEX
  5
5A7D
  8
0
 10
66.8425023301992951
 20
57.3313084789083405
 30
0.0
 70
    32
  0
VERTEX
  5
5A7E
  8
0
 10
66.540499122732399
 20
57.388648296547693
 30
0.0
 70
    32
  0
VERTEX
  5
5A7F
  8
0
 10
66.236633946517486
 20
57.4509820433309599
 30
0.0
 70
    32
  0
VERTEX
  5
5A80
  8
0
 10
65.9305298839497027
 20
57.5183337147735685
 30
0.0
 70
    32
  0
VERTEX
  5
5A81
  8
0
 10
65.6218096281710359
 20
57.5907400789830106
 30
0.0
 70
    32
  0
VERTEX
  5
5A82
  8
0
 10
65.4663500105727962
 20
57.6288537376130634
 30
0.0
 70
    32
  0
VERTEX
  5
5A83
  8
0
 10
65.310093849585428
 20
57.6682506194674076
 30
0.0
 70
    32
  0
VERTEX
  5
5A84
  8
0
 10
64.9949995803222009
 20
57.7509275617679094
 30
0.0
 70
    32
  0
VERTEX
  5
5A85
  8
0
 10
64.6761386015859898
 20
57.8388459824250489
 30
0.0
 70
    32
  0
VERTEX
  5
5A86
  8
0
 10
64.5151724426985993
 20
57.8847977677811372
 30
0.0
 70
    32
  0
SEQEND
  5
5A87
  8
0
  0
POLYLINE
  5
5A88
  8
0
 66
     1
 10
0.0
 20
0.0
 30
0.0
 70
     8
  0
VERTEX
  5
5A89
  8
0
 10
64.5151724426985993
 20
66.1877862157173666
 30
0.0
 70
    32
  0
VERTEX
  5
5A8A
  8
0
 10
64.6761386015859898
 20
66.2337380010734336
 30
0.0
 70
    32
  0
VERTEX
  5
5A8B
  8
0
 10
64.9949995803222009
 20
66.3216564217305944
 30
0.0
 70
    32
  0
VERTEX
  5
5A8C
  8
0
 10
65.310093849585428
 20
66.4043333640310891
 30
0.0
 70
    32
  0
VERTEX
  5
5A8D
  8
0
 10
65.4663500105727962
 20
66.4437302458854475
 30
0.0
 70
    32
  0
VERTEX
  5
5A8E
  8
0
 10
65.6218096281710359
 20
66.4818439045154861
 30
0.0
 70
    32
  0
VERTEX
  5
5A8F
  8
0
 10
65.9305298839497027
 20
66.554250268724914
 30
0.0
 70
    32
  0
VERTEX
  5
5A90
  8
0
 10
66.236633946517486
 20
66.621601940167551
 30
0.0
 70
    32
  0
VERTEX
  5
5A91
  8
0
 10
66.540499122732399
 20
66.683935686950818
 30
0.0
 70
    32
  0
VERTEX
  5
5A92
  8
0
 10
66.8425023301992951
 20
66.7412755045901633
 30
0.0
 70
    32
  0
VERTEX
  5
5A93
  8
0
 10
67.1430217643809328
 20
66.7936324724216348
 30
0.0
 70
    32
  0
VERTEX
  5
5A94
  8
0
 10
67.2928440232926732
 20
66.8179422625937178
 30
0.0
 70
    32
  0
VERTEX
  5
5A95
  8
0
 10
67.4424386159012101
 20
66.8410045198902054
 30
0.0
 70
    32
  0
VERTEX
  5
5A96
  8
0
 10
67.7411388557904957
 20
66.8833760977259715
 30
0.0
 70
    32
  0
VERTEX
  5
5A97
  8
0
 10
68.0395151079450216
 20
66.9207177476316417
 30
0.0
 70
    32
  0
VERTEX
  5
5A98
  8
0
 10
68.3379686299819014
 20
66.9529855625475676
 30
0.0
 70
    32
  0
VERTEX
  5
5A99
  8
0
 10
68.6369114260123752
 20
66.9801205277983769
 30
0.0
 70
    32
  0
VERTEX
  5
5A9A
  8
0
 10
68.9367685177267049
 20
67.0020477314074583
 30
0.0
 70
    32
  0
VERTEX
  5
5A9B
  8
0
 10
69.0871769040527397
 20
67.0110304389271789
 30
0.0
 70
    32
  0
VERTEX
  5
5A9C
  8
0
 10
69.237980403653296
 20
67.0186754295336158
 30
0.0
 70
    32
  0
VERTEX
  5
5A9D
  8
0
 10
69.5410057406500073
 20
67.029893950269809
 30
0.0
 70
    32
  0
VERTEX
  5
5A9E
  8
0
 10
69.8463242867484269
 20
67.0355744158591733
 30
0.0
 70
    32
  0
VERTEX
  5
5A9F
  8
0
 10
70.0
 20
67.0362919917492519
 30
0.0
 70
    32
  0
SEQEND
  5
5AA0
  8
0
  0
POLYLINE
  5
5AA1
  8
0
 66
     1
 10
0.0
 20
0.0
 30
0.0
 70
     8
  0
VERTEX
  5
5AA2
  8
0
 10
70.0
 20
67.0362919917492519
 30
0.0
 70
    32
  0
VERTEX
  5
5AA3
  8
0
 10
70.1536757132516868
 20
67.0355744158591733
 30
0.0
 70
    32
  0
VERTEX
  5
5AA4
  8
0
 10
70.4589942593499927
 20
67.029893950269809
 30
0.0
 70
    32
  0
VERTEX
  5
5AA5
  8
0
 10
70.7620195963468177
 20
67.0186754295336158
 30
0.0
 70
    32
  0
VERTEX
  5
5AA6
  8
0
 10
70.9128230959472603
 20
67.0110304389271789
 30
0.0
 70
    32
  0
VERTEX
  5
5AA7
  8
0
 10
71.0632314822732951
 20
67.0020477314074583
 30
0.0
 70
    32
  0
VERTEX
  5
5AA8
  8
0
 10
71.3630885739877243
 20
66.9801205277983769
 30
0.0
 70
    32
  0
VERTEX
  5
5AA9
  8
0
 10
71.6620313700182123
 20
66.9529855625475676
 30
0.0
 70
    32
  0
VERTEX
  5
5AAA
  8
0
 10
71.9604848920550921
 20
66.9207177476316417
 30
0.0
 70
    32
  0
VERTEX
  5
5AAB
  8
0
 10
72.258861144209618
 20
66.8833760977259715
 30
0.0
 70
    32
  0
VERTEX
  5
5AAC
  8
0
 10
72.5575613840987756
 20
66.8410045198902054
 30
0.0
 70
    32
  0
VERTEX
  5
5AAD
  8
0
 10
72.7071559767073268
 20
66.8179422625937178
 30
0.0
 70
    32
  0
VERTEX
  5
5AAE
  8
0
 10
72.8569782356191809
 20
66.7936324724216348
 30
0.0
 70
    32
  0
VERTEX
  5
5AAF
  8
0
 10
73.1574976698007049
 20
66.7412755045901633
 30
0.0
 70
    32
  0
VERTEX
  5
5AB0
  8
0
 10
73.459500877267601
 20
66.683935686950818
 30
0.0
 70
    32
  0
VERTEX
  5
5AB1
  8
0
 10
73.763366053482514
 20
66.621601940167551
 30
0.0
 70
    32
  0
VERTEX
  5
5AB2
  8
0
 10
74.0694701160502973
 20
66.554250268724914
 30
0.0
 70
    32
  0
VERTEX
  5
5AB3
  8
0
 10
74.3781903718290778
 20
66.4818439045154861
 30
0.0
 70
    32
  0
VERTEX
  5
5AB4
  8
0
 10
74.5336499894273032
 20
66.4437302458854475
 30
0.0
 70
    32
  0
VERTEX
  5
5AB5
  8
0
 10
74.6899061504146857
 20
66.4043333640310891
 30
0.0
 70
    32
  0
VERTEX
  5
5AB6
  8
0
 10
75.0050004196779128
 20
66.3216564217305944
 30
0.0
 70
    32
  0
VERTEX
  5
5AB7
  8
0
 10
75.3238613984141239
 20
66.2337380010734336
 30
0.0
 70
    32
  0
VERTEX
  5
5AB8
  8
0
 10
75.4848275573015144
 20
66.1877862157173666
 30
0.0
 70
    32
  0
SEQEND
  5
5AB9
  8
0
  0
LINE
  5
5ABA
  8
0
 10
64.5151724426985993
 20
57.8847977677811372
 30
0.0
 11
64.5151724426985993
 21
66.1877862157173666
 31
0.0
  0
POLYLINE
  5
5ABB
  8
0
 66
     1
 10
0.0
 20
0.0
 30
0.0
 70
     8
  0
VERTEX
  5
5ABC
  8
0
 10
64.5151724426985993
 20
57.8847977677811372
 30
0.0
 70
    32
  0
VERTEX
  5
5ABD
  8
0
 10
64.434689363254833
 20
57.8388459824250489
 30
0.0
 70
    32
  0
VERTEX
  5
5ABE
  8
0
 10
64.2752588738867416
 20
57.7509275617679094
 30
0.0
 70
    32
  0
VERTEX
  5
5ABF
  8
0
 10
64.1177117392551139
 20
57.6682506194674005
 30
0.0
 70
    32
  0
VERTEX
  5
5AC0
  8
0
 10
64.0395836587615577
 20
57.6288537376130634
 30
0.0
 70
    32
  0
VERTEX
  5
5AC1
  8
0
 10
63.961853849962381
 20
57.5907400789830177
 30
0.0
 70
    32
  0
VERTEX
  5
5AC2
  8
0
 10
63.8074937220729907
 20
57.5183337147735614
 30
0.0
 70
    32
  0
VERTEX
  5
5AC3
  8
0
 10
63.6544416907890991
 20
57.4509820433309528
 30
0.0
 70
    32
  0
VERTEX
  5
5AC4
  8
0
 10
63.5025091026816426
 20
57.388648296547693
 30
0.0
 70
    32
  0
VERTEX
  5
5AC5
  8
0
 10
63.3515074989481874
 20
57.3313084789083405
 30
0.0
 70
    32
  0
VERTEX
  5
5AC6
  8
0
 10
63.2012477818573188
 20
57.2789515110768477
 30
0.0
 70
    32
  0
VERTEX
  5
5AC7
  8
0
 10
63.1263366524014984
 20
57.2546417209047931
 30
0.0
 70
    32
  0
VERTEX
  5
5AC8
  8
0
 10
63.0515393560972299
 20
57.2315794636082984
 30
0.0
 70
    32
  0
VERTEX
  5
5AC9
  8
0
 10
62.9021892361527009
 20
57.1892078857725323
 30
0.0
 70
    32
  0
VERTEX
  5
5ACA
  8
0
 10
62.7530011100753811
 20
57.1518662358668621
 30
0.0
 70
    32
  0
VERTEX
  5
5ACB
  8
0
 10
62.6037743490569483
 20
57.1195984209509433
 30
0.0
 70
    32
  0
VERTEX
  5
5ACC
  8
0
 10
62.4543029510416474
 20
57.0924634557001127
 30
0.0
 70
    32
  0
VERTEX
  5
5ACD
  8
0
 10
62.3043744051844897
 20
57.0705362520910526
 30
0.0
 70
    32
  0
VERTEX
  5
5ACE
  8
0
 10
62.2291702120214723
 20
57.061553544571332
 30
0.0
 70
    32
  0
VERTEX
  5
5ACF
  8
0
 10
62.153768462221251
 20
57.0539085539648809
 30
0.0
 70
    32
  0
VERTEX
  5
5AD0
  8
0
 10
62.0022557937228385
 20
57.0426900332286806
 30
0.0
 70
    32
  0
VERTEX
  5
5AD1
  8
0
 10
61.8495965206736926
 20
57.0370095676393305
 30
0.0
 70
    32
  0
VERTEX
  5
5AD2
  8
0
 10
61.7727586640478421
 20
57.0362919917492519
 30
0.0
 70
    32
  0
SEQEND
  5
5AD3
  8
0
  0
POLYLINE
  5
5AD4
  8
0
 66
     1
 10
0.0
 20
0.0
 30
0.0
 70
     8
  0
VERTEX
  5
5AD5
  8
0
 10
61.7727586640478421
 20
57.0362919917492519
 30
0.0
 70
    32
  0
VERTEX
  5
5AD6
  8
0
 10
61.6959208074219987
 20
57.0370095676393305
 30
0.0
 70
    32
  0
VERTEX
  5
5AD7
  8
0
 10
61.5432615343728529
 20
57.0426900332287019
 30
0.0
 70
    32
  0
VERTEX
  5
5AD8
  8
0
 10
61.3917488658744404
 20
57.053908553964888
 30
0.0
 70
    32
  0
VERTEX
  5
5AD9
  8
0
 10
61.316347116074212
 20
57.061553544571332
 30
0.0
 70
    32
  0
VERTEX
  5
5ADA
  8
0
 10
61.2411429229111874
 20
57.0705362520910526
 30
0.0
 70
    32
  0
VERTEX
  5
5ADB
  8
0
 10
61.0912143770540297
 20
57.0924634557001127
 30
0.0
 70
    32
  0
VERTEX
  5
5ADC
  8
0
 10
60.9417429790387288
 20
57.1195984209509433
 30
0.0
 70
    32
  0
VERTEX
  5
5ADD
  8
0
 10
60.7925162180204097
 20
57.1518662358668621
 30
0.0
 70
    32
  0
VERTEX
  5
5ADE
  8
0
 10
60.6433280919430899
 20
57.1892078857725323
 30
0.0
 70
    32
  0
VERTEX
  5
5ADF
  8
0
 10
60.4939779719984401
 20
57.2315794636082984
 30
0.0
 70
    32
  0
VERTEX
  5
5AE0
  8
0
 10
60.4191806756941787
 20
57.2546417209047931
 30
0.0
 70
    32
  0
VERTEX
  5
5AE1
  8
0
 10
60.3442695462383583
 20
57.2789515110768477
 30
0.0
 70
    32
  0
VERTEX
  5
5AE2
  8
0
 10
60.1940098291474897
 20
57.3313084789083405
 30
0.0
 70
    32
  0
VERTEX
  5
5AE3
  8
0
 10
60.0430082254140416
 20
57.388648296547693
 30
0.0
 70
    32
  0
VERTEX
  5
5AE4
  8
0
 10
59.8910756373065922
 20
57.4509820433309528
 30
0.0
 70
    32
  0
VERTEX
  5
5AE5
  8
0
 10
59.7380236060226935
 20
57.5183337147735614
 30
0.0
 70
    32
  0
VERTEX
  5
5AE6
  8
0
 10
59.5836634781333032
 20
57.5907400789830177
 30
0.0
 70
    32
  0
VERTEX
  5
5AE7
  8
0
 10
59.5059336693342402
 20
57.6288537376130634
 30
0.0
 70
    32
  0
VERTEX
  5
5AE8
  8
0
 10
59.4278055888405632
 20
57.6682506194674076
 30
0.0
 70
    32
  0
VERTEX
  5
5AE9
  8
0
 10
59.2702584542089426
 20
57.7509275617679023
 30
0.0
 70
    32
  0
VERTEX
  5
5AEA
  8
0
 10
59.110827964840837
 20
57.8388459824250489
 30
0.0
 70
    32
  0
VERTEX
  5
5AEB
  8
0
 10
59.0303448853971986
 20
57.8847977677811372
 30
0.0
 70
    32
  0
SEQEND
  5
5AEC
  8
0
  0
POLYLINE
  5
5AED
  8
0
 66
     1
 10
0.0
 20
0.0
 30
0.0
 70
     8
  0
VERTEX
  5
5AEE
  8
0
 10
59.0303448853971986
 20
66.1877862157173666
 30
0.0
 70
    32
  0
VERTEX
  5
5AEF
  8
0
 10
59.110827964840837
 20
66.2337380010734336
 30
0.0
 70
    32
  0
VERTEX
  5
5AF0
  8
0
 10
59.2702584542089426
 20
66.3216564217305944
 30
0.0
 70
    32
  0
VERTEX
  5
5AF1
  8
0
 10
59.4278055888405632
 20
66.4043333640310891
 30
0.0
 70
    32
  0
VERTEX
  5
5AF2
  8
0
 10
59.5059336693342402
 20
66.4437302458854475
 30
0.0
 70
    32
  0
VERTEX
  5
5AF3
  8
0
 10
59.5836634781333032
 20
66.4818439045154861
 30
0.0
 70
    32
  0
VERTEX
  5
5AF4
  8
0
 10
59.7380236060226935
 20
66.5542502687249424
 30
0.0
 70
    32
  0
VERTEX
  5
5AF5
  8
0
 10
59.8910756373065922
 20
66.621601940167551
 30
0.0
 70
    32
  0
VERTEX
  5
5AF6
  8
0
 10
60.0430082254140416
 20
66.683935686950818
 30
0.0
 70
    32
  0
VERTEX
  5
5AF7
  8
0
 10
60.1940098291474897
 20
66.7412755045901633
 30
0.0
 70
    32
  0
VERTEX
  5
5AF8
  8
0
 10
60.3442695462383583
 20
66.7936324724216348
 30
0.0
 70
    32
  0
VERTEX
  5
5AF9
  8
0
 10
60.4191806756941787
 20
66.8179422625937178
 30
0.0
 70
    32
  0
VERTEX
  5
5AFA
  8
0
 10
60.4939779719984401
 20
66.8410045198902054
 30
0.0
 70
    32
  0
VERTEX
  5
5AFB
  8
0
 10
60.6433280919430899
 20
66.8833760977259715
 30
0.0
 70
    32
  0
VERTEX
  5
5AFC
  8
0
 10
60.7925162180204097
 20
66.9207177476316417
 30
0.0
 70
    32
  0
VERTEX
  5
5AFD
  8
0
 10
60.9417429790387288
 20
66.9529855625475676
 30
0.0
 70
    32
  0
VERTEX
  5
5AFE
  8
0
 10
61.0912143770540297
 20
66.9801205277983769
 30
0.0
 70
    32
  0
VERTEX
  5
5AFF
  8
0
 10
61.2411429229111874
 20
67.0020477314074583
 30
0.0
 70
    32
  0
VERTEX
  5
5B00
  8
0
 10
61.316347116074212
 20
67.0110304389271789
 30
0.0
 70
    32
  0
VERTEX
  5
5B01
  8
0
 10
61.3917488658744404
 20
67.0186754295336158
 30
0.0
 70
    32
  0
VERTEX
  5
5B02
  8
0
 10
61.5432615343728529
 20
67.029893950269809
 30
0.0
 70
    32
  0
VERTEX
  5
5B03
  8
0
 10
61.6959208074219987
 20
67.0355744158591733
 30
0.0
 70
    32
  0
VERTEX
  5
5B04
  8
0
 10
61.7727586640478421
 20
67.0362919917492519
 30
0.0
 70
    32
  0
SEQEND
  5
5B05
  8
0
  0
POLYLINE
  5
5B06
  8
0
 66
     1
 10
0.0
 20
0.0
 30
0.0
 70
     8
  0
VERTEX
  5
5B07
  8
0
 10
61.7727586640478421
 20
67.0362919917492519
 30
0.0
 70
    32
  0
VERTEX
  5
5B08
  8
0
 10
61.8495965206736926
 20
67.0355744158591733
 30
0.0
 70
    32
  0
VERTEX
  5
5B09
  8
0
 10
62.0022557937228385
 20
67.029893950269809
 30
0.0
 70
    32
  0
VERTEX
  5
5B0A
  8
0
 10
62.153768462221251
 20
67.0186754295336158
 30
0.0
 70
    32
  0
VERTEX
  5
5B0B
  8
0
 10
62.2291702120214723
 20
67.0110304389271789
 30
0.0
 70
    32
  0
VERTEX
  5
5B0C
  8
0
 10
62.3043744051844897
 20
67.0020477314074583
 30
0.0
 70
    32
  0
VERTEX
  5
5B0D
  8
0
 10
62.4543029510416474
 20
66.9801205277983769
 30
0.0
 70
    32
  0
VERTEX
  5
5B0E
  8
0
 10
62.6037743490569483
 20
66.9529855625475676
 30
0.0
 70
    32
  0
VERTEX
  5
5B0F
  8
0
 10
62.7530011100753811
 20
66.9207177476316417
 30
0.0
 70
    32
  0
VERTEX
  5
5B10
  8
0
 10
62.9021892361527009
 20
66.8833760977259715
 30
0.0
 70
    32
  0
VERTEX
  5
5B11
  8
0
 10
63.0515393560972299
 20
66.8410045198902054
 30
0.0
 70
    32
  0
VERTEX
  5
5B12
  8
0
 10
63.1263366524014984
 20
66.8179422625937036
 30
0.0
 70
    32
  0
VERTEX
  5
5B13
  8
0
 10
63.2012477818574325
 20
66.7936324724216348
 30
0.0
 70
    32
  0
VERTEX
  5
5B14
  8
0
 10
63.3515074989481874
 20
66.7412755045901633
 30
0.0
 70
    32
  0
VERTEX
  5
5B15
  8
0
 10
63.5025091026816426
 20
66.683935686950818
 30
0.0
 70
    32
  0
VERTEX
  5
5B16
  8
0
 10
63.6544416907890991
 20
66.621601940167551
 30
0.0
 70
    32
  0
VERTEX
  5
5B17
  8
0
 10
63.8074937220729907
 20
66.5542502687249424
 30
0.0
 70
    32
  0
VERTEX
  5
5B18
  8
0
 10
63.961853849962381
 20
66.4818439045154861
 30
0.0
 70
    32
  0
VERTEX
  5
5B19
  8
0
 10
64.0395836587615577
 20
66.4437302458854475
 30
0.0
 70
    32
  0
VERTEX
  5
5B1A
  8
0
 10
64.1177117392551139
 20
66.4043333640310891
 30
0.0
 70
    32
  0
VERTEX
  5
5B1B
  8
0
 10
64.2752588738867416
 20
66.3216564217305944
 30
0.0
 70
    32
  0
VERTEX
  5
5B1C
  8
0
 10
64.434689363254833
 20
66.2337380010734336
 30
0.0
 70
    32
  0
VERTEX
  5
5B1D
  8
0
 10
64.5151724426985993
 20
66.1877862157173666
 30
0.0
 70
    32
  0
SEQEND
  5
5B1E
  8
0
  0
LINE
  5
5B1F
  8
0
 10
59.0303448853971986
 20
57.8847977677811372
 30
0.0
 11
59.0303448853971986
 21
66.1877862157173666
 31
0.0
  0
LINE
  5
5B20
  8
0
 10
80.9696551146029151
 20
57.8847977677811301
 30
0.0
 11
80.9696551146029151
 21
66.1877862157173809
 31
0.0
  0
ARC
  5
5B21
  8
0
 10
70.0
 20
86.9653699702277549
 30
0.0
 40
16.5000000000000213
 50
125.2865868208888998
 51
180.0
  0
ARC
  5
5B22
  8
0
 10
70.0
 20
86.9653699702277834
 30
0.0
 40
16.4999999999999893
 50
54.9031987724172268
 51
125.0968012275828016
  0
ARC
  5
5B23
  8
0
 10
70.0
 20
86.9653699702277692
 30
0.0
 40
16.5000000000000107
 50
0.0
 51
54.7134131790802698
  0
LINE
  5
5BFE
  8
3
 10
65.0734999999999673
 20
50.4653699702277621
 30
0.0
 11
65.0735000000000809
 21
57.0362919917492519
 31
0.0
  0
LINE
  5
5BFF
  8
3
 10
74.9265000000000327
 20
50.4653699702277621
 30
0.0
 11
74.9265000000000327
 21
57.0362919917492519
 31
0.0
  0
LINE
  5
5C01
  8
0
 10
67.0
 20
300.6974207777967081
 30
0.0
 11
66.9999999999998863
 21
297.2333191626588018
 31
0.0
  0
LINE
  5
5C02
  8
0
 10
72.9999999999998863
 20
300.6974207777965944
 30
0.0
 11
72.9999999999998863
 21
297.2333191626589155
 31
0.0
  0
LINE
  5
5C03
  8
0
 10
66.9999999999998863
 20
297.2333191626589155
 30
0.0
 11
69.9999999999998863
 21
295.5012683550900192
 31
0.0
  0
LINE
  5
5C05
  8
0
 10
72.9999999999998863
 20
297.2333191626589155
 30
0.0
 11
69.9999999999998863
 21
295.5012683550900192
 31
0.0
  0
LINE
  5
5C06
  8
0
 10
69.9999999999998863
 20
302.4294715853654907
 30
0.0
 11
67.0
 21
300.6974207777965944
 31
0.0
  0
LINE
  5
5C07
  8
0
 10
69.9999999999998863
 20
302.4294715853656044
 30
0.0
 11
72.9999999999998863
 21
300.6974207777967081
 31
0.0
  0
CIRCLE
  5
5C1D
  8
0
 10
69.9999999999998863
 20
298.9653699702278118
 30
0.0
 40
10.0
  0
LINE
  5
5C1E
  8
0
 10
67.0
 20
173.6974207777967081
 30
0.0
 11
66.9999999999998863
 21
170.2333191626588018
 31
0.0
  0
LINE
  5
5C1F
  8
0
 10
72.9999999999998863
 20
173.6974207777965944
 30
0.0
 11
72.9999999999998863
 21
170.2333191626588871
 31
0.0
  0
LINE
  5
5C20
  8
0
 10
66.9999999999998863
 20
170.2333191626588018
 30
0.0
 11
69.9999999999998863
 21
168.5012683550899908
 31
0.0
  0
LINE
  5
5C21
  8
0
 10
69.9999999999998863
 20
175.4294715853656044
 30
0.0
 11
72.9999999999998863
 21
173.6974207777967081
 31
0.0
  0
LINE
  5
5C22
  8
0
 10
72.9999999999998863
 20
170.2333191626588871
 30
0.0
 11
69.9999999999998863
 21
168.5012683550899055
 31
0.0
  0
LINE
  5
5C23
  8
0
 10
69.9999999999998863
 20
175.4294715853654907
 30
0.0
 11
67.0
 21
173.6974207777965944
 31
0.0
  0
CIRCLE
  5
5C26
  8
0
 10
69.9999999999998863
 20
171.9653699702276981
 30
0.0
 40
10.0
  0
LINE
  5
5C39
  8
0
 10
199.0328562465325035
 20
170.1271956368273948
 30
0.0
 11
196.535537239277005
 21
167.5230936583257062
 31
0.0
  0
LINE
  5
5C3A
  8
0
 10
196.2013600739603874
 20
167.8950151924528882
 30
0.0
 11
198.6986790743019924
 21
170.4991171647421879
 31
0.0
  0
LINE
  5
5C3B
  8
0
 10
197.8809014845851948
 20
168.9259843914815065
 30
0.0
 11
197.8809013631812945
 21
166.7490914808765012
 31
0.0
  0
LINE
  5
5C3C
  8
0
 10
196.535537239277005
 20
167.5230936583257062
 30
0.0
 11
196.2013600739603874
 21
167.8950151924528882
 31
0.0
  0
LINE
  5
5C3D
  8
0
 10
199.1460393218332001
 20
166.9808591513717033
 30
0.0
 11
199.3308342842861975
 21
166.5162616619055029
 31
0.0
  0
LINE
  5
5C3E
  8
0
 10
199.3308342842861975
 20
166.5162616619055029
 30
0.0
 11
196.0865512596240876
 21
164.9374719373614937
 31
0.0
  0
LINE
  5
5C3F
  8
0
 10
196.0865512596240876
 20
164.9374719373614937
 30
0.0
 11
195.9017563058077087
 21
165.4020694302631114
 31
0.0
  0
LINE
  5
5C40
  8
0
 10
195.9017563058077087
 20
165.4020694302631114
 30
0.0
 11
199.1460393218332001
 21
166.9808591513717033
 31
0.0
  0
LINE
  5
5C41
  8
0
 10
197.1060542535508944
 20
168.1180054342437131
 30
0.0
 11
197.1060542308175911
 21
167.6288502680303907
 31
0.0
  0
LINE
  5
5C42
  8
0
 10
196.7858739139938962
 20
165.2777885535344069
 30
0.0
 11
197.8809012262987039
 21
164.2946528926865142
 31
0.0
  0
LINE
  5
5C43
  8
0
 10
199.3308342842861975
 20
166.5162616619055029
 30
0.0
 11
197.8809012157601899
 21
164.1056854590025864
 31
0.0
  0
LINE
  5
5C44
  8
0
 10
196.8793142976865909
 20
167.8862900135480913
 30
0.0
 11
198.1175769603179049
 21
166.48037081638779
 31
0.0
  0
LINE
  5
5C45
  8
0
 10
197.6894962904027864
 20
166.2720507166527
 30
0.0
 11
196.5864552371448042
 21
167.5761888610628034
 31
0.0
  0
LINE
  5
5C46
  8
0
 10
197.1060541998197948
 20
166.9618610216602974
 30
0.0
 11
197.1060541545658964
 21
165.9881259041837893
 31
0.0
  0
LINE
  5
5C47
  8
0
 10
197.8809010876489936
 20
161.8085251670794094
 30
0.0
 11
197.1060539603211907
 21
161.8085252367527005
 31
0.0
  0
LINE
  5
5C48
  8
0
 10
197.8809013108460988
 20
165.810669929512386
 30
0.0
 11
197.8809010876489936
 21
161.8085251468338868
 31
0.0
  0
LINE
  5
5C49
  8
0
 10
197.1060540799651903
 20
164.3829278088149977
 30
0.0
 11
197.1060539603211907
 21
161.8085252367527005
 31
0.0
  0
LINE
  5
5C4A
  8
0
 10
197.8809011908327875
 20
163.6587138122550869
 30
0.0
 11
196.3755968944074937
 21
165.0656525815462885
 31
0.0
  0
LINE
  5
5C4B
  8
0
 10
198.9475003514118043
 20
179.4115678842532873
 30
0.0
 11
199.2055569580084864
 21
178.9833076909617091
 31
0.0
  0
LINE
  5
5C4C
  8
0
 10
196.0039668474047119
 20
177.3250493048157921
 30
0.0
 11
198.9475003514118043
 21
179.4115678842532873
 31
0.0
  0
LINE
  5
5C4D
  8
0
 10
198.3457991199655908
 20
178.9850530180308112
 30
0.0
 11
197.1060548267120112
 21
180.4508169779225
 31
0.0
  0
LINE
  5
5C4E
  8
0
 10
196.1507417241537894
 20
177.4290904196577969
 30
0.0
 11
197.1061454520383052
 21
180.0784515014375984
 31
0.0
  0
LINE
  5
5C4F
  8
0
 10
197.1060549130480126
 20
182.3085252367527005
 30
0.0
 11
197.1060547177499984
 21
178.1062623654171944
 31
0.0
  0
LINE
  5
5C50
  8
0
 10
199.2055569580084864
 20
178.9833076909617091
 30
0.0
 11
196.2620234460403879
 21
176.8967891067269989
 31
0.0
  0
LINE
  5
5C51
  8
0
 10
196.2620234460403879
 20
176.8967891067269989
 30
0.0
 11
196.0039668474047119
 21
177.3250493048157921
 31
0.0
  0
LINE
  5
5C52
  8
0
 10
198.5517901137349099
 20
176.7420357424394979
 30
0.0
 11
198.9148181391545904
 21
176.3982179736632929
 31
0.0
  0
LINE
  5
5C53
  8
0
 10
198.9148181391545904
 20
176.3982179736632929
 30
0.0
 11
196.6351991891384046
 21
173.6015616163028881
 31
0.0
  0
LINE
  5
5C54
  8
0
 10
196.6351991891384046
 20
173.6015616163028881
 30
0.0
 11
196.2721711701101981
 21
173.9453793918277995
 31
0.0
  0
LINE
  5
5C55
  8
0
 10
196.2721711701101981
 20
173.9453793918277995
 30
0.0
 11
198.5517901137349099
 21
176.7420357424394979
 31
0.0
  0
LINE
  5
5C56
  8
0
 10
198.6618978486627043
 20
173.5710298929218993
 30
0.0
 11
199.0066243578316119
 21
173.2088646830482901
 31
0.0
  0
LINE
  5
5C57
  8
0
 10
197.8809018305682059
 20
175.1298004526709917
 30
0.0
 11
197.8809017035474085
 21
172.8521949145169003
 31
0.0
  0
LINE
  5
5C58
  8
0
 10
197.1060545352424072
 20
174.1792110506829943
 30
0.0
 11
197.1060545144563037
 21
173.7319537660793003
 31
0.0
  0
LINE
  5
5C59
  8
0
 10
197.8809019931096032
 20
178.0443283347821932
 30
0.0
 11
197.8809018745803883
 21
175.9189842145387956
 31
0.0
  0
LINE
  5
5C5A
  8
0
 10
197.1060546893455125
 20
177.4950791780547092
 30
0.0
 11
197.106054650667204
 21
176.6628323921912909
 31
0.0
  0
LINE
  5
5C5B
  8
0
 10
197.5275649786534018
 20
175.4855074369118881
 30
0.0
 11
196.3069602433529894
 21
176.928642476946095
 31
0.0
  0
LINE
  5
5C5C
  8
0
 10
196.6581034550002869
 20
177.1714346495193979
 30
0.0
 11
197.8233663528270085
 21
175.8483991359458116
 31
0.0
  0
LINE
  5
5C5D
  8
0
 10
197.6182004227036089
 20
172.4573687513588141
 30
0.0
 11
196.6556680945805908
 21
173.5953818113675027
 31
0.0
  0
LINE
  5
5C5E
  8
0
 10
196.916715652837496
 20
173.946928462766607
 30
0.0
 11
197.9276162579525078
 21
172.7991553690256978
 31
0.0
  0
LINE
  5
5C5F
  8
0
 10
197.1060546191125127
 20
175.9838639908386142
 30
0.0
 11
197.1060545719192874
 21
174.968394803180189
 31
0.0
  0
LINE
  5
5C60
  8
0
 10
196.5851666739064001
 20
170.5340764627596002
 30
0.0
 11
196.2404401714701123
 21
170.8962416790415091
 31
0.0
  0
LINE
  5
5C61
  8
0
 10
198.6986790743019924
 20
170.4991171647421879
 30
0.0
 11
199.0328562465325035
 21
170.1271956368273948
 31
0.0
  0
LINE
  5
5C62
  8
0
 10
197.8809016540897971
 20
171.9653699702276981
 30
0.0
 11
197.8809015293512061
 21
169.7286837462638118
 31
0.0
  0
LINE
  5
5C63
  8
0
 10
197.1060543925771924
 20
171.1094589454860966
 30
0.0
 11
197.1060543692927922
 21
170.6084425648624858
 31
0.0
  0
LINE
  5
5C64
  8
0
 10
197.6002630548580896
 20
169.3537339268631001
 30
0.0
 11
196.627297276808406
 21
170.5040825749142073
 31
0.0
  0
LINE
  5
5C65
  8
0
 10
196.8823879120485003
 20
170.8623926963574036
 30
0.0
 11
197.9186910752906954
 21
169.6857776248957919
 31
0.0
  0
LINE
  5
5C66
  8
0
 10
197.1060543381362038
 20
169.9380425859770867
 30
0.0
 11
197.1060542870305881
 21
168.8383932647986114
 31
0.0
  0
LINE
  5
5C67
  8
0
 10
199.0066243578316119
 20
173.2088646830482901
 30
0.0
 11
196.5851666739064001
 21
170.5340764627596002
 31
0.0
  0
LINE
  5
5C68
  8
0
 10
196.2404401714701123
 20
170.8962416790415091
 30
0.0
 11
198.6618978486627043
 21
173.5710298929218993
 31
0.0
  0
LINE
  5
5C69
  8
0
 10
197.1060544833615893
 20
173.0628847954153002
 30
0.0
 11
197.106054427105704
 21
171.8524156524908904
 31
0.0
  0
LINE
  5
5C6A
  8
0
 10
197.8809022309210945
 20
182.3085251851778992
 30
0.0
 11
197.1060549130480126
 21
182.308525213986286
 31
0.0
  0
LINE
  5
5C6B
  8
0
 10
197.8809022309210945
 20
182.308525213986286
 30
0.0
 11
197.8809021143896132
 21
180.2189971717131129
 31
0.0
  0
LINE
  5
5C6C
  8
0
 10
197.1060548568246986
 20
181.0987561010203137
 30
0.0
 11
198.7286667673953104
 21
179.2564480807131986
 31
0.0
  0
LINE
  5
5C6D
  8
0
 10
199.3308341778678141
 20
177.9653699702276128
 30
0.0
 11
197.880901988706114
 21
177.9653699702276128
 31
0.0
  0
LINE
  5
5C6E
  8
0
 10
196.3441330611543094
 20
177.9653699702276981
 30
0.0
 11
195.9017563058077087
 21
177.9653699702276981
 31
0.0
  0
LINE
  5
5C6F
  8
3
 10
199.3308341866703017
 20
176.8918699702277877
 30
0.0
 11
197.8809019358926093
 21
176.8918699702277877
 31
0.0
  0
LINE
  5
5C70
  8
3
 10
197.1060546671909037
 20
176.8918699702277877
 30
0.0
 11
196.9043299130048865
 21
176.8918699702277877
 31
0.0
  0
LINE
  5
5C71
  8
3
 10
196.338062458034301
 20
176.8918699702277877
 30
0.0
 11
195.9017563058077087
 21
176.8918699702277877
 31
0.0
  0
LINE
  5
5C72
  8
0
 10
199.3308342894065959
 20
165.9653699702280107
 30
0.0
 11
198.9994794488831076
 21
165.9653699702280107
 31
0.0
  0
LINE
  5
5C73
  8
0
 10
197.0592925820396033
 20
165.9653699702276128
 30
0.0
 11
195.9017563058077087
 21
165.9653699702276128
 31
0.0
  0
LINE
  5
5C74
  8
3
 10
199.3308342842863112
 20
167.0388699702282054
 30
0.0
 11
197.8809013722867007
 21
167.0388699702278927
 31
0.0
  0
LINE
  5
5C75
  8
3
 10
197.0409199714389956
 20
167.0388699702278075
 30
0.0
 11
195.9017563058077087
 21
167.0388699702276938
 31
0.0
  0
LINE
  5
5C76
  8
0
 10
214.828256305807713
 20
177.9653699702276981
 30
0.0
 11
209.3631044870450069
 21
177.9653699702276981
 31
0.0
  0
LINE
  5
5C77
  8
0
 10
209.3631044870450069
 20
165.9653699702276981
 30
0.0
 11
214.828256305807713
 21
165.9653699702276981
 31
0.0
  0
LINE
  5
5C78
  8
0
 10
215.9017563058077087
 20
176.8918699702277877
 30
0.0
 11
214.828256305807713
 21
177.9653699702276981
 31
0.0
  0
LINE
  5
5C79
  8
0
 10
214.828256305807713
 20
165.9653699702276981
 30
0.0
 11
215.9017563058077087
 21
167.0388699702276938
 31
0.0
  0
LINE
  5
5C7A
  8
0
 10
214.828256305807713
 20
165.9653699702276981
 30
0.0
 11
214.828256305807713
 21
177.9653699702276981
 31
0.0
  0
LINE
  5
5C7B
  8
0
 10
215.9017563058077087
 20
167.0388699702276938
 30
0.0
 11
215.9017563058077087
 21
176.8918699702277877
 31
0.0
  0
LINE
  5
5C7C
  8
0
 10
209.3308342842861975
 20
162.4653699702276981
 30
0.0
 11
209.3308342842861975
 21
181.4653699702276981
 31
0.0
  0
LINE
  5
5C7D
  8
0
 10
199.3308342842861975
 20
162.4653699702276981
 30
0.0
 11
199.3308342842861975
 21
181.4653699702276981
 31
0.0
  0
POLYLINE
  5
5C7E
  8
0
 66
     1
 10
0.0
 20
0.0
 30
0.0
 70
     8
  0
VERTEX
  5
5C7F
  8
0
 10
208.4823285082543123
 20
171.9653699702276981
 30
0.0
 70
    32
  0
VERTEX
  5
5C80
  8
0
 10
208.5282802936104076
 20
171.8259691874816895
 30
0.0
 70
    32
  0
VERTEX
  5
5C81
  8
0
 10
208.6161987142675116
 20
171.5498274796204896
 30
0.0
 70
    32
  0
VERTEX
  5
5C82
  8
0
 10
208.6988756565679921
 20
171.2769478378517078
 30
0.0
 70
    32
  0
VERTEX
  5
5C83
  8
0
 10
208.7382725384223932
 20
171.1416260329388024
 30
0.0
 70
    32
  0
VERTEX
  5
5C84
  8
0
 10
208.7763861970524033
 20
171.0069940548360137
 30
0.0
 70
    32
  0
VERTEX
  5
5C85
  8
0
 10
208.8487925612618881
 20
170.7396344706689035
 30
0.0
 70
    32
  0
VERTEX
  5
5C86
  8
0
 10
208.9161442327045108
 20
170.4745405762836015
 30
0.0
 70
    32
  0
VERTEX
  5
5C87
  8
0
 10
208.9784779794877068
 20
170.2113856143560042
 30
0.0
 70
    32
  0
VERTEX
  5
5C88
  8
0
 10
209.0358177971272085
 20
169.9498431646653103
 30
0.0
 70
    32
  0
VERTEX
  5
5C89
  8
0
 10
209.0881747649586089
 20
169.6895857003331116
 30
0.0
 70
    32
  0
VERTEX
  5
5C8A
  8
0
 10
209.1124845551306066
 20
169.5598358180631919
 30
0.0
 70
    32
  0
VERTEX
  5
5C8B
  8
0
 10
209.1355468124270942
 20
169.4302831005954033
 30
0.0
 70
    32
  0
VERTEX
  5
5C8C
  8
0
 10
209.1779183902629029
 20
169.1716011047348047
 30
0.0
 70
    32
  0
VERTEX
  5
5C8D
  8
0
 10
209.2152600401686016
 20
168.9131996904829975
 30
0.0
 70
    32
  0
VERTEX
  5
5C8E
  8
0
 10
209.2475278550845132
 20
168.6547313585500945
 30
0.0
 70
    32
  0
VERTEX
  5
5C8F
  8
0
 10
209.2746628203354078
 20
168.3958393029093941
 30
0.0
 70
    32
  0
VERTEX
  5
5C90
  8
0
 10
209.2965900239443897
 20
168.1361554439797885
 30
0.0
 70
    32
  0
VERTEX
  5
5C91
  8
0
 10
209.3055727314641103
 20
168.0058979604791887
 30
0.0
 70
    32
  0
VERTEX
  5
5C92
  8
0
 10
209.3132177220705898
 20
167.8752982988455926
 30
0.0
 70
    32
  0
VERTEX
  5
5C93
  8
0
 10
209.3244362428067973
 20
167.6128706590160959
 30
0.0
 70
    32
  0
VERTEX
  5
5C94
  8
0
 10
209.3301167083961047
 20
167.3484570418482917
 30
0.0
 70
    32
  0
VERTEX
  5
5C95
  8
0
 10
209.3308342842861975
 20
167.2153699702276981
 30
0.0
 70
    32
  0
SEQEND
  5
5C96
  8
0
  0
POLYLINE
  5
5C97
  8
0
 66
     1
 10
0.0
 20
0.0
 30
0.0
 70
     8
  0
VERTEX
  5
5C98
  8
0
 10
209.3308342842861975
 20
167.2153699702276981
 30
0.0
 70
    32
  0
VERTEX
  5
5C99
  8
0
 10
209.3301167083961047
 20
167.0822828986071045
 30
0.0
 70
    32
  0
VERTEX
  5
5C9A
  8
0
 10
209.3244362428067973
 20
166.817869281439414
 30
0.0
 70
    32
  0
VERTEX
  5
5C9B
  8
0
 10
209.3132177220705898
 20
166.5554416416098888
 30
0.0
 70
    32
  0
VERTEX
  5
5C9C
  8
0
 10
209.3055727314641103
 20
166.4248419799762928
 30
0.0
 70
    32
  0
VERTEX
  5
5C9D
  8
0
 10
209.2965900239443897
 20
166.294584496475693
 30
0.0
 70
    32
  0
VERTEX
  5
5C9E
  8
0
 10
209.2746628203354078
 20
166.0349006375460874
 30
0.0
 70
    32
  0
VERTEX
  5
5C9F
  8
0
 10
209.2475278550845132
 20
165.776008581905387
 30
0.0
 70
    32
  0
VERTEX
  5
5CA0
  8
0
 10
209.2152600401686016
 20
165.5175402499725124
 30
0.0
 70
    32
  0
VERTEX
  5
5CA1
  8
0
 10
209.1779183902629029
 20
165.2591388357205915
 30
0.0
 70
    32
  0
VERTEX
  5
5CA2
  8
0
 10
209.1355468124270942
 20
165.0004568398601066
 30
0.0
 70
    32
  0
VERTEX
  5
5CA3
  8
0
 10
209.1124845551306066
 20
164.8709041223922895
 30
0.0
 70
    32
  0
VERTEX
  5
5CA4
  8
0
 10
209.0881747649586089
 20
164.7411542401223983
 30
0.0
 70
    32
  0
VERTEX
  5
5CA5
  8
0
 10
209.0358177971272085
 20
164.4808967757901996
 30
0.0
 70
    32
  0
VERTEX
  5
5CA6
  8
0
 10
208.9784779794877068
 20
164.2193543260995057
 30
0.0
 70
    32
  0
VERTEX
  5
5CA7
  8
0
 10
208.9161442327045108
 20
163.9561993641717947
 30
0.0
 70
    32
  0
VERTEX
  5
5CA8
  8
0
 10
208.8487925612618881
 20
163.6911054697866064
 30
0.0
 70
    32
  0
VERTEX
  5
5CA9
  8
0
 10
208.7763861970524033
 20
163.423745885619411
 30
0.0
 70
    32
  0
VERTEX
  5
5CAA
  8
0
 10
208.7382725384223932
 20
163.2891139075165938
 30
0.0
 70
    32
  0
VERTEX
  5
5CAB
  8
0
 10
208.6988756565679921
 20
163.153792102603802
 30
0.0
 70
    32
  0
VERTEX
  5
5CAC
  8
0
 10
208.6161987142675116
 20
162.8809124608349066
 30
0.0
 70
    32
  0
VERTEX
  5
5CAD
  8
0
 10
208.5282802936104076
 20
162.604770752973792
 30
0.0
 70
    32
  0
VERTEX
  5
5CAE
  8
0
 10
208.4823285082543123
 20
162.4653699702276981
 30
0.0
 70
    32
  0
SEQEND
  5
5CAF
  8
0
  0
POLYLINE
  5
5CB0
  8
0
 66
     1
 10
0.0
 20
0.0
 30
0.0
 70
     8
  0
VERTEX
  5
5CB1
  8
0
 10
200.1793400603181112
 20
162.4653699702276981
 30
0.0
 70
    32
  0
VERTEX
  5
5CB2
  8
0
 10
200.1333882749619875
 20
162.604770752973792
 30
0.0
 70
    32
  0
VERTEX
  5
5CB3
  8
0
 10
200.0454698543049119
 20
162.8809124608349066
 30
0.0
 70
    32
  0
VERTEX
  5
5CB4
  8
0
 10
199.962792912004403
 20
163.153792102603802
 30
0.0
 70
    32
  0
VERTEX
  5
5CB5
  8
0
 10
199.9233960301500019
 20
163.2891139075165938
 30
0.0
 70
    32
  0
VERTEX
  5
5CB6
  8
0
 10
199.8852823715199918
 20
163.423745885619411
 30
0.0
 70
    32
  0
VERTEX
  5
5CB7
  8
0
 10
199.812876007310507
 20
163.6911054697866064
 30
0.0
 70
    32
  0
VERTEX
  5
5CB8
  8
0
 10
199.7455243358679127
 20
163.9561993641717947
 30
0.0
 70
    32
  0
VERTEX
  5
5CB9
  8
0
 10
199.6831905890844894
 20
164.219354326099392
 30
0.0
 70
    32
  0
VERTEX
  5
5CBA
  8
0
 10
199.6258507714451866
 20
164.4808967757901996
 30
0.0
 70
    32
  0
VERTEX
  5
5CBB
  8
0
 10
199.5734938036137862
 20
164.7411542401223983
 30
0.0
 70
    32
  0
VERTEX
  5
5CBC
  8
0
 10
199.5491840134417032
 20
164.8709041223922895
 30
0.0
 70
    32
  0
VERTEX
  5
5CBD
  8
0
 10
199.5261217561451872
 20
165.0004568398601066
 30
0.0
 70
    32
  0
VERTEX
  5
5CBE
  8
0
 10
199.4837501783094922
 20
165.2591388357205915
 30
0.0
 70
    32
  0
VERTEX
  5
5CBF
  8
0
 10
199.4464085284037935
 20
165.5175402499725124
 30
0.0
 70
    32
  0
VERTEX
  5
5CC0
  8
0
 10
199.4141407134879103
 20
165.776008581905387
 30
0.0
 70
    32
  0
VERTEX
  5
5CC1
  8
0
 10
199.387005748237101
 20
166.0349006375460874
 30
0.0
 70
    32
  0
VERTEX
  5
5CC2
  8
0
 10
199.3650785446278917
 20
166.294584496475693
 30
0.0
 70
    32
  0
VERTEX
  5
5CC3
  8
0
 10
199.3560958371081995
 20
166.4248419799762928
 30
0.0
 70
    32
  0
VERTEX
  5
5CC4
  8
0
 10
199.3484508465018052
 20
166.5554416416098888
 30
0.0
 70
    32
  0
VERTEX
  5
5CC5
  8
0
 10
199.3372323257655978
 20
166.817869281439414
 30
0.0
 70
    32
  0
VERTEX
  5
5CC6
  8
0
 10
199.3315518601762903
 20
167.0822828986071045
 30
0.0
 70
    32
  0
VERTEX
  5
5CC7
  8
0
 10
199.3308342842861975
 20
167.2153699702276981
 30
0.0
 70
    32
  0
SEQEND
  5
5CC8
  8
0
  0
POLYLINE
  5
5CC9
  8
0
 66
     1
 10
0.0
 20
0.0
 30
0.0
 70
     8
  0
VERTEX
  5
5CCA
  8
0
 10
199.3308342842861975
 20
167.2153699702276981
 30
0.0
 70
    32
  0
VERTEX
  5
5CCB
  8
0
 10
199.3315518601762903
 20
167.3484570418482917
 30
0.0
 70
    32
  0
VERTEX
  5
5CCC
  8
0
 10
199.3372323257655978
 20
167.6128706590160959
 30
0.0
 70
    32
  0
VERTEX
  5
5CCD
  8
0
 10
199.3484508465018052
 20
167.8752982988455926
 30
0.0
 70
    32
  0
VERTEX
  5
5CCE
  8
0
 10
199.3560958371081995
 20
168.0058979604791887
 30
0.0
 70
    32
  0
VERTEX
  5
5CCF
  8
0
 10
199.3650785446278917
 20
168.1361554439797885
 30
0.0
 70
    32
  0
VERTEX
  5
5CD0
  8
0
 10
199.3870057482369873
 20
168.3958393029093941
 30
0.0
 70
    32
  0
VERTEX
  5
5CD1
  8
0
 10
199.4141407134879103
 20
168.6547313585500945
 30
0.0
 70
    32
  0
VERTEX
  5
5CD2
  8
0
 10
199.4464085284037935
 20
168.9131996904829975
 30
0.0
 70
    32
  0
VERTEX
  5
5CD3
  8
0
 10
199.4837501783094922
 20
169.1716011047348047
 30
0.0
 70
    32
  0
VERTEX
  5
5CD4
  8
0
 10
199.5261217561451872
 20
169.4302831005954033
 30
0.0
 70
    32
  0
VERTEX
  5
5CD5
  8
0
 10
199.5491840134417032
 20
169.5598358180631919
 30
0.0
 70
    32
  0
VERTEX
  5
5CD6
  8
0
 10
199.5734938036137862
 20
169.6895857003331116
 30
0.0
 70
    32
  0
VERTEX
  5
5CD7
  8
0
 10
199.6258507714451866
 20
169.9498431646653103
 30
0.0
 70
    32
  0
VERTEX
  5
5CD8
  8
0
 10
199.6831905890844894
 20
170.2113856143560042
 30
0.0
 70
    32
  0
VERTEX
  5
5CD9
  8
0
 10
199.7455243358679127
 20
170.4745405762836015
 30
0.0
 70
    32
  0
VERTEX
  5
5CDA
  8
0
 10
199.812876007310507
 20
170.7396344706689035
 30
0.0
 70
    32
  0
VERTEX
  5
5CDB
  8
0
 10
199.8852823715199918
 20
171.0069940548360137
 30
0.0
 70
    32
  0
VERTEX
  5
5CDC
  8
0
 10
199.9233960301500019
 20
171.1416260329388024
 30
0.0
 70
    32
  0
VERTEX
  5
5CDD
  8
0
 10
199.962792912004403
 20
171.2769478378517078
 30
0.0
 70
    32
  0
VERTEX
  5
5CDE
  8
0
 10
200.0454698543049119
 20
171.5498274796204896
 30
0.0
 70
    32
  0
VERTEX
  5
5CDF
  8
0
 10
200.1333882749619875
 20
171.8259691874816895
 30
0.0
 70
    32
  0
VERTEX
  5
5CE0
  8
0
 10
200.1793400603181112
 20
171.9653699702276981
 30
0.0
 70
    32
  0
SEQEND
  5
5CE1
  8
0
  0
LINE
  5
5CE2
  8
0
 10
199.3308342842861975
 20
162.4653699702276981
 30
0.0
 11
209.3308342842861975
 21
162.4653699702276981
 31
0.0
  0
LINE
  5
5CE3
  8
0
 10
209.3308342842861975
 20
181.4653699702276981
 30
0.0
 11
199.3308342842861975
 21
181.4653699702276981
 31
0.0
  0
POLYLINE
  5
5CE4
  8
0
 66
     1
 10
0.0
 20
0.0
 30
0.0
 70
     8
  0
VERTEX
  5
5CE5
  8
0
 10
199.3308342842861975
 20
176.7153699702276981
 30
0.0
 70
    32
  0
VERTEX
  5
5CE6
  8
0
 10
199.3315518601762903
 20
176.8484570418482917
 30
0.0
 70
    32
  0
VERTEX
  5
5CE7
  8
0
 10
199.3372323257655978
 20
177.1128706590160959
 30
0.0
 70
    32
  0
VERTEX
  5
5CE8
  8
0
 10
199.3484508465018052
 20
177.3752982988455074
 30
0.0
 70
    32
  0
VERTEX
  5
5CE9
  8
0
 10
199.3560958371081995
 20
177.5058979604791887
 30
0.0
 70
    32
  0
VERTEX
  5
5CEA
  8
0
 10
199.3650785446278917
 20
177.6361554439797885
 30
0.0
 70
    32
  0
VERTEX
  5
5CEB
  8
0
 10
199.387005748237101
 20
177.8958393029093088
 30
0.0
 70
    32
  0
VERTEX
  5
5CEC
  8
0
 10
199.4141407134879103
 20
178.1547313585500945
 30
0.0
 70
    32
  0
VERTEX
  5
5CED
  8
0
 10
199.4464085284037935
 20
178.4131996904829975
 30
0.0
 70
    32
  0
VERTEX
  5
5CEE
  8
0
 10
199.4837501783094922
 20
178.6716011047348047
 30
0.0
 70
    32
  0
VERTEX
  5
5CEF
  8
0
 10
199.5261217561451872
 20
178.9302831005952896
 30
0.0
 70
    32
  0
VERTEX
  5
5CF0
  8
0
 10
199.5491840134417032
 20
179.0598358180631067
 30
0.0
 70
    32
  0
VERTEX
  5
5CF1
  8
0
 10
199.5734938036137862
 20
179.1895857003331116
 30
0.0
 70
    32
  0
VERTEX
  5
5CF2
  8
0
 10
199.6258507714451866
 20
179.4498431646653103
 30
0.0
 70
    32
  0
VERTEX
  5
5CF3
  8
0
 10
199.6831905890844894
 20
179.7113856143560042
 30
0.0
 70
    32
  0
VERTEX
  5
5CF4
  8
0
 10
199.7455243358679127
 20
179.9745405762836015
 30
0.0
 70
    32
  0
VERTEX
  5
5CF5
  8
0
 10
199.812876007310507
 20
180.2396344706689035
 30
0.0
 70
    32
  0
VERTEX
  5
5CF6
  8
0
 10
199.8852823715199918
 20
180.5069940548360137
 30
0.0
 70
    32
  0
VERTEX
  5
5CF7
  8
0
 10
199.9233960301500019
 20
180.6416260329388024
 30
0.0
 70
    32
  0
VERTEX
  5
5CF8
  8
0
 10
199.962792912004403
 20
180.7769478378517078
 30
0.0
 70
    32
  0
VERTEX
  5
5CF9
  8
0
 10
200.0454698543049119
 20
181.0498274796204896
 30
0.0
 70
    32
  0
VERTEX
  5
5CFA
  8
0
 10
200.1333882749619875
 20
181.3259691874816895
 30
0.0
 70
    32
  0
VERTEX
  5
5CFB
  8
0
 10
200.1793400603181112
 20
181.4653699702276981
 30
0.0
 70
    32
  0
SEQEND
  5
5CFC
  8
0
  0
POLYLINE
  5
5CFD
  8
0
 66
     1
 10
0.0
 20
0.0
 30
0.0
 70
     8
  0
VERTEX
  5
5CFE
  8
0
 10
208.4823285082543123
 20
181.4653699702276981
 30
0.0
 70
    32
  0
VERTEX
  5
5CFF
  8
0
 10
208.5282802936104076
 20
181.3259691874816895
 30
0.0
 70
    32
  0
VERTEX
  5
5D00
  8
0
 10
208.6161987142675116
 20
181.0498274796204896
 30
0.0
 70
    32
  0
VERTEX
  5
5D01
  8
0
 10
208.6988756565679921
 20
180.7769478378517078
 30
0.0
 70
    32
  0
VERTEX
  5
5D02
  8
0
 10
208.7382725384223932
 20
180.6416260329388024
 30
0.0
 70
    32
  0
VERTEX
  5
5D03
  8
0
 10
208.7763861970524033
 20
180.5069940548360137
 30
0.0
 70
    32
  0
VERTEX
  5
5D04
  8
0
 10
208.8487925612618881
 20
180.2396344706689035
 30
0.0
 70
    32
  0
VERTEX
  5
5D05
  8
0
 10
208.9161442327045108
 20
179.9745405762834878
 30
0.0
 70
    32
  0
VERTEX
  5
5D06
  8
0
 10
208.9784779794877068
 20
179.7113856143560042
 30
0.0
 70
    32
  0
VERTEX
  5
5D07
  8
0
 10
209.0358177971272085
 20
179.4498431646653103
 30
0.0
 70
    32
  0
VERTEX
  5
5D08
  8
0
 10
209.0881747649586089
 20
179.1895857003331116
 30
0.0
 70
    32
  0
VERTEX
  5
5D09
  8
0
 10
209.1124845551306066
 20
179.0598358180631067
 30
0.0
 70
    32
  0
VERTEX
  5
5D0A
  8
0
 10
209.1355468124270942
 20
178.9302831005952896
 30
0.0
 70
    32
  0
VERTEX
  5
5D0B
  8
0
 10
209.1779183902629029
 20
178.6716011047348047
 30
0.0
 70
    32
  0
VERTEX
  5
5D0C
  8
0
 10
209.2152600401686016
 20
178.4131996904829123
 30
0.0
 70
    32
  0
VERTEX
  5
5D0D
  8
0
 10
209.2475278550845132
 20
178.1547313585500945
 30
0.0
 70
    32
  0
VERTEX
  5
5D0E
  8
0
 10
209.2746628203354078
 20
177.8958393029093088
 30
0.0
 70
    32
  0
VERTEX
  5
5D0F
  8
0
 10
209.2965900239443897
 20
177.6361554439797885
 30
0.0
 70
    32
  0
VERTEX
  5
5D10
  8
0
 10
209.3055727314641103
 20
177.5058979604791887
 30
0.0
 70
    32
  0
VERTEX
  5
5D11
  8
0
 10
209.3132177220705898
 20
177.3752982988455074
 30
0.0
 70
    32
  0
VERTEX
  5
5D12
  8
0
 10
209.3244362428067973
 20
177.1128706590160959
 30
0.0
 70
    32
  0
VERTEX
  5
5D13
  8
0
 10
209.3301167083961047
 20
176.8484570418482917
 30
0.0
 70
    32
  0
VERTEX
  5
5D14
  8
0
 10
209.3308342842861975
 20
176.7153699702276981
 30
0.0
 70
    32
  0
SEQEND
  5
5D15
  8
0
  0
POLYLINE
  5
5D16
  8
0
 66
     1
 10
0.0
 20
0.0
 30
0.0
 70
     8
  0
VERTEX
  5
5D17
  8
0
 10
209.3308342842861975
 20
176.7153699702276981
 30
0.0
 70
    32
  0
VERTEX
  5
5D18
  8
0
 10
209.3301167083961047
 20
176.5822828986071045
 30
0.0
 70
    32
  0
VERTEX
  5
5D19
  8
0
 10
209.3244362428067973
 20
176.317869281439414
 30
0.0
 70
    32
  0
VERTEX
  5
5D1A
  8
0
 10
209.3132177220705898
 20
176.0554416416098888
 30
0.0
 70
    32
  0
VERTEX
  5
5D1B
  8
0
 10
209.3055727314641103
 20
175.9248419799762928
 30
0.0
 70
    32
  0
VERTEX
  5
5D1C
  8
0
 10
209.2965900239443897
 20
175.794584496475693
 30
0.0
 70
    32
  0
VERTEX
  5
5D1D
  8
0
 10
209.2746628203354078
 20
175.5349006375460874
 30
0.0
 70
    32
  0
VERTEX
  5
5D1E
  8
0
 10
209.2475278550845132
 20
175.276008581905387
 30
0.0
 70
    32
  0
VERTEX
  5
5D1F
  8
0
 10
209.2152600401686016
 20
175.0175402499725124
 30
0.0
 70
    32
  0
VERTEX
  5
5D20
  8
0
 10
209.1779183902629029
 20
174.7591388357205915
 30
0.0
 70
    32
  0
VERTEX
  5
5D21
  8
0
 10
209.1355468124270942
 20
174.5004568398601066
 30
0.0
 70
    32
  0
VERTEX
  5
5D22
  8
0
 10
209.1124845551306066
 20
174.3709041223922895
 30
0.0
 70
    32
  0
VERTEX
  5
5D23
  8
0
 10
209.0881747649586089
 20
174.2411542401223983
 30
0.0
 70
    32
  0
VERTEX
  5
5D24
  8
0
 10
209.0358177971272085
 20
173.9808967757901996
 30
0.0
 70
    32
  0
VERTEX
  5
5D25
  8
0
 10
208.9784779794877068
 20
173.7193543260995057
 30
0.0
 70
    32
  0
VERTEX
  5
5D26
  8
0
 10
208.9161442327045108
 20
173.4561993641719084
 30
0.0
 70
    32
  0
VERTEX
  5
5D27
  8
0
 10
208.8487925612618881
 20
173.1911054697864927
 30
0.0
 70
    32
  0
VERTEX
  5
5D28
  8
0
 10
208.7763861970524033
 20
172.923745885619411
 30
0.0
 70
    32
  0
VERTEX
  5
5D29
  8
0
 10
208.7382725384223932
 20
172.7891139075167075
 30
0.0
 70
    32
  0
VERTEX
  5
5D2A
  8
0
 10
208.6988756565679921
 20
172.653792102603802
 30
0.0
 70
    32
  0
VERTEX
  5
5D2B
  8
0
 10
208.6161987142675116
 20
172.3809124608349066
 30
0.0
 70
    32
  0
VERTEX
  5
5D2C
  8
0
 10
208.5282802936104076
 20
172.104770752973792
 30
0.0
 70
    32
  0
VERTEX
  5
5D2D
  8
0
 10
208.4823285082543123
 20
171.9653699702276981
 30
0.0
 70
    32
  0
SEQEND
  5
5D2E
  8
0
  0
LINE
  5
5D2F
  8
0
 10
208.4823285082543123
 20
171.9653699702276981
 30
0.0
 11
200.1793400603181112
 21
171.9653699702276981
 31
0.0
  0
POLYLINE
  5
5D30
  8
0
 66
     1
 10
0.0
 20
0.0
 30
0.0
 70
     8
  0
VERTEX
  5
5D31
  8
0
 10
200.1793400603181112
 20
171.9653699702276981
 30
0.0
 70
    32
  0
VERTEX
  5
5D32
  8
0
 10
200.1333882749619875
 20
172.104770752973792
 30
0.0
 70
    32
  0
VERTEX
  5
5D33
  8
0
 10
200.0454698543049119
 20
172.3809124608349066
 30
0.0
 70
    32
  0
VERTEX
  5
5D34
  8
0
 10
199.962792912004403
 20
172.653792102603802
 30
0.0
 70
    32
  0
VERTEX
  5
5D35
  8
0
 10
199.9233960301500019
 20
172.7891139075165938
 30
0.0
 70
    32
  0
VERTEX
  5
5D36
  8
0
 10
199.8852823715199918
 20
172.923745885619411
 30
0.0
 70
    32
  0
VERTEX
  5
5D37
  8
0
 10
199.812876007310507
 20
173.1911054697864927
 30
0.0
 70
    32
  0
VERTEX
  5
5D38
  8
0
 10
199.7455243358679127
 20
173.4561993641719084
 30
0.0
 70
    32
  0
VERTEX
  5
5D39
  8
0
 10
199.6831905890844894
 20
173.7193543260995057
 30
0.0
 70
    32
  0
VERTEX
  5
5D3A
  8
0
 10
199.6258507714451866
 20
173.9808967757901996
 30
0.0
 70
    32
  0
VERTEX
  5
5D3B
  8
0
 10
199.5734938036137862
 20
174.2411542401223983
 30
0.0
 70
    32
  0
VERTEX
  5
5D3C
  8
0
 10
199.5491840134417032
 20
174.3709041223922895
 30
0.0
 70
    32
  0
VERTEX
  5
5D3D
  8
0
 10
199.5261217561451872
 20
174.5004568398601066
 30
0.0
 70
    32
  0
VERTEX
  5
5D3E
  8
0
 10
199.4837501783094922
 20
174.7591388357205915
 30
0.0
 70
    32
  0
VERTEX
  5
5D3F
  8
0
 10
199.4464085284037935
 20
175.0175402499725124
 30
0.0
 70
    32
  0
VERTEX
  5
5D40
  8
0
 10
199.4141407134879103
 20
175.276008581905387
 30
0.0
 70
    32
  0
VERTEX
  5
5D41
  8
0
 10
199.3870057482369873
 20
175.5349006375460874
 30
0.0
 70
    32
  0
VERTEX
  5
5D42
  8
0
 10
199.3650785446278917
 20
175.794584496475693
 30
0.0
 70
    32
  0
VERTEX
  5
5D43
  8
0
 10
199.3560958371081995
 20
175.9248419799762928
 30
0.0
 70
    32
  0
VERTEX
  5
5D44
  8
0
 10
199.3484508465018052
 20
176.0554416416098888
 30
0.0
 70
    32
  0
VERTEX
  5
5D45
  8
0
 10
199.3372323257655978
 20
176.317869281439414
 30
0.0
 70
    32
  0
VERTEX
  5
5D46
  8
0
 10
199.3315518601762903
 20
176.5822828986071045
 30
0.0
 70
    32
  0
VERTEX
  5
5D47
  8
0
 10
199.3308342842861975
 20
176.7153699702276981
 30
0.0
 70
    32
  0
SEQEND
  5
5D48
  8
0
  0
LINE
  5
5D49
  8
3
 10
215.9017563058077087
 20
176.8918699702277877
 30
0.0
 11
209.3631044870450069
 21
176.8918699702277877
 31
0.0
  0
LINE
  5
5D4A
  8
3
 10
215.9017563058077087
 20
167.0388699702276938
 30
0.0
 11
209.3631044870450069
 21
167.0388699702276938
 31
0.0
  0
TEXT
  5
61B0
  8
0
 62
     3
 10
0.0
 20
0.0
 30
0.0
 40
10.0
  1
CLR127GL-SR-SUS
  7
STANDARD1
  0
ENDSEC
  0
EOF
