  0
SECTION
  2
HEADER
  9
$ACADVER
  1
AC1009
  9
$INSBASE
 10
1703.1707656224901
 20
783.32809624924255
 30
0.0
  9
$EXTMIN
 10
0.0
 20
-1.4802182810368341
 30
0.0
  9
$EXTMAX
 10
141.9131657775315
 20
144.14004420643471
 30
0.0
  9
$LIMMIN
 10
0.0
 20
0.0
  9
$LIMMAX
 10
4205.0
 20
2970.0
  9
$ORTHOMODE
 70
     0
  9
$REGENMODE
 70
     1
  9
$FILLMODE
 70
     1
  9
$QTEXTMODE
 70
     0
  9
$MIRRTEXT
 70
     0
  9
$DRAGMODE
 70
     2
  9
$LTSCALE
 40
10.0
  9
$OSMODE
 70
  3071
  9
$ATTMODE
 70
     1
  9
$TEXTSIZE
 40
3.0
  9
$TRACEWID
 40
0.05
  9
$TEXTSTYLE
  7
STANDARD
  9
$CLAYER
  8
0
  9
$CELTYPE
  6
BYLAYER
  9
$CECOLOR
 62
   256
  9
$DIMSCALE
 40
5.0
  9
$DIMASZ
 40
1.5
  9
$DIMEXO
 40
2.0
  9
$DIMDLI
 40
10.0
  9
$DIMRND
 40
0.0
  9
$DIMDLE
 40
0.0
  9
$DIMEXE
 40
2.0
  9
$DIMTP
 40
0.0
  9
$DIMTM
 40
0.0
  9
$DIMTXT
 40
1.5
  9
$DIMCEN
 40
0.0
  9
$DIMTSZ
 40
0.0
  9
$DIMTOL
 70
     0
  9
$DIMLIM
 70
     0
  9
$DIMTIH
 70
     0
  9
$DIMTOH
 70
     0
  9
$DIMSE1
 70
     0
  9
$DIMSE2
 70
     0
  9
$DIMTAD
 70
     1
  9
$DIMZIN
 70
     0
  9
$DIMBLK
  1

  9
$DIMASO
 70
     0
  9
$DIMSHO
 70
     0
  9
$DIMPOST
  1

  9
$DIMAPOST
  1

  9
$DIMALT
 70
     0
  9
$DIMALTD
 70
     2
  9
$DIMALTF
 40
25.399999999999999
  9
$DIMLFAC
 40
1.0
  9
$DIMTOFL
 70
     1
  9
$DIMTVP
 40
1.6000000000000001
  9
$DIMTIX
 70
     1
  9
$DIMSOXD
 70
     0
  9
$DIMSAH
 70
     0
  9
$DIMBLK1
  1

  9
$DIMBLK2
  1

  9
$DIMSTYLE
  2
STANDARD
  9
$DIMCLRD
 70
     0
  9
$DIMCLRE
 70
     0
  9
$DIMCLRT
 70
     0
  9
$DIMTFAC
 40
1.0
  9
$DIMGAP
 40
0.09
  9
$LUNITS
 70
     2
  9
$LUPREC
 70
     2
  9
$SKETCHINC
 40
0.1
  9
$FILLETRAD
 40
0.0
  9
$AUNITS
 70
     0
  9
$AUPREC
 70
     2
  9
$MENU
  1
ME
  9
$ELEVATION
 40
0.0
  9
$PELEVATION
 40
0.0
  9
$THICKNESS
 40
0.0
  9
$LIMCHECK
 70
     0
  9
$BLIPMODE
 70
     0
  9
$CHAMFERA
 40
3.0
  9
$CHAMFERB
 40
3.0
  9
$SKPOLY
 70
     0
  9
$TDCREATE
 40
2451920.3634869209
  9
$TDUPDATE
 40
2456602.615542002
  9
$TDINDWG
 40
0.7720214468
  9
$TDUSRTIMER
 40
2456598.4198376271
  9
$USRTIMER
 70
     1
  9
$ANGBASE
 50
0.0
  9
$ANGDIR
 70
     0
  9
$PDMODE
 70
     0
  9
$PDSIZE
 40
0.0
  9
$PLINEWID
 40
0.0
  9
$COORDS
 70
     1
  9
$SPLFRAME
 70
     0
  9
$SPLINETYPE
 70
     6
  9
$SPLINESEGS
 70
     8
  9
$ATTDIA
 70
     0
  9
$ATTREQ
 70
     1
  9
$HANDLING
 70
     1
  9
$HANDSEED
  5
2C0
  9
$SURFTAB1
 70
     6
  9
$SURFTAB2
 70
     6
  9
$SURFTYPE
 70
     6
  9
$SURFU
 70
     6
  9
$SURFV
 70
     6
  9
$UCSNAME
  2

  9
$UCSORG
 10
0.0
 20
0.0
 30
0.0
  9
$UCSXDIR
 10
1.0
 20
0.0
 30
0.0
  9
$UCSYDIR
 10
0.0
 20
1.0
 30
0.0
  9
$PUCSNAME
  2

  9
$PUCSORG
 10
0.0
 20
0.0
 30
0.0
  9
$PUCSXDIR
 10
1.0
 20
0.0
 30
0.0
  9
$PUCSYDIR
 10
0.0
 20
1.0
 30
0.0
  9
$USERI1
 70
     1
  9
$USERI2
 70
     1
  9
$USERI3
 70
     5
  9
$USERI4
 70
     1
  9
$USERI5
 70
     0
  9
$USERR1
 40
5.0
  9
$USERR2
 40
3.0
  9
$USERR3
 40
1.5
  9
$USERR4
 40
1.5
  9
$USERR5
 40
10.0
  9
$WORLDVIEW
 70
     1
  9
$SHADEDGE
 70
     3
  9
$SHADEDIF
 70
    70
  9
$TILEMODE
 70
     1
  9
$MAXACTVP
 70
    16
  9
$PLIMCHECK
 70
     0
  9
$PEXTMIN
 10
1.0000000000000000E+020
 20
1.0000000000000000E+020
 30
1.0000000000000000E+020
  9
$PEXTMAX
 10
-1.0000000000000000E+020
 20
-1.0000000000000000E+020
 30
-1.0000000000000000E+020
  9
$PLIMMIN
 10
0.0
 20
0.0
  9
$PLIMMAX
 10
12.0
 20
9.0
  9
$UNITMODE
 70
     0
  9
$VISRETAIN
 70
     0
  9
$PLINEGEN
 70
     0
  9
$PSLTSCALE
 70
     0
  0
ENDSEC
  0
SECTION
  2
TABLES
  0
TABLE
  2
VPORT
 70
     1
  0
VPORT
  2
*ACTIVE
 70
     0
 10
0.0
 20
0.0
 11
1.0
 21
1.0
 12
187.0302692351718
 22
76.698909593589576
 13
0.0
 23
0.0
 14
5.0
 24
5.0
 15
10.0
 25
10.0
 16
0.0
 26
0.0
 36
1.0
 17
0.0
 27
0.0
 37
0.0
 40
238.5923718200859
 41
1.831871345029239
 42
50.0
 43
0.0
 44
0.0
 50
0.0
 51
0.0
 71
    16
 72
  1000
 73
     1
 74
     0
 75
     0
 76
     0
 77
     0
 78
     1
  0
ENDTAB
  0
TABLE
  2
LTYPE
 70
     4
  0
LTYPE
  2
CONTINUOUS
 70
     0
  3
Solid Line
 72
    65
 73
     0
 40
0.0
  0
LTYPE
  2
CENTER
 70
     0
  3
____ _ ____ _ ____ _ ____ _ ____ _ ____ _ ____
 72
    65
 73
     4
 40
2.0
 49
1.25
 49
-0.25
 49
0.25
 49
-0.25
  0
LTYPE
  2
HIDDEN
 70
     0
  3
_ _ _ _ _ _ _ _ _ _ _ _ _ _ _ _ _ _ _ _ _ _ _
 72
    65
 73
     2
 40
0.375
 49
0.25
 49
-0.125
  0
LTYPE
  2
PHANTOM2
 70
     0
  3
___ _ _ ___ _ _ ___ _ _ ___ _ _
 72
    65
 73
     6
 40
1.25
 49
0.625
 49
-0.125
 49
0.125
 49
-0.125
 49
0.125
 49
-0.125
  0
ENDTAB
  0
TABLE
  2
LAYER
 70
     4
  0
LAYER
  2
0
 70
     0
 62
     7
  6
CONTINUOUS
  0
LAYER
  2
1
 70
     0
 62
     1
  6
CENTER
  0
LAYER
  2
3
 70
     0
 62
     3
  6
CONTINUOUS
  0
LAYER
  2
2
 70
     0
 62
     2
  6
HIDDEN
  0
ENDTAB
  0
TABLE
  2
STYLE
 70
     2
  0
STYLE
  2
STANDARD
 70
     0
 40
0.0
 41
1.0
 50
0.0
 71
     0
 42
3.0
  3
C:/r13/com/fonts/Romans
  4
C:/r13/com/fonts/Extfont
  0
STYLE
  2
STANDARD1
 70
     0
 40
0.0
 41
1.0
 50
0.0
 71
     0
 42
3.0
  3
txt
  4

  0
ENDTAB
  0
TABLE
  2
VIEW
 70
     0
  0
ENDTAB
  0
TABLE
  2
UCS
 70
     0
  0
ENDTAB
  0
TABLE
  2
APPID
 70
     3
  0
APPID
  2
ACAD
 70
     0
  0
APPID
  2
ACAD_MLEADERVER
 70
     0
  0
APPID
  2
ACAD_NAV_VCDISPLAY
 70
     0
  0
ENDTAB
  0
TABLE
  2
DIMSTYLE
 70
     1
  0
DIMSTYLE
  2
STANDARD
 70
     0
  3

  4

  5

  6

  7

 40
1.0
 41
0.18
 42
0.0625
 43
0.38
 44
0.18
 45
0.0
 46
0.0
 47
0.0
 48
0.0
140
0.18
141
0.09
142
0.0
143
25.399999999999999
144
1.0
145
0.0
146
1.0
147
0.09
 71
     0
 72
     0
 73
     1
 74
     1
 75
     0
 76
     0
 77
     0
 78
     0
170
     0
171
     2
172
     0
173
     0
174
     0
175
     0
176
     0
177
     0
178
     0
  0
ENDTAB
  0
ENDSEC
  0
SECTION
  2
BLOCKS
  0
BLOCK
  8
0
  2
$MODEL_SPACE
 70
     0
 10
0.0
 20
0.0
 30
0.0
  3
$MODEL_SPACE
  1

  0
ENDBLK
  5
11F
  8
0
  0
BLOCK
 67
     1
  8
0
  2
$PAPER_SPACE
 70
     0
 10
0.0
 20
0.0
 30
0.0
  3
$PAPER_SPACE
  1

  0
ENDBLK
  5
11D
 67
     1
  8
0
  0
ENDSEC
  0
SECTION
  2
ENTITIES
  0
LINE
  5
3F
  8
0
 10
57.667933412327329
 20
134.14004420643471
 30
0.0
 11
82.667933412327315
 21
134.14004420643471
 31
0.0
  0
LINE
  5
40
  8
0
 10
57.667933412327329
 20
116.14004420643469
 30
0.0
 11
82.667933412327315
 21
116.14004420643469
 31
0.0
  0
LINE
  5
41
  8
1
 10
70.167933412327329
 20
106.14004420643469
 30
0.0
 11
70.167933412327329
 21
144.14004420643471
 31
0.0
  0
LINE
  5
44
  8
1
 10
52.667933412327329
 20
125.14004420643469
 30
0.0
 11
87.667933412327315
 21
125.14004420643469
 31
0.0
  0
LINE
  5
45
  8
0
 10
82.667933412327315
 20
139.14004420643471
 30
0.0
 11
82.667933412327315
 21
111.14004420643469
 31
0.0
  0
LINE
  5
46
  8
0
 10
57.667933412327329
 20
111.14004420643469
 30
0.0
 11
57.667933412327329
 21
139.14004420643471
 31
0.0
  0
LINE
  5
47
  8
0
 10
82.667933412327315
 20
139.14004420643471
 30
0.0
 11
57.667933412327329
 21
139.14004420643471
 31
0.0
  0
LINE
  5
48
  8
0
 10
82.667933412327315
 20
111.14004420643469
 30
0.0
 11
57.667933412327329
 21
111.14004420643469
 31
0.0
  0
LINE
  5
49
  8
1
 10
70.179438702267362
 20
83.51032137414353
 30
0.0
 11
70.179438702267362
 21
31.51032137414353
 31
0.0
  0
LINE
  5
4A
  8
1
 10
127.9131657775315
 20
83.51032137414353
 30
0.0
 11
127.9131657775315
 21
31.51032137414353
 31
0.0
  0
LINE
  5
4B
  8
0
 10
82.667933412327315
 20
39.01032137414353
 30
0.0
 11
57.667933412327329
 21
39.01032137414353
 31
0.0
  0
LINE
  5
4C
  8
0
 10
82.667933412327315
 20
36.51032137414353
 30
0.0
 11
82.667933412327315
 21
56.51032137414353
 31
0.0
  0
LINE
  5
4D
  8
0
 10
57.667933412327329
 20
36.51032137414353
 30
0.0
 11
57.667933412327329
 21
56.51032137414353
 31
0.0
  0
LINE
  5
4E
  8
0
 10
82.667933412327315
 20
36.51032137414353
 30
0.0
 11
57.667933412327329
 21
36.51032137414353
 31
0.0
  0
LINE
  5
4F
  8
0
 10
82.667933412327315
 20
46.51032137414353
 30
0.0
 11
57.667933412327329
 21
46.51032137414353
 31
0.0
  0
LINE
  5
50
  8
0
 10
82.667933412327315
 20
56.51032137414353
 30
0.0
 11
57.667933412327329
 21
56.51032137414353
 31
0.0
  0
LINE
  5
51
  8
0
 10
141.9131657775315
 20
39.01032137414353
 30
0.0
 11
139.4131657775315
 21
36.51032137414353
 31
0.0
  0
LINE
  5
52
  8
0
 10
113.9131657775315
 20
39.01032137414353
 30
0.0
 11
116.4131657775315
 21
36.51032137414353
 31
0.0
  0
ARC
  5
53
  8
0
 10
137.31316577753111
 20
46.910321374143621
 30
0.0
 40
0.4
 50
180.0
 51
270.0
  0
ARC
  5
54
  8
0
 10
118.5131657775309
 20
46.910321374143621
 30
0.0
 40
0.4
 50
270.0
 51
0.0
  0
LINE
  5
55
  8
0
 10
113.9131657775315
 20
46.51032137414353
 30
0.0
 11
113.9131657775315
 21
39.01032137414353
 31
0.0
  0
LINE
  5
56
  8
0
 10
118.5131657775314
 20
46.51032137414353
 30
0.0
 11
113.9131657775315
 21
46.51032137414353
 31
0.0
  0
LINE
  5
57
  8
0
 10
118.9131657775315
 20
56.51032137414353
 30
0.0
 11
118.9131657775315
 21
46.910321374143621
 31
0.0
  0
LINE
  5
58
  8
0
 10
136.9131657775315
 20
56.51032137414353
 30
0.0
 11
118.9131657775315
 21
56.51032137414353
 31
0.0
  0
LINE
  5
59
  8
0
 10
136.9131657775315
 20
46.910321374143621
 30
0.0
 11
136.9131657775315
 21
56.51032137414353
 31
0.0
  0
LINE
  5
5A
  8
0
 10
141.9131657775315
 20
46.51032137414353
 30
0.0
 11
137.31316577753159
 21
46.51032137414353
 31
0.0
  0
LINE
  5
5B
  8
0
 10
141.9131657775315
 20
39.01032137414353
 30
0.0
 11
141.9131657775315
 21
46.51032137414353
 31
0.0
  0
LINE
  5
5C
  8
0
 10
116.4131657775315
 20
36.51032137414353
 30
0.0
 11
139.4131657775315
 21
36.51032137414353
 31
0.0
  0
CIRCLE
  5
146
  8
3
 10
70.167933412327329
 20
125.14004420643469
 30
0.0
 40
6.0
  0
CIRCLE
  5
147
  8
0
 10
70.167933412327329
 20
125.14004420643469
 30
0.0
 40
5.052999999999999
  0
LINE
  5
148
  8
3
 10
122.86016577753151
 20
61.26032137414353
 30
0.0
 11
121.9131657775315
 21
62.900573488911242
 31
0.0
  0
LINE
  5
149
  8
3
 10
132.96616577753159
 20
61.26032137414353
 30
0.0
 11
133.9131657775315
 21
62.900573488911242
 31
0.0
  0
LINE
  5
14A
  8
0
 10
121.9131657775315
 20
61.26032137414353
 30
0.0
 11
133.91316577753159
 21
61.26032137414353
 31
0.0
  0
LINE
  5
14B
  8
2
 10
133.9131657775315
 20
38.510321374143501
 30
0.0
 11
121.9131657775315
 21
38.510321374143587
 31
0.0
  0
LINE
  5
14C
  8
2
 10
123.9131657775315
 20
36.510321374143587
 30
0.0
 11
121.9131657775315
 21
38.510321374143587
 31
0.0
  0
LINE
  5
14D
  8
2
 10
131.9131657775315
 20
36.510321374143473
 30
0.0
 11
133.9131657775315
 21
38.510321374143473
 31
0.0
  0
LINE
  5
14E
  8
0
 10
133.9131657775315
 20
66.51032137414353
 30
0.0
 11
133.9131657775315
 21
56.51032137414353
 31
0.0
  0
LINE
  5
14F
  8
3
 10
132.96616577753159
 20
61.26032137414353
 30
0.0
 11
132.96616577753159
 21
56.51032137414353
 31
0.0
  0
LINE
  5
150
  8
3
 10
122.86016577753151
 20
61.26032137414353
 30
0.0
 11
122.86016577753151
 21
56.510321374143523
 31
0.0
  0
LINE
  5
151
  8
0
 10
121.9131657775315
 20
66.51032137414353
 30
0.0
 11
121.9131657775315
 21
56.510321374143537
 31
0.0
  0
LINE
  5
152
  8
2
 10
131.9131657775315
 20
36.510321374143473
 30
0.0
 11
123.9131657775315
 21
36.510321374143587
 31
0.0
  0
LINE
  5
153
  8
0
 10
118.9131657775315
 20
77.810321374143555
 30
0.0
 11
120.1256013428297
 21
78.51032137414353
 31
0.0
  0
LINE
  5
154
  8
0
 10
136.9131657775315
 20
77.810321374143541
 30
0.0
 11
135.70073021223331
 21
78.51032137414353
 31
0.0
  0
LINE
  5
155
  8
0
 10
118.9131657775315
 20
77.810321374143541
 30
0.0
 11
136.9131657775315
 21
77.810321374143541
 31
0.0
  0
LINE
  5
156
  8
0
 10
120.1256013428297
 20
78.51032137414353
 30
0.0
 11
135.70073021223331
 21
78.51032137414353
 31
0.0
  0
LINE
  5
157
  8
0
 10
118.9131657775315
 20
66.51032137414353
 30
0.0
 11
118.9131657775315
 21
77.810321374143541
 31
0.0
  0
LINE
  5
158
  8
0
 10
136.9131657775315
 20
66.51032137414353
 30
0.0
 11
118.9131657775315
 21
66.51032137414353
 31
0.0
  0
LINE
  5
159
  8
0
 10
136.9131657775315
 20
77.810321374143541
 30
0.0
 11
136.9131657775315
 21
66.51032137414353
 31
0.0
  0
LINE
  5
15A
  8
2
 10
132.96616577753159
 20
56.51032137414353
 30
0.0
 11
132.9661657775315
 21
37.563321374143527
 31
0.0
  0
LINE
  5
15B
  8
2
 10
133.9131657775315
 20
56.51032137414353
 30
0.0
 11
133.9131657775315
 21
38.510321374143473
 31
0.0
  0
LINE
  5
15C
  8
2
 10
122.86016577753141
 20
56.510321374143523
 30
0.0
 11
122.86016577753141
 21
37.563321374143612
 31
0.0
  0
LINE
  5
15D
  8
2
 10
121.9131657775315
 20
56.510321374143523
 30
0.0
 11
121.9131657775315
 21
38.510321374143587
 31
0.0
  0
LINE
  5
15E
  8
0
 10
79.179438702267433
 20
77.810321374143541
 30
0.0
 11
79.179438702267433
 21
66.51032137414353
 31
0.0
  0
LINE
  5
15F
  8
0
 10
79.179438702267433
 20
66.51032137414353
 30
0.0
 11
61.179438702267433
 21
66.51032137414353
 31
0.0
  0
LINE
  5
160
  8
0
 10
61.179438702267433
 20
66.51032137414353
 30
0.0
 11
61.179438702267433
 21
77.810321374143541
 31
0.0
  0
LINE
  5
161
  8
0
 10
62.391874267565619
 20
78.51032137414353
 30
0.0
 11
77.967003136969225
 21
78.51032137414353
 31
0.0
  0
LINE
  5
162
  8
0
 10
61.179438702267433
 20
77.810321374143541
 30
0.0
 11
79.179438702267433
 21
77.810321374143541
 31
0.0
  0
LINE
  5
163
  8
0
 10
79.179438702267433
 20
77.810321374143541
 30
0.0
 11
77.967003136969225
 21
78.51032137414353
 31
0.0
  0
LINE
  5
164
  8
0
 10
61.179438702267433
 20
77.810321374143555
 30
0.0
 11
62.391874267565619
 21
78.51032137414353
 31
0.0
  0
LINE
  5
165
  8
0
 10
64.179438702267404
 20
61.26032137414353
 30
0.0
 11
76.179438702267461
 21
61.26032137414353
 31
0.0
  0
LINE
  5
166
  8
3
 10
75.232438702267459
 20
61.26032137414353
 30
0.0
 11
76.179438702267433
 21
62.900573488911242
 31
0.0
  0
LINE
  5
167
  8
3
 10
65.126438702267407
 20
61.26032137414353
 30
0.0
 11
64.179438702267433
 21
62.900573488911242
 31
0.0
  0
LINE
  5
168
  8
3
 10
75.232438702267459
 20
61.26032137414353
 30
0.0
 11
75.232438702267459
 21
56.51032137414353
 31
0.0
  0
LINE
  5
169
  8
0
 10
76.179438702267433
 20
66.51032137414353
 30
0.0
 11
76.179438702267404
 21
56.51032137414353
 31
0.0
  0
LINE
  5
16A
  8
0
 10
64.179438702267433
 20
66.51032137414353
 30
0.0
 11
64.179438702267419
 21
56.510321374143537
 31
0.0
  0
LINE
  5
16B
  8
3
 10
65.126438702267379
 20
61.26032137414353
 30
0.0
 11
65.126438702267379
 21
56.510321374143523
 31
0.0
  0
LINE
  5
16C
  8
2
 10
64.179438702267404
 20
56.510321374143523
 30
0.0
 11
64.179438702267376
 21
38.510321374143587
 31
0.0
  0
LINE
  5
16D
  8
2
 10
65.126438702267336
 20
56.510321374143523
 30
0.0
 11
65.12643870226735
 21
37.563321374143612
 31
0.0
  0
LINE
  5
16E
  8
2
 10
74.179438702267376
 20
36.510321374143473
 30
0.0
 11
66.179438702267376
 21
36.510321374143587
 31
0.0
  0
LINE
  5
16F
  8
2
 10
74.179438702267376
 20
36.510321374143473
 30
0.0
 11
76.179438702267376
 21
38.510321374143473
 31
0.0
  0
LINE
  5
170
  8
2
 10
66.179438702267376
 20
36.510321374143587
 30
0.0
 11
64.179438702267376
 21
38.510321374143587
 31
0.0
  0
LINE
  5
171
  8
2
 10
76.179438702267404
 20
38.510321374143501
 30
0.0
 11
64.179438702267348
 21
38.510321374143587
 31
0.0
  0
LINE
  5
172
  8
2
 10
76.179438702267376
 20
56.51032137414353
 30
0.0
 11
76.179438702267376
 21
38.510321374143473
 31
0.0
  0
LINE
  5
173
  8
2
 10
75.232438702267459
 20
56.51032137414353
 30
0.0
 11
75.232438702267402
 21
37.563321374143527
 31
0.0
  0
TEXT
  5
222
  8
0
 62
     3
 10
0.0
 20
0.0
 30
0.0
 40
5.0
  1
CLS-T18M12
  7
STANDARD1
  0
ENDSEC
  0
EOF
