  0
SECTION
  2
HEADER
  9
$ACADVER
  1
AC1009
  9
$INSBASE
 10
0.0
 20
0.0
 30
0.0
  9
$EXTMIN
 10
0.0
 20
-2.960436562073669
 30
0.0
  9
$EXTMAX
 10
83.212556942570643
 20
134.12684459089769
 30
0.0
  9
$LIMMIN
 10
0.0
 20
0.0
  9
$LIMMAX
 10
297.0
 20
210.0
  9
$ORTHOMODE
 70
     0
  9
$REGENMODE
 70
     1
  9
$FILLMODE
 70
     1
  9
$QTEXTMODE
 70
     0
  9
$MIRRTEXT
 70
     0
  9
$DRAGMODE
 70
     2
  9
$LTSCALE
 40
5.0
  9
$OSMODE
 70
  3071
  9
$ATTMODE
 70
     1
  9
$TEXTSIZE
 40
3.0
  9
$TRACEWID
 40
0.05
  9
$TEXTSTYLE
  7
07500
  9
$CLAYER
  8
0
  9
$CELTYPE
  6
BYLAYER
  9
$CECOLOR
 62
   256
  9
$DIMSCALE
 40
1.0
  9
$DIMASZ
 40
3.0
  9
$DIMEXO
 40
2.0
  9
$DIMDLI
 40
10.0
  9
$DIMRND
 40
0.0
  9
$DIMDLE
 40
0.0
  9
$DIMEXE
 40
2.0
  9
$DIMTP
 40
0.0
  9
$DIMTM
 40
0.0
  9
$DIMTXT
 40
3.0
  9
$DIMCEN
 40
0.0
  9
$DIMTSZ
 40
0.0
  9
$DIMTOL
 70
     0
  9
$DIMLIM
 70
     0
  9
$DIMTIH
 70
     0
  9
$DIMTOH
 70
     0
  9
$DIMSE1
 70
     0
  9
$DIMSE2
 70
     0
  9
$DIMTAD
 70
     1
  9
$DIMZIN
 70
     0
  9
$DIMBLK
  1

  9
$DIMASO
 70
     0
  9
$DIMSHO
 70
     0
  9
$DIMPOST
  1

  9
$DIMAPOST
  1

  9
$DIMALT
 70
     0
  9
$DIMALTD
 70
     2
  9
$DIMALTF
 40
25.399999999999999
  9
$DIMLFAC
 40
1.0
  9
$DIMTOFL
 70
     1
  9
$DIMTVP
 40
1.6000000000000001
  9
$DIMTIX
 70
     1
  9
$DIMSOXD
 70
     0
  9
$DIMSAH
 70
     0
  9
$DIMBLK1
  1

  9
$DIMBLK2
  1

  9
$DIMSTYLE
  2
STANDARD
  9
$DIMCLRD
 70
     0
  9
$DIMCLRE
 70
     0
  9
$DIMCLRT
 70
     0
  9
$DIMTFAC
 40
1.0
  9
$DIMGAP
 40
0.09
  9
$LUNITS
 70
     2
  9
$LUPREC
 70
     2
  9
$SKETCHINC
 40
0.1
  9
$FILLETRAD
 40
0.0
  9
$AUNITS
 70
     0
  9
$AUPREC
 70
     2
  9
$MENU
  1
ME
  9
$ELEVATION
 40
0.0
  9
$PELEVATION
 40
0.0
  9
$THICKNESS
 40
0.0
  9
$LIMCHECK
 70
     0
  9
$BLIPMODE
 70
     0
  9
$CHAMFERA
 40
1.0
  9
$CHAMFERB
 40
1.0
  9
$SKPOLY
 70
     0
  9
$TDCREATE
 40
2451922.533846945
  9
$TDUPDATE
 40
2456602.6118073962
  9
$TDINDWG
 40
0.0024270139
  9
$TDUSRTIMER
 40
2456598.4203883801
  9
$USRTIMER
 70
     1
  9
$ANGBASE
 50
0.0
  9
$ANGDIR
 70
     0
  9
$PDMODE
 70
     0
  9
$PDSIZE
 40
0.0
  9
$PLINEWID
 40
0.0
  9
$COORDS
 70
     1
  9
$SPLFRAME
 70
     0
  9
$SPLINETYPE
 70
     6
  9
$SPLINESEGS
 70
     8
  9
$ATTDIA
 70
     0
  9
$ATTREQ
 70
     1
  9
$HANDLING
 70
     1
  9
$HANDSEED
  5
524
  9
$SURFTAB1
 70
     6
  9
$SURFTAB2
 70
     6
  9
$SURFTYPE
 70
     6
  9
$SURFU
 70
     6
  9
$SURFV
 70
     6
  9
$UCSNAME
  2

  9
$UCSORG
 10
0.0
 20
0.0
 30
0.0
  9
$UCSXDIR
 10
1.0
 20
0.0
 30
0.0
  9
$UCSYDIR
 10
0.0
 20
1.0
 30
0.0
  9
$PUCSNAME
  2

  9
$PUCSORG
 10
0.0
 20
0.0
 30
0.0
  9
$PUCSXDIR
 10
1.0
 20
0.0
 30
0.0
  9
$PUCSYDIR
 10
0.0
 20
1.0
 30
0.0
  9
$USERI1
 70
     4
  9
$USERI2
 70
     1
  9
$USERI3
 70
     1
  9
$USERI4
 70
     1
  9
$USERI5
 70
     0
  9
$USERR1
 40
1.0
  9
$USERR2
 40
3.0
  9
$USERR3
 40
3.0
  9
$USERR4
 40
3.0
  9
$USERR5
 40
10.0
  9
$WORLDVIEW
 70
     1
  9
$SHADEDGE
 70
     3
  9
$SHADEDIF
 70
    70
  9
$TILEMODE
 70
     1
  9
$MAXACTVP
 70
    16
  9
$PLIMCHECK
 70
     0
  9
$PEXTMIN
 10
1.0000000000000000E+020
 20
1.0000000000000000E+020
 30
1.0000000000000000E+020
  9
$PEXTMAX
 10
-1.0000000000000000E+020
 20
-1.0000000000000000E+020
 30
-1.0000000000000000E+020
  9
$PLIMMIN
 10
0.0
 20
0.0
  9
$PLIMMAX
 10
12.0
 20
9.0
  9
$UNITMODE
 70
     0
  9
$VISRETAIN
 70
     0
  9
$PLINEGEN
 70
     0
  9
$PSLTSCALE
 70
     0
  0
ENDSEC
  0
SECTION
  2
TABLES
  0
TABLE
  2
VPORT
 70
     1
  0
VPORT
  2
*ACTIVE
 70
     0
 10
0.0
 20
0.0
 11
1.0
 21
1.0
 12
153.3611803889489
 22
66.602921249717724
 13
0.0
 23
0.0
 14
5.0
 24
5.0
 15
10.0
 25
10.0
 16
0.0
 26
0.0
 36
1.0
 17
0.0
 27
0.0
 37
0.0
 40
214.03559606674321
 41
1.831871345029239
 42
50.0
 43
0.0
 44
0.0
 50
0.0
 51
0.0
 71
    16
 72
   500
 73
     1
 74
     0
 75
     0
 76
     0
 77
     0
 78
     1
  0
ENDTAB
  0
TABLE
  2
LTYPE
 70
     3
  0
LTYPE
  2
CONTINUOUS
 70
     0
  3
Solid Line
 72
    65
 73
     0
 40
0.0
  0
LTYPE
  2
CENTER
 70
     0
  3
____ _ ____ _ ____ _ ____ _ ____ _ ____ _ ____
 72
    65
 73
     4
 40
2.0
 49
1.25
 49
-0.25
 49
0.25
 49
-0.25
  0
LTYPE
  2
PHANTOM2
 70
     0
  3
___ _ _ ___ _ _ ___ _ _ ___ _ _
 72
    65
 73
     6
 40
1.25
 49
0.625
 49
-0.125
 49
0.125
 49
-0.125
 49
0.125
 49
-0.125
  0
ENDTAB
  0
TABLE
  2
LAYER
 70
     2
  0
LAYER
  2
0
 70
     0
 62
     7
  6
CONTINUOUS
  0
LAYER
  2
1
 70
     0
 62
     1
  6
CENTER
  0
ENDTAB
  0
TABLE
  2
STYLE
 70
     3
  0
STYLE
  2
STANDARD
 70
     0
 40
0.0
 41
1.0
 50
0.0
 71
     0
 42
3.0
  3
C:/r13/com/fonts/Romans
  4
C:/r13/com/fonts/Extfont
  0
STYLE
  2
07500
 70
     0
 40
0.0
 41
1.0
 50
0.0
 71
     0
 42
3.0
  3
C:/r13/com/fonts/Romans
  4
C:/r13/com/fonts/Extfont
  0
STYLE
  2
STANDARD1
 70
     0
 40
0.0
 41
1.0
 50
0.0
 71
     0
 42
3.0
  3
txt
  4

  0
ENDTAB
  0
TABLE
  2
VIEW
 70
     0
  0
ENDTAB
  0
TABLE
  2
UCS
 70
     0
  0
ENDTAB
  0
TABLE
  2
APPID
 70
     3
  0
APPID
  2
ACAD
 70
     0
  0
APPID
  2
ACAD_MLEADERVER
 70
     0
  0
APPID
  2
ACAD_NAV_VCDISPLAY
 70
     0
  0
ENDTAB
  0
TABLE
  2
DIMSTYLE
 70
     1
  0
DIMSTYLE
  2
STANDARD
 70
     0
  3

  4

  5

  6

  7

 40
1.0
 41
0.18
 42
0.0625
 43
0.38
 44
0.18
 45
0.0
 46
0.0
 47
0.0
 48
0.0
140
0.18
141
0.09
142
0.0
143
25.399999999999999
144
1.0
145
0.0
146
1.0
147
0.09
 71
     0
 72
     0
 73
     1
 74
     1
 75
     0
 76
     0
 77
     0
 78
     0
170
     0
171
     2
172
     0
173
     0
174
     0
175
     0
176
     0
177
     0
178
     0
  0
ENDTAB
  0
ENDSEC
  0
SECTION
  2
BLOCKS
  0
BLOCK
  8
0
  2
$MODEL_SPACE
 70
     0
 10
0.0
 20
0.0
 30
0.0
  3
$MODEL_SPACE
  1

  0
ENDBLK
  5
3D1
  8
0
  0
BLOCK
 67
     1
  8
0
  2
$PAPER_SPACE
 70
     0
 10
0.0
 20
0.0
 30
0.0
  3
$PAPER_SPACE
  1

  0
ENDBLK
  5
3CF
 67
     1
  8
0
  0
ENDSEC
  0
SECTION
  2
ENTITIES
  0
CIRCLE
  5
15C
  8
0
 10
50.212664012390917
 20
101.1263306557605
 30
0.0
 40
22.500251614077541
  0
CIRCLE
  5
15D
  8
0
 10
50.212664012390917
 20
86.226558714477648
 30
0.0
 40
2.5501568572866362
  0
CIRCLE
  5
15E
  8
0
 10
64.848664098046754
 20
111.5766020777549
 30
0.0
 40
2.550001606047303
  0
CIRCLE
  5
15F
  8
0
 10
35.576663926735023
 20
111.5766020777549
 30
0.0
 40
2.550001606047303
  0
CIRCLE
  5
160
  8
0
 10
50.212664012390917
 20
103.1265876233291
 30
0.0
 40
6.2501043930747233
  0
CIRCLE
  5
161
  8
0
 10
50.212664012390917
 20
103.1265876233291
 30
0.0
 40
9.5001338372752873
  0
POLYLINE
  5
162
  8
0
  6
CONTINUOUS
 66
     1
 10
0.0
 20
0.0
 30
0.0
 70
     8
  0
VERTEX
  5
35A
  8
0
  6
CONTINUOUS
 10
37.914281837374567
 20
130.12664115823921
 30
0.0
 70
    32
1001
ACAD
1000
R13OBJECT
1002
{
1005
162
1002
}
  0
VERTEX
  5
35B
  8
0
  6
CONTINUOUS
 10
36.522034206796263
 20
129.49601001761769
 30
0.0
 70
    32
1001
ACAD
1000
R13OBJECT
1002
{
1005
162
1002
}
  0
VERTEX
  5
35C
  8
0
  6
CONTINUOUS
 10
35.167596317497043
 20
128.80163975294781
 30
0.0
 70
    32
1001
ACAD
1000
R13OBJECT
1002
{
1005
162
1002
}
  0
VERTEX
  5
35D
  8
0
  6
CONTINUOUS
 10
33.852820268246212
 20
128.04538246299879
 30
0.0
 70
    32
1001
ACAD
1000
R13OBJECT
1002
{
1005
162
1002
}
  0
VERTEX
  5
35E
  8
0
  6
CONTINUOUS
 10
32.579558157813103
 20
127.2290902465397
 30
0.0
 70
    32
1001
ACAD
1000
R13OBJECT
1002
{
1005
162
1002
}
  0
VERTEX
  5
35F
  8
0
  6
CONTINUOUS
 10
31.349662084966901
 20
126.3546152023399
 30
0.0
 70
    32
1001
ACAD
1000
R13OBJECT
1002
{
1005
162
1002
}
  0
VERTEX
  5
360
  8
0
  6
CONTINUOUS
 10
30.164984148476609
 20
125.4238094291687
 30
0.0
 70
    32
1001
ACAD
1000
R13OBJECT
1002
{
1005
162
1002
}
  0
VERTEX
  5
361
  8
0
  6
CONTINUOUS
 10
29.027376447111749
 20
124.4385250257952
 30
0.0
 70
    32
1001
ACAD
1000
R13OBJECT
1002
{
1005
162
1002
}
  0
VERTEX
  5
362
  8
0
  6
CONTINUOUS
 10
27.938691079641451
 20
123.4006140909887
 30
0.0
 70
    32
1001
ACAD
1000
R13OBJECT
1002
{
1005
162
1002
}
  0
VERTEX
  5
363
  8
0
  6
CONTINUOUS
 10
26.900780144834929
 20
122.31192872351831
 30
0.0
 70
    32
1001
ACAD
1000
R13OBJECT
1002
{
1005
162
1002
}
  0
VERTEX
  5
364
  8
0
  6
CONTINUOUS
 10
25.915495741461431
 20
121.17432102215351
 30
0.0
 70
    32
1001
ACAD
1000
R13OBJECT
1002
{
1005
162
1002
}
  0
VERTEX
  5
365
  8
0
  6
CONTINUOUS
 10
24.98468996829018
 20
119.9896430856632
 30
0.0
 70
    32
1001
ACAD
1000
R13OBJECT
1002
{
1005
162
1002
}
  0
VERTEX
  5
366
  8
0
  6
CONTINUOUS
 10
24.110214924090371
 20
118.759747012817
 30
0.0
 70
    32
1001
ACAD
1000
R13OBJECT
1002
{
1005
162
1002
}
  0
VERTEX
  5
367
  8
0
  6
CONTINUOUS
 10
23.293922707631399
 20
117.48648490238379
 30
0.0
 70
    32
1001
ACAD
1000
R13OBJECT
1002
{
1005
162
1002
}
  0
VERTEX
  5
368
  8
0
  6
CONTINUOUS
 10
22.537665417682319
 20
116.171708853133
 30
0.0
 70
    32
1001
ACAD
1000
R13OBJECT
1002
{
1005
162
1002
}
  0
VERTEX
  5
369
  8
0
  6
CONTINUOUS
 10
21.843295153012381
 20
114.81727096383381
 30
0.0
 70
    32
1001
ACAD
1000
R13OBJECT
1002
{
1005
162
1002
}
  0
VERTEX
  5
36A
  8
0
  6
CONTINUOUS
 10
21.21266401239086
 20
113.4250233332555
 30
0.0
 70
    32
1001
ACAD
1000
R13OBJECT
1002
{
1005
162
1002
}
  0
SEQEND
  5
36B
  8
0
  6
CONTINUOUS
  0
POLYLINE
  5
163
  8
0
  6
CONTINUOUS
 66
     1
 10
0.0
 20
0.0
 30
0.0
 70
     8
  0
VERTEX
  5
36C
  8
0
  6
CONTINUOUS
 10
21.21266401239086
 20
88.827948480744254
 30
0.0
 70
    32
1001
ACAD
1000
R13OBJECT
1002
{
1005
163
1002
}
  0
VERTEX
  5
36D
  8
0
  6
CONTINUOUS
 10
21.843295153012381
 20
87.435704337254322
 30
0.0
 70
    32
1001
ACAD
1000
R13OBJECT
1002
{
1005
163
1002
}
  0
VERTEX
  5
36E
  8
0
  6
CONTINUOUS
 10
22.537665417682319
 20
86.081276302770078
 30
0.0
 70
    32
1001
ACAD
1000
R13OBJECT
1002
{
1005
163
1002
}
  0
VERTEX
  5
36F
  8
0
  6
CONTINUOUS
 10
23.293922707631399
 20
84.766515566385721
 30
0.0
 70
    32
1001
ACAD
1000
R13OBJECT
1002
{
1005
163
1002
}
  0
VERTEX
  5
370
  8
0
  6
CONTINUOUS
 10
24.110214924090371
 20
83.493273317195076
 30
0.0
 70
    32
1001
ACAD
1000
R13OBJECT
1002
{
1005
163
1002
}
  0
VERTEX
  5
371
  8
0
  6
CONTINUOUS
 10
24.98468996829018
 20
82.263400744292227
 30
0.0
 70
    32
1001
ACAD
1000
R13OBJECT
1002
{
1005
163
1002
}
  0
VERTEX
  5
372
  8
0
  6
CONTINUOUS
 10
25.915495741461431
 20
81.078749036771185
 30
0.0
 70
    32
1001
ACAD
1000
R13OBJECT
1002
{
1005
163
1002
}
  0
VERTEX
  5
373
  8
0
  6
CONTINUOUS
 10
26.900780144834929
 20
79.941169383725907
 30
0.0
 70
    32
1001
ACAD
1000
R13OBJECT
1002
{
1005
163
1002
}
  0
VERTEX
  5
374
  8
0
  6
CONTINUOUS
 10
27.938691079641451
 20
78.852512974250459
 30
0.0
 70
    32
1001
ACAD
1000
R13OBJECT
1002
{
1005
163
1002
}
  0
VERTEX
  5
375
  8
0
  6
CONTINUOUS
 10
29.027376447111749
 20
77.814630997438741
 30
0.0
 70
    32
1001
ACAD
1000
R13OBJECT
1002
{
1005
163
1002
}
  0
VERTEX
  5
376
  8
0
  6
CONTINUOUS
 10
30.164984148476609
 20
76.829374642384906
 30
0.0
 70
    32
1001
ACAD
1000
R13OBJECT
1002
{
1005
163
1002
}
  0
VERTEX
  5
377
  8
0
  6
CONTINUOUS
 10
31.349662084966901
 20
75.89859509818271
 30
0.0
 70
    32
1001
ACAD
1000
R13OBJECT
1002
{
1005
163
1002
}
  0
VERTEX
  5
378
  8
0
  6
CONTINUOUS
 10
32.579558157813103
 20
75.02414355392645
 30
0.0
 70
    32
1001
ACAD
1000
R13OBJECT
1002
{
1005
163
1002
}
  0
VERTEX
  5
379
  8
0
  6
CONTINUOUS
 10
33.852820268246212
 20
74.207871198709995
 30
0.0
 70
    32
1001
ACAD
1000
R13OBJECT
1002
{
1005
163
1002
}
  0
VERTEX
  5
37A
  8
0
  6
CONTINUOUS
 10
35.167596317497043
 20
73.451629221627243
 30
0.0
 70
    32
1001
ACAD
1000
R13OBJECT
1002
{
1005
163
1002
}
  0
VERTEX
  5
37B
  8
0
  6
CONTINUOUS
 10
36.522034206796263
 20
72.757268811772377
 30
0.0
 70
    32
1001
ACAD
1000
R13OBJECT
1002
{
1005
163
1002
}
  0
VERTEX
  5
37C
  8
0
  6
CONTINUOUS
 10
37.914281837374567
 20
72.126641158239266
 30
0.0
 70
    32
1001
ACAD
1000
R13OBJECT
1002
{
1005
163
1002
}
  0
SEQEND
  5
37D
  8
0
  6
CONTINUOUS
  0
POLYLINE
  5
164
  8
0
  6
CONTINUOUS
 66
     1
 10
0.0
 20
0.0
 30
0.0
 70
     8
  0
VERTEX
  5
37E
  8
0
  6
CONTINUOUS
 10
79.21266401239086
 20
113.4250233332555
 30
0.0
 70
    32
1001
ACAD
1000
R13OBJECT
1002
{
1005
164
1002
}
  0
VERTEX
  5
37F
  8
0
  6
CONTINUOUS
 10
78.582032871769343
 20
114.81727096383381
 30
0.0
 70
    32
1001
ACAD
1000
R13OBJECT
1002
{
1005
164
1002
}
  0
VERTEX
  5
380
  8
0
  6
CONTINUOUS
 10
77.887662607099443
 20
116.171708853133
 30
0.0
 70
    32
1001
ACAD
1000
R13OBJECT
1002
{
1005
164
1002
}
  0
VERTEX
  5
381
  8
0
  6
CONTINUOUS
 10
77.131405317150325
 20
117.48648490238379
 30
0.0
 70
    32
1001
ACAD
1000
R13OBJECT
1002
{
1005
164
1002
}
  0
VERTEX
  5
382
  8
0
  6
CONTINUOUS
 10
76.315113100691349
 20
118.759747012817
 30
0.0
 70
    32
1001
ACAD
1000
R13OBJECT
1002
{
1005
164
1002
}
  0
VERTEX
  5
383
  8
0
  6
CONTINUOUS
 10
75.440638056491593
 20
119.9896430856632
 30
0.0
 70
    32
1001
ACAD
1000
R13OBJECT
1002
{
1005
164
1002
}
  0
VERTEX
  5
384
  8
0
  6
CONTINUOUS
 10
74.509832283320335
 20
121.17432102215351
 30
0.0
 70
    32
1001
ACAD
1000
R13OBJECT
1002
{
1005
164
1002
}
  0
VERTEX
  5
385
  8
0
  6
CONTINUOUS
 10
73.524547879946795
 20
122.31192872351831
 30
0.0
 70
    32
1001
ACAD
1000
R13OBJECT
1002
{
1005
164
1002
}
  0
VERTEX
  5
386
  8
0
  6
CONTINUOUS
 10
72.486636945140333
 20
123.4006140909887
 30
0.0
 70
    32
1001
ACAD
1000
R13OBJECT
1002
{
1005
164
1002
}
  0
VERTEX
  5
387
  8
0
  6
CONTINUOUS
 10
71.397951577670028
 20
124.4385250257952
 30
0.0
 70
    32
1001
ACAD
1000
R13OBJECT
1002
{
1005
164
1002
}
  0
VERTEX
  5
388
  8
0
  6
CONTINUOUS
 10
70.260343876305114
 20
125.4238094291687
 30
0.0
 70
    32
1001
ACAD
1000
R13OBJECT
1002
{
1005
164
1002
}
  0
VERTEX
  5
389
  8
0
  6
CONTINUOUS
 10
69.07566593981494
 20
126.3546152023399
 30
0.0
 70
    32
1001
ACAD
1000
R13OBJECT
1002
{
1005
164
1002
}
  0
VERTEX
  5
38A
  8
0
  6
CONTINUOUS
 10
67.845769866968681
 20
127.2290902465397
 30
0.0
 70
    32
1001
ACAD
1000
R13OBJECT
1002
{
1005
164
1002
}
  0
VERTEX
  5
38B
  8
0
  6
CONTINUOUS
 10
66.572507756535515
 20
128.04538246299879
 30
0.0
 70
    32
1001
ACAD
1000
R13OBJECT
1002
{
1005
164
1002
}
  0
VERTEX
  5
38C
  8
0
  6
CONTINUOUS
 10
65.257731707284677
 20
128.80163975294781
 30
0.0
 70
    32
1001
ACAD
1000
R13OBJECT
1002
{
1005
164
1002
}
  0
VERTEX
  5
38D
  8
0
  6
CONTINUOUS
 10
63.903293817985507
 20
129.49601001761769
 30
0.0
 70
    32
1001
ACAD
1000
R13OBJECT
1002
{
1005
164
1002
}
  0
VERTEX
  5
38E
  8
0
  6
CONTINUOUS
 10
62.511046187407203
 20
130.12664115823921
 30
0.0
 70
    32
1001
ACAD
1000
R13OBJECT
1002
{
1005
164
1002
}
  0
SEQEND
  5
38F
  8
0
  6
CONTINUOUS
  0
POLYLINE
  5
165
  8
0
  6
CONTINUOUS
 66
     1
 10
0.0
 20
0.0
 30
0.0
 70
     8
  0
VERTEX
  5
390
  8
0
  6
CONTINUOUS
 10
62.511046187407203
 20
72.126641158239266
 30
0.0
 70
    32
1001
ACAD
1000
R13OBJECT
1002
{
1005
165
1002
}
  0
VERTEX
  5
391
  8
0
  6
CONTINUOUS
 10
63.903293817985507
 20
72.757268811772377
 30
0.0
 70
    32
1001
ACAD
1000
R13OBJECT
1002
{
1005
165
1002
}
  0
VERTEX
  5
392
  8
0
  6
CONTINUOUS
 10
65.257731707284677
 20
73.451629221627243
 30
0.0
 70
    32
1001
ACAD
1000
R13OBJECT
1002
{
1005
165
1002
}
  0
VERTEX
  5
393
  8
0
  6
CONTINUOUS
 10
66.572507756535515
 20
74.207871198709995
 30
0.0
 70
    32
1001
ACAD
1000
R13OBJECT
1002
{
1005
165
1002
}
  0
VERTEX
  5
394
  8
0
  6
CONTINUOUS
 10
67.845769866968681
 20
75.02414355392645
 30
0.0
 70
    32
1001
ACAD
1000
R13OBJECT
1002
{
1005
165
1002
}
  0
VERTEX
  5
395
  8
0
  6
CONTINUOUS
 10
69.07566593981494
 20
75.89859509818271
 30
0.0
 70
    32
1001
ACAD
1000
R13OBJECT
1002
{
1005
165
1002
}
  0
VERTEX
  5
396
  8
0
  6
CONTINUOUS
 10
70.260343876305114
 20
76.829374642384906
 30
0.0
 70
    32
1001
ACAD
1000
R13OBJECT
1002
{
1005
165
1002
}
  0
VERTEX
  5
397
  8
0
  6
CONTINUOUS
 10
71.397951577670028
 20
77.814630997438741
 30
0.0
 70
    32
1001
ACAD
1000
R13OBJECT
1002
{
1005
165
1002
}
  0
VERTEX
  5
398
  8
0
  6
CONTINUOUS
 10
72.486636945140333
 20
78.852512974250459
 30
0.0
 70
    32
1001
ACAD
1000
R13OBJECT
1002
{
1005
165
1002
}
  0
VERTEX
  5
399
  8
0
  6
CONTINUOUS
 10
73.524547879946795
 20
79.941169383725907
 30
0.0
 70
    32
1001
ACAD
1000
R13OBJECT
1002
{
1005
165
1002
}
  0
VERTEX
  5
39A
  8
0
  6
CONTINUOUS
 10
74.509832283320335
 20
81.078749036771185
 30
0.0
 70
    32
1001
ACAD
1000
R13OBJECT
1002
{
1005
165
1002
}
  0
VERTEX
  5
39B
  8
0
  6
CONTINUOUS
 10
75.440638056491593
 20
82.263400744292227
 30
0.0
 70
    32
1001
ACAD
1000
R13OBJECT
1002
{
1005
165
1002
}
  0
VERTEX
  5
39C
  8
0
  6
CONTINUOUS
 10
76.315113100691349
 20
83.493273317195076
 30
0.0
 70
    32
1001
ACAD
1000
R13OBJECT
1002
{
1005
165
1002
}
  0
VERTEX
  5
39D
  8
0
  6
CONTINUOUS
 10
77.131405317150325
 20
84.766515566385721
 30
0.0
 70
    32
1001
ACAD
1000
R13OBJECT
1002
{
1005
165
1002
}
  0
VERTEX
  5
39E
  8
0
  6
CONTINUOUS
 10
77.887662607099443
 20
86.081276302770078
 30
0.0
 70
    32
1001
ACAD
1000
R13OBJECT
1002
{
1005
165
1002
}
  0
VERTEX
  5
39F
  8
0
  6
CONTINUOUS
 10
78.582032871769343
 20
87.435704337254322
 30
0.0
 70
    32
1001
ACAD
1000
R13OBJECT
1002
{
1005
165
1002
}
  0
VERTEX
  5
3A0
  8
0
  6
CONTINUOUS
 10
79.21266401239086
 20
88.827948480744254
 30
0.0
 70
    32
1001
ACAD
1000
R13OBJECT
1002
{
1005
165
1002
}
  0
SEQEND
  5
3A1
  8
0
  6
CONTINUOUS
  0
LINE
  5
166
  8
0
 10
21.21266401239086
 20
113.4250233332555
 30
0.0
 11
21.21266401239086
 21
88.827948480744254
 31
0.0
  0
LINE
  5
167
  8
0
 10
37.914281837374567
 20
72.126641158239266
 30
0.0
 11
62.511046187407253
 21
72.126641158239266
 31
0.0
  0
LINE
  5
168
  8
0
 10
79.212664012390917
 20
88.827948480744254
 30
0.0
 11
79.212664012390917
 21
113.4250233332555
 31
0.0
  0
LINE
  5
169
  8
0
 10
62.511046187407253
 20
130.12664115823921
 30
0.0
 11
37.914281837374567
 21
130.12664115823921
 31
0.0
  0
LINE
  5
16A
  8
1
 10
17.212460579732461
 20
101.1263306557605
 30
0.0
 11
83.212556942570643
 21
101.1263306557605
 31
0.0
  0
LINE
  5
16B
  8
1
 10
50.212664012390917
 20
134.12684459089769
 30
0.0
 11
50.212664012390917
 21
68.126127223102145
 31
0.0
  0
LINE
  5
16C
  8
0
 10
21.21266401239086
 20
52.280391786822598
 30
0.0
 11
21.21266401239086
 21
38.780365019367508
 31
0.0
  0
LINE
  5
16D
  8
0
 10
21.21266401239086
 20
38.780365019367508
 30
0.0
 11
79.212664012390917
 21
38.780365019367508
 31
0.0
  0
LINE
  5
16E
  8
0
 10
79.212664012390917
 20
38.780365019367508
 30
0.0
 11
79.212664012390917
 21
52.280391786822598
 31
0.0
  0
LINE
  5
16F
  8
0
 10
79.212664012390917
 20
52.280391786822598
 30
0.0
 11
21.21266401239086
 21
52.280391786822598
 31
0.0
  0
LINE
  5
170
  8
0
 10
62.812854596670881
 20
52.280391786822598
 30
0.0
 11
62.812854596670881
 21
38.780365019367508
 31
0.0
  0
LINE
  5
171
  8
1
 10
50.212664012390917
 20
56.280284717002331
 30
0.0
 11
50.212664012390917
 21
29.280231182092251
 31
0.0
  0
LINE
  5
172
  8
1
 10
76.212589063516759
 20
103.1265876233291
 30
0.0
 11
24.212428458786349
 21
103.1265876233291
 31
0.0
  0
LINE
  5
173
  8
0
 10
66.21285673806733
 20
38.780365019367508
 30
0.0
 11
66.21285673806733
 21
37.780236535583271
 31
0.0
  0
LINE
  5
174
  8
0
 10
34.212471286714504
 20
37.780236535583271
 30
0.0
 11
34.212471286714504
 21
38.780365019367508
 31
0.0
  0
LINE
  5
175
  8
0
 10
23.712519468133571
 20
37.780236535583271
 30
0.0
 11
23.712519468133571
 21
33.280434614750646
 31
0.0
  0
LINE
  5
176
  8
0
 10
76.713119059126882
 20
37.780236535583271
 30
0.0
 11
23.712519468133571
 21
37.780236535583271
 31
0.0
  0
LINE
  5
177
  8
0
 10
76.713119059126882
 20
33.280434614750646
 30
0.0
 11
76.713119059126882
 21
37.780236535583271
 31
0.0
  0
LINE
  5
178
  8
0
 10
23.712519468133571
 20
33.280434614750646
 30
0.0
 11
76.713119059126882
 21
33.280434614750646
 31
0.0
  0
LINE
  5
179
  8
0
 10
59.212578356534721
 20
52.280391786822598
 30
0.0
 11
59.212578356534721
 21
39.530228505346741
 31
0.0
  0
LINE
  5
17A
  8
0
 10
55.612612618877158
 20
52.280391786822598
 30
0.0
 11
55.612612618877158
 21
39.530228505346741
 31
0.0
  0
LINE
  5
17B
  8
0
 10
52.012646881219659
 20
52.280391786822598
 30
0.0
 11
52.012646881219659
 21
39.530228505346741
 31
0.0
  0
LINE
  5
17C
  8
0
 10
48.412681143562168
 20
52.280391786822598
 30
0.0
 11
48.412681143562168
 21
39.530228505346741
 31
0.0
  0
LINE
  5
17D
  8
0
 10
44.812715405904612
 20
52.280391786822598
 30
0.0
 11
44.812715405904612
 21
39.530228505346741
 31
0.0
  0
LINE
  5
17E
  8
0
 10
41.212749668247064
 20
52.280391786822598
 30
0.0
 11
41.212749668247064
 21
39.530228505346741
 31
0.0
  0
LINE
  5
17F
  8
0
 10
38.612601911895133
 20
43.080203343938962
 30
0.0
 11
37.612473428110889
 21
42.080385362633329
 31
0.0
  0
LINE
  5
180
  8
0
 10
38.612601911895133
 20
45.630360201225614
 30
0.0
 11
37.612473428110889
 21
44.630231717441319
 31
0.0
  0
LINE
  5
181
  8
0
 10
38.612601911895133
 20
48.180517058512258
 30
0.0
 11
37.612473428110889
 21
47.180388574727971
 31
0.0
  0
LINE
  5
182
  8
0
 10
38.612601911895133
 20
50.730363413320241
 30
0.0
 11
37.612473428110889
 21
49.730545432014623
 31
0.0
  0
LINE
  5
183
  8
0
 10
38.612601911895133
 20
51.28057380551698
 30
0.0
 11
37.612473428110889
 21
52.280391786822598
 31
0.0
  0
LINE
  5
184
  8
0
 10
38.612601911895133
 20
48.730416948230328
 30
0.0
 11
37.612473428110889
 21
49.730545432014623
 31
0.0
  0
LINE
  5
185
  8
0
 10
38.612601911895133
 20
46.180260090943669
 30
0.0
 11
37.612473428110889
 21
47.180388574727971
 31
0.0
  0
LINE
  5
186
  8
0
 10
38.612601911895133
 20
43.63041373613575
 30
0.0
 11
37.612473428110889
 21
44.630231717441319
 31
0.0
  0
LINE
  5
187
  8
0
 10
38.612601911895133
 20
41.080256878849099
 30
0.0
 11
37.612473428110889
 21
42.080385362633329
 31
0.0
  0
LINE
  5
188
  8
0
 10
38.612601911895133
 20
40.530356989131029
 30
0.0
 11
37.612473428110889
 21
39.530228505346741
 31
0.0
  0
LINE
  5
189
  8
0
 10
38.612601911895133
 20
50.730363413320241
 30
0.0
 11
40.212621184462819
 21
50.730363413320241
 31
0.0
  0
LINE
  5
18A
  8
0
 10
38.612601911895133
 20
51.28057380551698
 30
0.0
 11
38.612601911895133
 21
50.730363413320241
 31
0.0
  0
LINE
  5
18B
  8
0
 10
40.212621184462819
 20
51.28057380551698
 30
0.0
 11
38.612601911895133
 21
51.28057380551698
 31
0.0
  0
LINE
  5
18C
  8
0
 10
40.212621184462819
 20
50.730363413320241
 30
0.0
 11
40.212621184462819
 21
51.28057380551698
 31
0.0
  0
LINE
  5
18D
  8
0
 10
40.212621184462819
 20
48.180517058512258
 30
0.0
 11
40.212621184462819
 21
48.730416948230328
 31
0.0
  0
LINE
  5
18E
  8
0
 10
38.612601911895133
 20
48.180517058512258
 30
0.0
 11
40.212621184462819
 21
48.180517058512258
 31
0.0
  0
LINE
  5
18F
  8
0
 10
38.612601911895133
 20
48.730416948230328
 30
0.0
 11
38.612601911895133
 21
48.180517058512258
 31
0.0
  0
LINE
  5
190
  8
0
 10
40.212621184462819
 20
48.730416948230328
 30
0.0
 11
38.612601911895133
 21
48.730416948230328
 31
0.0
  0
LINE
  5
191
  8
0
 10
38.612601911895133
 20
45.630360201225614
 30
0.0
 11
40.212621184462819
 21
45.630360201225614
 31
0.0
  0
LINE
  5
192
  8
0
 10
38.612601911895133
 20
46.180260090943669
 30
0.0
 11
38.612601911895133
 21
45.630360201225614
 31
0.0
  0
LINE
  5
193
  8
0
 10
40.212621184462819
 20
46.180260090943669
 30
0.0
 11
38.612601911895133
 21
46.180260090943669
 31
0.0
  0
LINE
  5
194
  8
0
 10
40.212621184462819
 20
45.630360201225614
 30
0.0
 11
40.212621184462819
 21
46.180260090943669
 31
0.0
  0
LINE
  5
195
  8
0
 10
40.212621184462819
 20
43.63041373613575
 30
0.0
 11
40.212621184462819
 21
43.080203343938962
 31
0.0
  0
LINE
  5
196
  8
0
 10
38.612601911895133
 20
43.63041373613575
 30
0.0
 11
40.212621184462819
 21
43.63041373613575
 31
0.0
  0
LINE
  5
197
  8
0
 10
38.612601911895133
 20
43.080203343938962
 30
0.0
 11
38.612601911895133
 21
43.63041373613575
 31
0.0
  0
LINE
  5
198
  8
0
 10
40.212621184462819
 20
43.080203343938962
 30
0.0
 11
38.612601911895133
 21
43.080203343938962
 31
0.0
  0
LINE
  5
199
  8
0
 10
38.612601911895133
 20
40.530356989131029
 30
0.0
 11
40.212621184462819
 21
40.530356989131029
 31
0.0
  0
LINE
  5
19A
  8
0
 10
38.612601911895133
 20
41.080256878849099
 30
0.0
 11
38.612601911895133
 21
40.530356989131029
 31
0.0
  0
LINE
  5
19B
  8
0
 10
40.212621184462819
 20
41.080256878849099
 30
0.0
 11
38.612601911895133
 21
41.080256878849099
 31
0.0
  0
LINE
  5
19C
  8
0
 10
40.212621184462819
 20
40.530356989131029
 30
0.0
 11
40.212621184462819
 21
41.080256878849099
 31
0.0
  0
LINE
  5
19D
  8
0
 10
42.212567649552682
 20
43.080203343938962
 30
0.0
 11
40.212621184462819
 21
41.080256878849099
 31
0.0
  0
LINE
  5
19E
  8
0
 10
42.212567649552682
 20
45.630360201225614
 30
0.0
 11
40.212621184462819
 21
43.63041373613575
 31
0.0
  0
LINE
  5
19F
  8
0
 10
42.212567649552682
 20
48.180517058512258
 30
0.0
 11
40.212621184462819
 21
46.180260090943669
 31
0.0
  0
LINE
  5
1A0
  8
0
 10
42.212567649552682
 20
50.730363413320241
 30
0.0
 11
40.212621184462819
 21
48.730416948230328
 31
0.0
  0
LINE
  5
1A1
  8
0
 10
42.212567649552682
 20
51.28057380551698
 30
0.0
 11
41.212749668247064
 21
52.280391786822598
 31
0.0
  0
LINE
  5
1A2
  8
0
 10
42.212567649552682
 20
48.730416948230328
 30
0.0
 11
40.212621184462819
 21
50.730363413320241
 31
0.0
  0
LINE
  5
1A3
  8
0
 10
42.212567649552682
 20
46.180260090943669
 30
0.0
 11
40.212621184462819
 21
48.180517058512258
 31
0.0
  0
LINE
  5
1A4
  8
0
 10
42.212567649552682
 20
43.63041373613575
 30
0.0
 11
40.212621184462819
 21
45.630360201225614
 31
0.0
  0
LINE
  5
1A5
  8
0
 10
42.212567649552682
 20
41.080256878849099
 30
0.0
 11
40.212621184462819
 21
43.080203343938962
 31
0.0
  0
LINE
  5
1A6
  8
0
 10
42.212567649552682
 20
40.530356989131029
 30
0.0
 11
41.212749668247064
 21
39.530228505346741
 31
0.0
  0
LINE
  5
1A7
  8
0
 10
41.212749668247064
 20
39.530228505346741
 30
0.0
 11
40.212621184462819
 21
40.530356989131029
 31
0.0
  0
LINE
  5
1A8
  8
0
 10
42.212567649552682
 20
50.730363413320241
 30
0.0
 11
43.81258692212031
 21
50.730363413320241
 31
0.0
  0
LINE
  5
1A9
  8
0
 10
42.212567649552682
 20
51.28057380551698
 30
0.0
 11
42.212567649552682
 21
50.730363413320241
 31
0.0
  0
LINE
  5
1AA
  8
0
 10
43.81258692212031
 20
51.28057380551698
 30
0.0
 11
42.212567649552682
 21
51.28057380551698
 31
0.0
  0
LINE
  5
1AB
  8
0
 10
43.81258692212031
 20
50.730363413320241
 30
0.0
 11
43.81258692212031
 21
51.28057380551698
 31
0.0
  0
LINE
  5
1AC
  8
0
 10
43.81258692212031
 20
48.180517058512258
 30
0.0
 11
43.81258692212031
 21
48.730416948230328
 31
0.0
  0
LINE
  5
1AD
  8
0
 10
42.212567649552682
 20
48.180517058512258
 30
0.0
 11
43.81258692212031
 21
48.180517058512258
 31
0.0
  0
LINE
  5
1AE
  8
0
 10
42.212567649552682
 20
48.730416948230328
 30
0.0
 11
42.212567649552682
 21
48.180517058512258
 31
0.0
  0
LINE
  5
1AF
  8
0
 10
43.81258692212031
 20
48.730416948230328
 30
0.0
 11
42.212567649552682
 21
48.730416948230328
 31
0.0
  0
LINE
  5
1B0
  8
0
 10
42.212567649552682
 20
45.630360201225614
 30
0.0
 11
43.81258692212031
 21
45.630360201225614
 31
0.0
  0
LINE
  5
1B1
  8
0
 10
42.212567649552682
 20
46.180260090943669
 30
0.0
 11
42.212567649552682
 21
45.630360201225614
 31
0.0
  0
LINE
  5
1B2
  8
0
 10
43.81258692212031
 20
46.180260090943669
 30
0.0
 11
42.212567649552682
 21
46.180260090943669
 31
0.0
  0
LINE
  5
1B3
  8
0
 10
43.81258692212031
 20
45.630360201225614
 30
0.0
 11
43.81258692212031
 21
46.180260090943669
 31
0.0
  0
LINE
  5
1B4
  8
0
 10
43.81258692212031
 20
43.63041373613575
 30
0.0
 11
43.81258692212031
 21
43.080203343938962
 31
0.0
  0
LINE
  5
1B5
  8
0
 10
42.212567649552682
 20
43.63041373613575
 30
0.0
 11
43.81258692212031
 21
43.63041373613575
 31
0.0
  0
LINE
  5
1B6
  8
0
 10
42.212567649552682
 20
43.080203343938962
 30
0.0
 11
42.212567649552682
 21
43.63041373613575
 31
0.0
  0
LINE
  5
1B7
  8
0
 10
43.81258692212031
 20
43.080203343938962
 30
0.0
 11
42.212567649552682
 21
43.080203343938962
 31
0.0
  0
LINE
  5
1B8
  8
0
 10
42.212567649552682
 20
40.530356989131029
 30
0.0
 11
43.81258692212031
 21
40.530356989131029
 31
0.0
  0
LINE
  5
1B9
  8
0
 10
42.212567649552682
 20
41.080256878849099
 30
0.0
 11
42.212567649552682
 21
40.530356989131029
 31
0.0
  0
LINE
  5
1BA
  8
0
 10
43.81258692212031
 20
41.080256878849099
 30
0.0
 11
42.212567649552682
 21
41.080256878849099
 31
0.0
  0
LINE
  5
1BB
  8
0
 10
43.81258692212031
 20
40.530356989131029
 30
0.0
 11
43.81258692212031
 21
41.080256878849099
 31
0.0
  0
LINE
  5
1BC
  8
0
 10
45.81253338721023
 20
43.080203343938962
 30
0.0
 11
43.81258692212031
 21
41.080256878849099
 31
0.0
  0
LINE
  5
1BD
  8
0
 10
45.81253338721023
 20
45.630360201225614
 30
0.0
 11
43.81258692212031
 21
43.63041373613575
 31
0.0
  0
LINE
  5
1BE
  8
0
 10
45.81253338721023
 20
48.180517058512258
 30
0.0
 11
43.81258692212031
 21
46.180260090943669
 31
0.0
  0
LINE
  5
1BF
  8
0
 10
45.81253338721023
 20
50.730363413320241
 30
0.0
 11
43.81258692212031
 21
48.730416948230328
 31
0.0
  0
LINE
  5
1C0
  8
0
 10
45.81253338721023
 20
51.28057380551698
 30
0.0
 11
44.812715405904612
 21
52.280391786822598
 31
0.0
  0
LINE
  5
1C1
  8
0
 10
45.81253338721023
 20
48.730416948230328
 30
0.0
 11
43.81258692212031
 21
50.730363413320241
 31
0.0
  0
LINE
  5
1C2
  8
0
 10
45.81253338721023
 20
46.180260090943669
 30
0.0
 11
43.81258692212031
 21
48.180517058512258
 31
0.0
  0
LINE
  5
1C3
  8
0
 10
45.81253338721023
 20
43.63041373613575
 30
0.0
 11
43.81258692212031
 21
45.630360201225614
 31
0.0
  0
LINE
  5
1C4
  8
0
 10
45.81253338721023
 20
41.080256878849099
 30
0.0
 11
43.81258692212031
 21
43.080203343938962
 31
0.0
  0
LINE
  5
1C5
  8
0
 10
45.81253338721023
 20
40.530356989131029
 30
0.0
 11
44.812715405904612
 21
39.530228505346741
 31
0.0
  0
LINE
  5
1C6
  8
0
 10
44.812715405904612
 20
39.530228505346741
 30
0.0
 11
43.81258692212031
 21
40.530356989131029
 31
0.0
  0
LINE
  5
1C7
  8
0
 10
45.81253338721023
 20
50.730363413320241
 30
0.0
 11
47.412552659777809
 21
50.730363413320241
 31
0.0
  0
LINE
  5
1C8
  8
0
 10
45.81253338721023
 20
51.28057380551698
 30
0.0
 11
45.81253338721023
 21
50.730363413320241
 31
0.0
  0
LINE
  5
1C9
  8
0
 10
47.412552659777809
 20
51.28057380551698
 30
0.0
 11
45.81253338721023
 21
51.28057380551698
 31
0.0
  0
LINE
  5
1CA
  8
0
 10
47.412552659777809
 20
50.730363413320241
 30
0.0
 11
47.412552659777809
 21
51.28057380551698
 31
0.0
  0
LINE
  5
1CB
  8
0
 10
47.412552659777809
 20
48.180517058512258
 30
0.0
 11
47.412552659777809
 21
48.730416948230328
 31
0.0
  0
LINE
  5
1CC
  8
0
 10
45.81253338721023
 20
48.180517058512258
 30
0.0
 11
47.412552659777809
 21
48.180517058512258
 31
0.0
  0
LINE
  5
1CD
  8
0
 10
45.81253338721023
 20
48.730416948230328
 30
0.0
 11
45.81253338721023
 21
48.180517058512258
 31
0.0
  0
LINE
  5
1CE
  8
0
 10
47.412552659777809
 20
48.730416948230328
 30
0.0
 11
45.81253338721023
 21
48.730416948230328
 31
0.0
  0
LINE
  5
1CF
  8
0
 10
45.81253338721023
 20
45.630360201225614
 30
0.0
 11
47.412552659777809
 21
45.630360201225614
 31
0.0
  0
LINE
  5
1D0
  8
0
 10
45.81253338721023
 20
46.180260090943669
 30
0.0
 11
45.81253338721023
 21
45.630360201225614
 31
0.0
  0
LINE
  5
1D1
  8
0
 10
47.412552659777809
 20
46.180260090943669
 30
0.0
 11
45.81253338721023
 21
46.180260090943669
 31
0.0
  0
LINE
  5
1D2
  8
0
 10
47.412552659777809
 20
45.630360201225614
 30
0.0
 11
47.412552659777809
 21
46.180260090943669
 31
0.0
  0
LINE
  5
1D3
  8
0
 10
47.412552659777809
 20
43.63041373613575
 30
0.0
 11
47.412552659777809
 21
43.080203343938962
 31
0.0
  0
LINE
  5
1D4
  8
0
 10
45.81253338721023
 20
43.63041373613575
 30
0.0
 11
47.412552659777809
 21
43.63041373613575
 31
0.0
  0
LINE
  5
1D5
  8
0
 10
45.81253338721023
 20
43.080203343938962
 30
0.0
 11
45.81253338721023
 21
43.63041373613575
 31
0.0
  0
LINE
  5
1D6
  8
0
 10
47.412552659777809
 20
43.080203343938962
 30
0.0
 11
45.81253338721023
 21
43.080203343938962
 31
0.0
  0
LINE
  5
1D7
  8
0
 10
45.81253338721023
 20
40.530356989131029
 30
0.0
 11
47.412552659777809
 21
40.530356989131029
 31
0.0
  0
LINE
  5
1D8
  8
0
 10
45.81253338721023
 20
41.080256878849099
 30
0.0
 11
45.81253338721023
 21
40.530356989131029
 31
0.0
  0
LINE
  5
1D9
  8
0
 10
47.412552659777809
 20
41.080256878849099
 30
0.0
 11
45.81253338721023
 21
41.080256878849099
 31
0.0
  0
LINE
  5
1DA
  8
0
 10
47.412552659777809
 20
40.530356989131029
 30
0.0
 11
47.412552659777809
 21
41.080256878849099
 31
0.0
  0
LINE
  5
1DB
  8
0
 10
49.412809627346412
 20
43.080203343938962
 30
0.0
 11
47.412552659777809
 21
41.080256878849099
 31
0.0
  0
LINE
  5
1DC
  8
0
 10
49.412809627346412
 20
45.630360201225614
 30
0.0
 11
47.412552659777809
 21
43.63041373613575
 31
0.0
  0
LINE
  5
1DD
  8
0
 10
49.412809627346412
 20
48.180517058512258
 30
0.0
 11
47.412552659777809
 21
46.180260090943669
 31
0.0
  0
LINE
  5
1DE
  8
0
 10
49.412809627346412
 20
50.730363413320241
 30
0.0
 11
47.412552659777809
 21
48.730416948230328
 31
0.0
  0
LINE
  5
1DF
  8
0
 10
49.412809627346412
 20
51.28057380551698
 30
0.0
 11
48.412681143562168
 21
52.280391786822598
 31
0.0
  0
LINE
  5
1E0
  8
0
 10
49.412809627346412
 20
48.730416948230328
 30
0.0
 11
47.412552659777809
 21
50.730363413320241
 31
0.0
  0
LINE
  5
1E1
  8
0
 10
49.412809627346412
 20
46.180260090943669
 30
0.0
 11
47.412552659777809
 21
48.180517058512258
 31
0.0
  0
LINE
  5
1E2
  8
0
 10
49.412809627346412
 20
43.63041373613575
 30
0.0
 11
47.412552659777809
 21
45.630360201225614
 31
0.0
  0
LINE
  5
1E3
  8
0
 10
49.412809627346412
 20
41.080256878849099
 30
0.0
 11
47.412552659777809
 21
43.080203343938962
 31
0.0
  0
LINE
  5
1E4
  8
0
 10
49.412809627346412
 20
40.530356989131029
 30
0.0
 11
48.412681143562168
 21
39.530228505346741
 31
0.0
  0
LINE
  5
1E5
  8
0
 10
48.412681143562168
 20
39.530228505346741
 30
0.0
 11
47.412552659777809
 21
40.530356989131029
 31
0.0
  0
LINE
  5
1E6
  8
0
 10
49.412809627346412
 20
50.730363413320241
 30
0.0
 11
51.012828899914091
 21
50.730363413320241
 31
0.0
  0
LINE
  5
1E7
  8
0
 10
49.412809627346412
 20
51.28057380551698
 30
0.0
 11
49.412809627346412
 21
50.730363413320241
 31
0.0
  0
LINE
  5
1E8
  8
0
 10
51.012828899914091
 20
51.28057380551698
 30
0.0
 11
49.412809627346412
 21
51.28057380551698
 31
0.0
  0
LINE
  5
1E9
  8
0
 10
51.012828899914091
 20
50.730363413320241
 30
0.0
 11
51.012828899914091
 21
51.28057380551698
 31
0.0
  0
LINE
  5
1EA
  8
0
 10
51.012828899914091
 20
48.180517058512258
 30
0.0
 11
51.012828899914091
 21
48.730416948230328
 31
0.0
  0
LINE
  5
1EB
  8
0
 10
49.412809627346412
 20
48.180517058512258
 30
0.0
 11
51.012828899914091
 21
48.180517058512258
 31
0.0
  0
LINE
  5
1EC
  8
0
 10
49.412809627346412
 20
48.730416948230328
 30
0.0
 11
49.412809627346412
 21
48.180517058512258
 31
0.0
  0
LINE
  5
1ED
  8
0
 10
51.012828899914091
 20
48.730416948230328
 30
0.0
 11
49.412809627346412
 21
48.730416948230328
 31
0.0
  0
LINE
  5
1EE
  8
0
 10
49.412809627346412
 20
45.630360201225614
 30
0.0
 11
51.012828899914091
 21
45.630360201225614
 31
0.0
  0
LINE
  5
1EF
  8
0
 10
49.412809627346412
 20
46.180260090943669
 30
0.0
 11
49.412809627346412
 21
45.630360201225614
 31
0.0
  0
LINE
  5
1F0
  8
0
 10
51.012828899914091
 20
46.180260090943669
 30
0.0
 11
49.412809627346412
 21
46.180260090943669
 31
0.0
  0
LINE
  5
1F1
  8
0
 10
51.012828899914091
 20
45.630360201225614
 30
0.0
 11
51.012828899914091
 21
46.180260090943669
 31
0.0
  0
LINE
  5
1F2
  8
0
 10
51.012828899914091
 20
43.63041373613575
 30
0.0
 11
51.012828899914091
 21
43.080203343938962
 31
0.0
  0
LINE
  5
1F3
  8
0
 10
49.412809627346412
 20
43.63041373613575
 30
0.0
 11
51.012828899914091
 21
43.63041373613575
 31
0.0
  0
LINE
  5
1F4
  8
0
 10
49.412809627346412
 20
43.080203343938962
 30
0.0
 11
49.412809627346412
 21
43.63041373613575
 31
0.0
  0
LINE
  5
1F5
  8
0
 10
51.012828899914091
 20
43.080203343938962
 30
0.0
 11
49.412809627346412
 21
43.080203343938962
 31
0.0
  0
LINE
  5
1F6
  8
0
 10
49.412809627346412
 20
40.530356989131029
 30
0.0
 11
51.012828899914091
 21
40.530356989131029
 31
0.0
  0
LINE
  5
1F7
  8
0
 10
49.412809627346412
 20
41.080256878849099
 30
0.0
 11
49.412809627346412
 21
40.530356989131029
 31
0.0
  0
LINE
  5
1F8
  8
0
 10
51.012828899914091
 20
41.080256878849099
 30
0.0
 11
49.412809627346412
 21
41.080256878849099
 31
0.0
  0
LINE
  5
1F9
  8
0
 10
51.012828899914091
 20
40.530356989131029
 30
0.0
 11
51.012828899914091
 21
41.080256878849099
 31
0.0
  0
LINE
  5
1FA
  8
0
 10
53.012775365003961
 20
43.080203343938962
 30
0.0
 11
51.012828899914091
 21
41.080256878849099
 31
0.0
  0
LINE
  5
1FB
  8
0
 10
53.012775365003961
 20
45.630360201225614
 30
0.0
 11
51.012828899914091
 21
43.63041373613575
 31
0.0
  0
LINE
  5
1FC
  8
0
 10
53.012775365003961
 20
48.180517058512258
 30
0.0
 11
51.012828899914091
 21
46.180260090943669
 31
0.0
  0
LINE
  5
1FD
  8
0
 10
53.012775365003961
 20
50.730363413320241
 30
0.0
 11
51.012828899914091
 21
48.730416948230328
 31
0.0
  0
LINE
  5
1FE
  8
0
 10
53.012775365003961
 20
51.28057380551698
 30
0.0
 11
52.012646881219659
 21
52.280391786822598
 31
0.0
  0
LINE
  5
1FF
  8
0
 10
53.012775365003961
 20
48.730416948230328
 30
0.0
 11
51.012828899914091
 21
50.730363413320241
 31
0.0
  0
LINE
  5
200
  8
0
 10
53.012775365003961
 20
46.180260090943669
 30
0.0
 11
51.012828899914091
 21
48.180517058512258
 31
0.0
  0
LINE
  5
201
  8
0
 10
53.012775365003961
 20
43.63041373613575
 30
0.0
 11
51.012828899914091
 21
45.630360201225614
 31
0.0
  0
LINE
  5
202
  8
0
 10
53.012775365003961
 20
41.080256878849099
 30
0.0
 11
51.012828899914091
 21
43.080203343938962
 31
0.0
  0
LINE
  5
203
  8
0
 10
53.012775365003961
 20
40.530356989131029
 30
0.0
 11
52.012646881219659
 21
39.530228505346741
 31
0.0
  0
LINE
  5
204
  8
0
 10
52.012646881219659
 20
39.530228505346741
 30
0.0
 11
51.012828899914091
 21
40.530356989131029
 31
0.0
  0
LINE
  5
205
  8
0
 10
53.012775365003961
 20
50.730363413320241
 30
0.0
 11
54.612794637571596
 21
50.730363413320241
 31
0.0
  0
LINE
  5
206
  8
0
 10
53.012775365003961
 20
51.28057380551698
 30
0.0
 11
53.012775365003961
 21
50.730363413320241
 31
0.0
  0
LINE
  5
207
  8
0
 10
54.612794637571596
 20
51.28057380551698
 30
0.0
 11
53.012775365003961
 21
51.28057380551698
 31
0.0
  0
LINE
  5
208
  8
0
 10
54.612794637571596
 20
50.730363413320241
 30
0.0
 11
54.612794637571596
 21
51.28057380551698
 31
0.0
  0
LINE
  5
209
  8
0
 10
54.612794637571596
 20
48.180517058512258
 30
0.0
 11
54.612794637571596
 21
48.730416948230328
 31
0.0
  0
LINE
  5
20A
  8
0
 10
53.012775365003961
 20
48.180517058512258
 30
0.0
 11
54.612794637571596
 21
48.180517058512258
 31
0.0
  0
LINE
  5
20B
  8
0
 10
53.012775365003961
 20
48.730416948230328
 30
0.0
 11
53.012775365003961
 21
48.180517058512258
 31
0.0
  0
LINE
  5
20C
  8
0
 10
54.612794637571596
 20
48.730416948230328
 30
0.0
 11
53.012775365003961
 21
48.730416948230328
 31
0.0
  0
LINE
  5
20D
  8
0
 10
53.012775365003961
 20
45.630360201225614
 30
0.0
 11
54.612794637571596
 21
45.630360201225614
 31
0.0
  0
LINE
  5
20E
  8
0
 10
53.012775365003961
 20
46.180260090943669
 30
0.0
 11
53.012775365003961
 21
45.630360201225614
 31
0.0
  0
LINE
  5
20F
  8
0
 10
54.612794637571596
 20
46.180260090943669
 30
0.0
 11
53.012775365003961
 21
46.180260090943669
 31
0.0
  0
LINE
  5
210
  8
0
 10
54.612794637571596
 20
45.630360201225614
 30
0.0
 11
54.612794637571596
 21
46.180260090943669
 31
0.0
  0
LINE
  5
211
  8
0
 10
54.612794637571596
 20
43.63041373613575
 30
0.0
 11
54.612794637571596
 21
43.080203343938962
 31
0.0
  0
LINE
  5
212
  8
0
 10
53.012775365003961
 20
43.63041373613575
 30
0.0
 11
54.612794637571596
 21
43.63041373613575
 31
0.0
  0
LINE
  5
213
  8
0
 10
53.012775365003961
 20
43.080203343938962
 30
0.0
 11
53.012775365003961
 21
43.63041373613575
 31
0.0
  0
LINE
  5
214
  8
0
 10
54.612794637571596
 20
43.080203343938962
 30
0.0
 11
53.012775365003961
 21
43.080203343938962
 31
0.0
  0
LINE
  5
215
  8
0
 10
53.012775365003961
 20
40.530356989131029
 30
0.0
 11
54.612794637571596
 21
40.530356989131029
 31
0.0
  0
LINE
  5
216
  8
0
 10
53.012775365003961
 20
41.080256878849099
 30
0.0
 11
53.012775365003961
 21
40.530356989131029
 31
0.0
  0
LINE
  5
217
  8
0
 10
54.612794637571596
 20
41.080256878849099
 30
0.0
 11
53.012775365003961
 21
41.080256878849099
 31
0.0
  0
LINE
  5
218
  8
0
 10
54.612794637571596
 20
40.530356989131029
 30
0.0
 11
54.612794637571596
 21
41.080256878849099
 31
0.0
  0
LINE
  5
219
  8
0
 10
56.61274110266146
 20
43.080203343938962
 30
0.0
 11
54.612794637571596
 21
41.080256878849099
 31
0.0
  0
LINE
  5
21A
  8
0
 10
56.61274110266146
 20
45.630360201225614
 30
0.0
 11
54.612794637571596
 21
43.63041373613575
 31
0.0
  0
LINE
  5
21B
  8
0
 10
56.61274110266146
 20
48.180517058512258
 30
0.0
 11
54.612794637571596
 21
46.180260090943669
 31
0.0
  0
LINE
  5
21C
  8
0
 10
56.61274110266146
 20
50.730363413320241
 30
0.0
 11
54.612794637571596
 21
48.730416948230328
 31
0.0
  0
LINE
  5
21D
  8
0
 10
56.61274110266146
 20
51.28057380551698
 30
0.0
 11
55.612612618877158
 21
52.280391786822598
 31
0.0
  0
LINE
  5
21E
  8
0
 10
56.61274110266146
 20
48.730416948230328
 30
0.0
 11
54.612794637571596
 21
50.730363413320241
 31
0.0
  0
LINE
  5
21F
  8
0
 10
56.61274110266146
 20
46.180260090943669
 30
0.0
 11
54.612794637571596
 21
48.180517058512258
 31
0.0
  0
LINE
  5
220
  8
0
 10
56.61274110266146
 20
43.63041373613575
 30
0.0
 11
54.612794637571596
 21
45.630360201225614
 31
0.0
  0
LINE
  5
221
  8
0
 10
56.61274110266146
 20
41.080256878849099
 30
0.0
 11
54.612794637571596
 21
43.080203343938962
 31
0.0
  0
LINE
  5
222
  8
0
 10
56.61274110266146
 20
40.530356989131029
 30
0.0
 11
55.612612618877158
 21
39.530228505346741
 31
0.0
  0
LINE
  5
223
  8
0
 10
55.612612618877158
 20
39.530228505346741
 30
0.0
 11
54.612794637571596
 21
40.530356989131029
 31
0.0
  0
LINE
  5
224
  8
0
 10
56.61274110266146
 20
50.730363413320241
 30
0.0
 11
58.212760375229102
 21
50.730363413320241
 31
0.0
  0
LINE
  5
225
  8
0
 10
56.61274110266146
 20
51.28057380551698
 30
0.0
 11
56.61274110266146
 21
50.730363413320241
 31
0.0
  0
LINE
  5
226
  8
0
 10
58.212760375229102
 20
51.28057380551698
 30
0.0
 11
56.61274110266146
 21
51.28057380551698
 31
0.0
  0
LINE
  5
227
  8
0
 10
58.212760375229102
 20
50.730363413320241
 30
0.0
 11
58.212760375229102
 21
51.28057380551698
 31
0.0
  0
LINE
  5
228
  8
0
 10
58.212760375229102
 20
48.180517058512258
 30
0.0
 11
58.212760375229102
 21
48.730416948230328
 31
0.0
  0
LINE
  5
229
  8
0
 10
56.61274110266146
 20
48.180517058512258
 30
0.0
 11
58.212760375229102
 21
48.180517058512258
 31
0.0
  0
LINE
  5
22A
  8
0
 10
56.61274110266146
 20
48.730416948230328
 30
0.0
 11
56.61274110266146
 21
48.180517058512258
 31
0.0
  0
LINE
  5
22B
  8
0
 10
58.212760375229102
 20
48.730416948230328
 30
0.0
 11
56.61274110266146
 21
48.730416948230328
 31
0.0
  0
LINE
  5
22C
  8
0
 10
56.61274110266146
 20
45.630360201225614
 30
0.0
 11
58.212760375229102
 21
45.630360201225614
 31
0.0
  0
LINE
  5
22D
  8
0
 10
56.61274110266146
 20
46.180260090943669
 30
0.0
 11
56.61274110266146
 21
45.630360201225614
 31
0.0
  0
LINE
  5
22E
  8
0
 10
58.212760375229102
 20
46.180260090943669
 30
0.0
 11
56.61274110266146
 21
46.180260090943669
 31
0.0
  0
LINE
  5
22F
  8
0
 10
58.212760375229102
 20
45.630360201225614
 30
0.0
 11
58.212760375229102
 21
46.180260090943669
 31
0.0
  0
LINE
  5
230
  8
0
 10
58.212760375229102
 20
43.63041373613575
 30
0.0
 11
58.212760375229102
 21
43.080203343938962
 31
0.0
  0
LINE
  5
231
  8
0
 10
56.61274110266146
 20
43.63041373613575
 30
0.0
 11
58.212760375229102
 21
43.63041373613575
 31
0.0
  0
LINE
  5
232
  8
0
 10
56.61274110266146
 20
43.080203343938962
 30
0.0
 11
56.61274110266146
 21
43.63041373613575
 31
0.0
  0
LINE
  5
233
  8
0
 10
58.212760375229102
 20
43.080203343938962
 30
0.0
 11
56.61274110266146
 21
43.080203343938962
 31
0.0
  0
LINE
  5
234
  8
0
 10
56.61274110266146
 20
40.530356989131029
 30
0.0
 11
58.212760375229102
 21
40.530356989131029
 31
0.0
  0
LINE
  5
235
  8
0
 10
56.61274110266146
 20
41.080256878849099
 30
0.0
 11
56.61274110266146
 21
40.530356989131029
 31
0.0
  0
LINE
  5
236
  8
0
 10
58.212760375229102
 20
41.080256878849099
 30
0.0
 11
56.61274110266146
 21
41.080256878849099
 31
0.0
  0
LINE
  5
237
  8
0
 10
58.212760375229102
 20
40.530356989131029
 30
0.0
 11
58.212760375229102
 21
41.080256878849099
 31
0.0
  0
LINE
  5
238
  8
0
 10
60.212706840319008
 20
43.080203343938962
 30
0.0
 11
58.212760375229102
 21
41.080256878849099
 31
0.0
  0
LINE
  5
239
  8
0
 10
60.212706840319008
 20
45.630360201225614
 30
0.0
 11
58.212760375229102
 21
43.63041373613575
 31
0.0
  0
LINE
  5
23A
  8
0
 10
60.212706840319008
 20
48.180517058512258
 30
0.0
 11
58.212760375229102
 21
46.180260090943669
 31
0.0
  0
LINE
  5
23B
  8
0
 10
60.212706840319008
 20
50.730363413320241
 30
0.0
 11
58.212760375229102
 21
48.730416948230328
 31
0.0
  0
LINE
  5
23C
  8
0
 10
60.212706840319008
 20
51.28057380551698
 30
0.0
 11
59.212578356534721
 21
52.280391786822598
 31
0.0
  0
LINE
  5
23D
  8
0
 10
60.212706840319008
 20
48.730416948230328
 30
0.0
 11
58.212760375229102
 21
50.730363413320241
 31
0.0
  0
LINE
  5
23E
  8
0
 10
60.212706840319008
 20
46.180260090943669
 30
0.0
 11
58.212760375229102
 21
48.180517058512258
 31
0.0
  0
LINE
  5
23F
  8
0
 10
60.212706840319008
 20
43.63041373613575
 30
0.0
 11
58.212760375229102
 21
45.630360201225614
 31
0.0
  0
LINE
  5
240
  8
0
 10
60.212706840319008
 20
41.080256878849099
 30
0.0
 11
58.212760375229102
 21
43.080203343938962
 31
0.0
  0
LINE
  5
241
  8
0
 10
60.212706840319008
 20
40.530356989131029
 30
0.0
 11
59.212578356534721
 21
39.530228505346741
 31
0.0
  0
LINE
  5
242
  8
0
 10
59.212578356534721
 20
39.530228505346741
 30
0.0
 11
58.212760375229102
 21
40.530356989131029
 31
0.0
  0
LINE
  5
243
  8
0
 10
60.212706840319008
 20
50.730363413320241
 30
0.0
 11
61.812726112886587
 21
50.730363413320241
 31
0.0
  0
LINE
  5
244
  8
0
 10
60.212706840319008
 20
51.28057380551698
 30
0.0
 11
60.212706840319008
 21
50.730363413320241
 31
0.0
  0
LINE
  5
245
  8
0
 10
61.812726112886587
 20
51.28057380551698
 30
0.0
 11
60.212706840319008
 21
51.28057380551698
 31
0.0
  0
LINE
  5
246
  8
0
 10
61.812726112886587
 20
50.730363413320241
 30
0.0
 11
61.812726112886587
 21
51.28057380551698
 31
0.0
  0
LINE
  5
247
  8
0
 10
61.812726112886587
 20
48.180517058512258
 30
0.0
 11
61.812726112886587
 21
48.730416948230328
 31
0.0
  0
LINE
  5
248
  8
0
 10
60.212706840319008
 20
48.180517058512258
 30
0.0
 11
61.812726112886587
 21
48.180517058512258
 31
0.0
  0
LINE
  5
249
  8
0
 10
60.212706840319008
 20
48.730416948230328
 30
0.0
 11
60.212706840319008
 21
48.180517058512258
 31
0.0
  0
LINE
  5
24A
  8
0
 10
61.812726112886587
 20
48.730416948230328
 30
0.0
 11
60.212706840319008
 21
48.730416948230328
 31
0.0
  0
LINE
  5
24B
  8
0
 10
60.212706840319008
 20
45.630360201225614
 30
0.0
 11
61.812726112886587
 21
45.630360201225614
 31
0.0
  0
LINE
  5
24C
  8
0
 10
60.212706840319008
 20
46.180260090943669
 30
0.0
 11
60.212706840319008
 21
45.630360201225614
 31
0.0
  0
LINE
  5
24D
  8
0
 10
61.812726112886587
 20
46.180260090943669
 30
0.0
 11
60.212706840319008
 21
46.180260090943669
 31
0.0
  0
LINE
  5
24E
  8
0
 10
61.812726112886587
 20
45.630360201225614
 30
0.0
 11
61.812726112886587
 21
46.180260090943669
 31
0.0
  0
LINE
  5
24F
  8
0
 10
61.812726112886587
 20
43.63041373613575
 30
0.0
 11
61.812726112886587
 21
43.080203343938962
 31
0.0
  0
LINE
  5
250
  8
0
 10
60.212706840319008
 20
43.63041373613575
 30
0.0
 11
61.812726112886587
 21
43.63041373613575
 31
0.0
  0
LINE
  5
251
  8
0
 10
60.212706840319008
 20
43.080203343938962
 30
0.0
 11
60.212706840319008
 21
43.63041373613575
 31
0.0
  0
LINE
  5
252
  8
0
 10
61.812726112886587
 20
43.080203343938962
 30
0.0
 11
60.212706840319008
 21
43.080203343938962
 31
0.0
  0
LINE
  5
253
  8
0
 10
60.212706840319008
 20
40.530356989131029
 30
0.0
 11
61.812726112886587
 21
40.530356989131029
 31
0.0
  0
LINE
  5
254
  8
0
 10
60.212706840319008
 20
41.080256878849099
 30
0.0
 11
60.212706840319008
 21
40.530356989131029
 31
0.0
  0
LINE
  5
255
  8
0
 10
61.812726112886587
 20
41.080256878849099
 30
0.0
 11
60.212706840319008
 21
41.080256878849099
 31
0.0
  0
LINE
  5
256
  8
0
 10
61.812726112886587
 20
40.530356989131029
 30
0.0
 11
61.812726112886587
 21
41.080256878849099
 31
0.0
  0
LINE
  5
257
  8
0
 10
62.812854596670881
 20
42.080385362633329
 30
0.0
 11
61.812726112886587
 21
41.080256878849099
 31
0.0
  0
LINE
  5
258
  8
0
 10
62.812854596670881
 20
44.630231717441319
 30
0.0
 11
61.812726112886587
 21
43.63041373613575
 31
0.0
  0
LINE
  5
259
  8
0
 10
62.812854596670881
 20
47.180388574727971
 30
0.0
 11
61.812726112886587
 21
46.180260090943669
 31
0.0
  0
LINE
  5
25A
  8
0
 10
62.812854596670881
 20
49.730545432014623
 30
0.0
 11
61.812726112886587
 21
48.730416948230328
 31
0.0
  0
LINE
  5
25B
  8
0
 10
62.812854596670881
 20
49.730545432014623
 30
0.0
 11
61.812726112886587
 21
50.730363413320241
 31
0.0
  0
LINE
  5
25C
  8
0
 10
62.812854596670881
 20
47.180388574727971
 30
0.0
 11
61.812726112886587
 21
48.180517058512258
 31
0.0
  0
LINE
  5
25D
  8
0
 10
62.812854596670881
 20
44.630231717441319
 30
0.0
 11
61.812726112886587
 21
45.630360201225614
 31
0.0
  0
LINE
  5
25E
  8
0
 10
62.812854596670881
 20
42.080385362633329
 30
0.0
 11
61.812726112886587
 21
43.080203343938962
 31
0.0
  0
LINE
  5
25F
  8
0
 10
62.812854596670881
 20
39.530228505346741
 30
0.0
 11
61.812726112886587
 21
40.530356989131029
 31
0.0
  0
LINE
  5
260
  8
0
 10
37.612473428110889
 20
39.530228505346741
 30
0.0
 11
62.812854596670881
 21
39.530228505346741
 31
0.0
  0
LINE
  5
261
  8
0
 10
62.812854596670881
 20
42.080385362633329
 30
0.0
 11
37.612473428110889
 21
42.080385362633329
 31
0.0
  0
LINE
  5
262
  8
0
 10
37.612473428110889
 20
44.630231717441319
 30
0.0
 11
62.812854596670881
 21
44.630231717441319
 31
0.0
  0
LINE
  5
263
  8
0
 10
62.812854596670881
 20
47.180388574727971
 30
0.0
 11
37.612473428110889
 21
47.180388574727971
 31
0.0
  0
LINE
  5
264
  8
0
 10
37.612473428110889
 20
49.730545432014623
 30
0.0
 11
62.812854596670881
 21
49.730545432014623
 31
0.0
  0
LINE
  5
265
  8
0
 10
62.812854596670881
 20
52.280391786822598
 30
0.0
 11
61.812726112886587
 21
51.28057380551698
 31
0.0
  0
LINE
  5
266
  8
0
 10
59.212578356534721
 20
52.280391786822598
 30
0.0
 11
58.212760375229102
 21
51.28057380551698
 31
0.0
  0
LINE
  5
267
  8
0
 10
55.612612618877158
 20
52.280391786822598
 30
0.0
 11
54.612794637571596
 21
51.28057380551698
 31
0.0
  0
LINE
  5
268
  8
0
 10
52.012646881219659
 20
52.280391786822598
 30
0.0
 11
51.012828899914091
 21
51.28057380551698
 31
0.0
  0
LINE
  5
269
  8
0
 10
48.412681143562168
 20
52.280391786822598
 30
0.0
 11
47.412552659777809
 21
51.28057380551698
 31
0.0
  0
LINE
  5
26A
  8
0
 10
44.812715405904612
 20
52.280391786822598
 30
0.0
 11
43.81258692212031
 21
51.28057380551698
 31
0.0
  0
LINE
  5
26B
  8
0
 10
41.212749668247064
 20
52.280391786822598
 30
0.0
 11
40.212621184462819
 21
51.28057380551698
 31
0.0
  0
LINE
  5
26C
  8
0
 10
37.612473428110889
 20
38.780365019367508
 30
0.0
 11
37.612473428110889
 21
52.280391786822598
 31
0.0
  0
ARC
  5
26E
  8
0
 10
50.212664012390917
 20
103.1265876233291
 30
0.0
 40
13.50002676745504
 50
270.0
 51
188.52071000856401
  0
CIRCLE
  5
26F
  8
0
 10
50.212664012390917
 20
103.1265876233291
 30
0.0
 40
11.474929601593219
  0
TEXT
  5
486
  8
0
 62
     3
 10
0.0
 20
0.0
 30
0.0
 40
10.0
  1
CLS58CB
  7
STANDARD1
  0
ENDSEC
  0
EOF
