  0
SECTION
  2
HEADER
  9
$ACADVER
  1
AC1009
  9
$INSBASE
 10
0.0
 20
0.0
 30
0.0
  9
$EXTMIN
 10
0.0
 20
-2.960436562073669
 30
0.0
  9
$EXTMAX
 10
169.169274
 20
126.569255
 30
0.0
  9
$LIMMIN
 10
0.0
 20
0.0
  9
$LIMMAX
 10
187.5
 20
135.0
  9
$ORTHOMODE
 70
     1
  9
$REGENMODE
 70
     1
  9
$FILLMODE
 70
     1
  9
$QTEXTMODE
 70
     0
  9
$MIRRTEXT
 70
     0
  9
$DRAGMODE
 70
     2
  9
$LTSCALE
 40
5.0
  9
$OSMODE
 70
  3071
  9
$ATTMODE
 70
     1
  9
$TEXTSIZE
 40
2.0
  9
$TRACEWID
 40
0.05
  9
$TEXTSTYLE
  7
STANDARD
  9
$CLAYER
  8
0
  9
$CELTYPE
  6
BYLAYER
  9
$CECOLOR
 62
   256
  9
$DIMSCALE
 40
0.5
  9
$DIMASZ
 40
3.0
  9
$DIMEXO
 40
2.0
  9
$DIMDLI
 40
0.38
  9
$DIMRND
 40
0.0
  9
$DIMDLE
 40
0.0
  9
$DIMEXE
 40
2.0
  9
$DIMTP
 40
0.0
  9
$DIMTM
 40
0.0
  9
$DIMTXT
 40
3.2000000000000002
  9
$DIMCEN
 40
0.0
  9
$DIMTSZ
 40
0.0
  9
$DIMTOL
 70
     0
  9
$DIMLIM
 70
     0
  9
$DIMTIH
 70
     0
  9
$DIMTOH
 70
     0
  9
$DIMSE1
 70
     0
  9
$DIMSE2
 70
     0
  9
$DIMTAD
 70
     1
  9
$DIMZIN
 70
     0
  9
$DIMBLK
  1

  9
$DIMASO
 70
     0
  9
$DIMSHO
 70
     0
  9
$DIMPOST
  1

  9
$DIMAPOST
  1

  9
$DIMALT
 70
     0
  9
$DIMALTD
 70
     2
  9
$DIMALTF
 40
25.399999999999999
  9
$DIMLFAC
 40
1.0
  9
$DIMTOFL
 70
     1
  9
$DIMTVP
 40
1.6000000000000001
  9
$DIMTIX
 70
     1
  9
$DIMSOXD
 70
     0
  9
$DIMSAH
 70
     0
  9
$DIMBLK1
  1

  9
$DIMBLK2
  1

  9
$DIMSTYLE
  2
STANDARD
  9
$DIMCLRD
 70
     0
  9
$DIMCLRE
 70
     0
  9
$DIMCLRT
 70
     0
  9
$DIMTFAC
 40
1.0
  9
$DIMGAP
 40
0.09
  9
$LUNITS
 70
     2
  9
$LUPREC
 70
     4
  9
$SKETCHINC
 40
0.1
  9
$FILLETRAD
 40
0.0
  9
$AUNITS
 70
     0
  9
$AUPREC
 70
     4
  9
$MENU
  1
E:\r13\win\SUPPORT\ACAD
  9
$ELEVATION
 40
0.0
  9
$PELEVATION
 40
0.0
  9
$THICKNESS
 40
0.0
  9
$LIMCHECK
 70
     0
  9
$BLIPMODE
 70
     0
  9
$CHAMFERA
 40
0.0
  9
$CHAMFERB
 40
0.0
  9
$SKPOLY
 70
     0
  9
$TDCREATE
 40
2449839.7791087958
  9
$TDUPDATE
 40
2456598.4956168639
  9
$TDINDWG
 40
0.0000915046
  9
$TDUSRTIMER
 40
0.0000915046
  9
$USRTIMER
 70
     1
  9
$ANGBASE
 50
0.0
  9
$ANGDIR
 70
     0
  9
$PDMODE
 70
     0
  9
$PDSIZE
 40
0.0
  9
$PLINEWID
 40
0.0
  9
$COORDS
 70
     1
  9
$SPLFRAME
 70
     0
  9
$SPLINETYPE
 70
     6
  9
$SPLINESEGS
 70
     8
  9
$ATTDIA
 70
     0
  9
$ATTREQ
 70
     1
  9
$HANDLING
 70
     1
  9
$HANDSEED
  5
267
  9
$SURFTAB1
 70
     6
  9
$SURFTAB2
 70
     6
  9
$SURFTYPE
 70
     6
  9
$SURFU
 70
     6
  9
$SURFV
 70
     6
  9
$UCSNAME
  2

  9
$UCSORG
 10
0.0
 20
0.0
 30
0.0
  9
$UCSXDIR
 10
1.0
 20
0.0
 30
0.0
  9
$UCSYDIR
 10
0.0
 20
1.0
 30
0.0
  9
$PUCSNAME
  2

  9
$PUCSORG
 10
0.0
 20
0.0
 30
0.0
  9
$PUCSXDIR
 10
1.0
 20
0.0
 30
0.0
  9
$PUCSYDIR
 10
0.0
 20
1.0
 30
0.0
  9
$USERI1
 70
     0
  9
$USERI2
 70
     1
  9
$USERI3
 70
     0
  9
$USERI4
 70
     0
  9
$USERI5
 70
     0
  9
$USERR1
 40
0.0
  9
$USERR2
 40
0.0
  9
$USERR3
 40
0.0
  9
$USERR4
 40
0.0
  9
$USERR5
 40
0.0
  9
$WORLDVIEW
 70
     1
  9
$SHADEDGE
 70
     3
  9
$SHADEDIF
 70
    70
  9
$TILEMODE
 70
     1
  9
$MAXACTVP
 70
    16
  9
$PLIMCHECK
 70
     0
  9
$PEXTMIN
 10
1.0000000000000000E+020
 20
1.0000000000000000E+020
 30
1.0000000000000000E+020
  9
$PEXTMAX
 10
-1.0000000000000000E+020
 20
-1.0000000000000000E+020
 30
-1.0000000000000000E+020
  9
$PLIMMIN
 10
0.0
 20
0.0
  9
$PLIMMAX
 10
12.0
 20
9.0
  9
$UNITMODE
 70
     0
  9
$VISRETAIN
 70
     0
  9
$PLINEGEN
 70
     0
  9
$PSLTSCALE
 70
     0
  0
ENDSEC
  0
SECTION
  2
TABLES
  0
TABLE
  2
VPORT
 70
     1
  0
VPORT
  2
*ACTIVE
 70
     0
 10
0.0
 20
0.0
 11
1.0
 21
1.0
 12
97.570150770051072
 22
66.014785922033241
 13
0.0
 23
0.0
 14
5.0
 24
5.0
 15
5.0
 25
5.0
 16
0.0
 26
0.0
 36
1.0
 17
0.0
 27
0.0
 37
0.0
 40
139.20783109903601
 41
1.831871345029239
 42
50.0
 43
0.0
 44
0.0
 50
0.0
 51
0.0
 71
     0
 72
   100
 73
     1
 74
     0
 75
     0
 76
     0
 77
     0
 78
     2
  0
ENDTAB
  0
TABLE
  2
LTYPE
 70
     4
  0
LTYPE
  2
CONTINUOUS
 70
     0
  3
Solid Line
 72
    65
 73
     0
 40
0.0
  0
LTYPE
  2
CENTER
 70
     0
  3
____ _ ____ _ ____ _ ____ _ ____ _ ____ _ ____
 72
    65
 73
     4
 40
2.0
 49
1.25
 49
-0.25
 49
0.25
 49
-0.25
  0
LTYPE
  2
HIDDEN
 70
     0
  3
_ _ _ _ _ _ _ _ _ _ _ _ _ _ _ _ _ _ _ _ _ _ _
 72
    65
 73
     2
 40
0.375
 49
0.25
 49
-0.125
  0
LTYPE
  2
PHANTOM2
 70
     0
  3
___ _ _ ___ _ _ ___ _ _ ___ _ _
 72
    65
 73
     6
 40
1.25
 49
0.625
 49
-0.125
 49
0.125
 49
-0.125
 49
0.125
 49
-0.125
  0
ENDTAB
  0
TABLE
  2
LAYER
 70
     4
  0
LAYER
  2
0
 70
     0
 62
     7
  6
CONTINUOUS
  0
LAYER
  2
1
 70
     0
 62
     1
  6
CENTER
  0
LAYER
  2
3
 70
     0
 62
     3
  6
CONTINUOUS
  0
LAYER
  2
2
 70
     0
 62
     2
  6
HIDDEN
  0
ENDTAB
  0
TABLE
  2
STYLE
 70
     2
  0
STYLE
  2
STANDARD
 70
     0
 40
0.0
 41
1.0
 50
0.0
 71
     0
 42
2.0
  3
ROMANS
  4
BIGFONT
  0
STYLE
  2
STANDARD1
 70
     0
 40
0.0
 41
1.0
 50
0.0
 71
     0
 42
3.0
  3
txt
  4

  0
ENDTAB
  0
TABLE
  2
VIEW
 70
     1
  0
VIEW
  2
ALL
 70
     0
 40
135.0
 10
110.49579799999999
 20
67.5
 41
0.0
 11
0.0
 21
0.0
 31
1.0
 12
0.0
 22
0.0
 32
0.0
 42
0.0
 43
0.0
 44
0.0
 50
0.0
 71
     0
  0
ENDTAB
  0
TABLE
  2
UCS
 70
     0
  0
ENDTAB
  0
TABLE
  2
APPID
 70
     3
  0
APPID
  2
ACAD
 70
     0
  0
APPID
  2
ACAD_MLEADERVER
 70
     0
  0
APPID
  2
ACAD_NAV_VCDISPLAY
 70
     0
  0
ENDTAB
  0
TABLE
  2
DIMSTYLE
 70
     1
  0
DIMSTYLE
  2
STANDARD
 70
     0
  3

  4

  5

  6

  7

 40
1.0
 41
0.18
 42
0.0625
 43
0.38
 44
0.18
 45
0.0
 46
0.0
 47
0.0
 48
0.0
140
0.18
141
0.09
142
0.0
143
25.399999999999999
144
1.0
145
0.0
146
1.0
147
0.09
 71
     0
 72
     0
 73
     1
 74
     1
 75
     0
 76
     0
 77
     0
 78
     0
170
     0
171
     2
172
     0
173
     0
174
     0
175
     0
176
     0
177
     0
178
     0
  0
ENDTAB
  0
ENDSEC
  0
SECTION
  2
BLOCKS
  0
BLOCK
  8
0
  2
$MODEL_SPACE
 70
     0
 10
0.0
 20
0.0
 30
0.0
  3
$MODEL_SPACE
  1

  0
ENDBLK
  5
11B
  8
0
  0
BLOCK
 67
     1
  8
0
  2
$PAPER_SPACE
 70
     0
 10
0.0
 20
0.0
 30
0.0
  3
$PAPER_SPACE
  1

  0
ENDBLK
  5
119
 67
     1
  8
0
  0
ENDSEC
  0
SECTION
  2
ENTITIES
  0
LINE
  5
37
  8
0
 10
164.169274
 20
71.787762999999984
 30
0.0
 11
157.818421
 21
60.787762999999998
 31
0.0
  0
LINE
  5
38
  8
0
 10
157.818421
 20
82.787762999999998
 30
0.0
 11
164.169274
 21
71.787762999999984
 31
0.0
  0
LINE
  5
39
  8
0
 10
145.116715
 20
82.787762999999998
 30
0.0
 11
157.818421
 21
82.787762999999998
 31
0.0
  0
LINE
  5
3A
  8
0
 10
138.765862
 20
71.787762999999984
 30
0.0
 11
145.116715
 21
82.787762999999998
 31
0.0
  0
LINE
  5
3B
  8
0
 10
145.116715
 20
60.787762999999998
 30
0.0
 11
138.765862
 21
71.787762999999984
 31
0.0
  0
LINE
  5
3C
  8
0
 10
157.818421
 20
60.787762999999998
 30
0.0
 11
145.116715
 21
60.787762999999998
 31
0.0
  0
LINE
  5
3D
  8
1
 10
78.675607999999997
 20
79.887763000000007
 30
0.0
 11
78.675607999999997
 21
63.687762999999997
 31
0.0
  0
LINE
  5
3E
  8
1
 10
64.675607999999997
 20
71.787762999999984
 30
0.0
 11
118.675608
 21
71.787762999999984
 31
0.0
  0
LINE
  5
3F
  8
1
 10
77.807407999999995
 20
126.569255
 30
0.0
 11
77.807407999999995
 21
99.369254999999995
 31
0.0
  0
LINE
  5
40
  8
1
 10
63.807407999999988
 20
112.969255
 30
0.0
 11
117.807408
 21
112.969255
 31
0.0
  0
CIRCLE
  5
41
  8
3
 10
151.467568
 20
71.787762999999984
 30
0.0
 40
6.0
  0
CIRCLE
  5
42
  8
0
 10
151.467568
 20
71.787762999999984
 30
0.0
 40
5.052999999999999
  0
LINE
  5
43
  8
1
 10
133.765862
 20
71.787762999999984
 30
0.0
 11
169.169274
 21
71.787762999999984
 31
0.0
  0
LINE
  5
44
  8
1
 10
151.467568
 20
55.787762999999998
 30
0.0
 11
151.467568
 21
87.787762999999998
 31
0.0
  0
LINE
  5
45
  8
0
 10
68.807361
 20
78.823661000000001
 30
0.0
 11
68.807361
 21
64.751865000000009
 31
0.0
  0
LINE
  5
46
  8
0
 10
74.807361
 20
82.287762999999984
 30
0.0
 11
94.807360999999986
 21
82.287762999999984
 31
0.0
  0
LINE
  5
47
  8
0
 10
74.807361
 20
77.811881
 30
0.0
 11
88.307361000000014
 21
77.811881
 31
0.0
  0
LINE
  5
48
  8
0
 10
74.807361
 20
65.763644999999997
 30
0.0
 11
88.307361000000014
 21
65.763644999999997
 31
0.0
  0
LINE
  5
49
  8
0
 10
74.807361
 20
82.287762999999984
 30
0.0
 11
74.807361
 21
77.811881
 31
0.0
  0
LINE
  5
4A
  8
0
 10
112.807361
 20
82.787762999999998
 30
0.0
 11
112.807361
 21
60.787762999999998
 31
0.0
  0
LINE
  5
4B
  8
0
 10
74.807361
 20
82.287762999999984
 30
0.0
 11
68.807361
 21
78.823661000000001
 31
0.0
  0
LINE
  5
4C
  8
0
 10
88.307361000000014
 20
77.811881
 30
0.0
 11
88.307361000000014
 21
65.763644999999997
 31
0.0
  0
LINE
  5
4D
  8
0
 10
74.807361
 20
61.287762999999998
 30
0.0
 11
68.807361
 21
64.751865000000009
 31
0.0
  0
LINE
  5
4E
  8
0
 10
74.807361
 20
61.287762999999998
 30
0.0
 11
74.807361
 21
65.763644999999997
 31
0.0
  0
LINE
  5
4F
  8
0
 10
74.807361
 20
61.287762999999998
 30
0.0
 11
94.807360999999986
 21
61.287762999999998
 31
0.0
  0
ARC
  5
50
  8
0
 10
78.675607999999997
 20
71.787762999999984
 30
0.0
 40
7.1591429999999994
 50
122.705601
 51
237.294399
  0
CIRCLE
  5
51
  8
0
 10
77.807361
 20
71.787762999999984
 30
0.0
 40
3.1000000000000001
  0
LINE
  5
52
  8
0
 10
94.807360999999986
 20
61.287762999999998
 30
0.0
 11
94.807360999999986
 21
82.287762999999984
 31
0.0
  0
LINE
  5
53
  8
0
 10
94.807360999999986
 20
61.287762999999998
 30
0.0
 11
95.096035999999998
 21
60.787762999999998
 31
0.0
  0
LINE
  5
54
  8
0
 10
94.807360999999986
 20
82.287762999999984
 30
0.0
 11
95.096035999999998
 21
82.787762999999998
 31
0.0
  0
LINE
  5
55
  8
0
 10
112.807408
 20
125.67096100000001
 30
0.0
 11
96.078564000000014
 21
125.67096100000001
 31
0.0
  0
LINE
  5
56
  8
0
 10
94.807407999999995
 20
123.469255
 30
0.0
 11
96.078564000000014
 21
125.67096100000001
 31
0.0
  0
LINE
  5
57
  8
0
 10
94.807407999999995
 20
102.469255
 30
0.0
 11
96.078564000000014
 21
100.267549
 31
0.0
  0
LINE
  5
58
  8
0
 10
112.807408
 20
100.267549
 30
0.0
 11
96.078564000000014
 21
100.267549
 31
0.0
  0
LINE
  5
59
  8
0
 10
112.807408
 20
125.67096100000001
 30
0.0
 11
112.807408
 21
100.267549
 31
0.0
  0
LINE
  5
5A
  8
0
 10
112.807361
 20
82.787762999999998
 30
0.0
 11
95.096035999999998
 21
82.787762999999998
 31
0.0
  0
LINE
  5
5B
  8
0
 10
112.807361
 20
60.787762999999998
 30
0.0
 11
95.096035999999998
 21
60.787762999999998
 31
0.0
  0
LINE
  5
5C
  8
0
 10
96.078517000000005
 20
71.787762999999984
 30
0.0
 11
112.807361
 21
71.787762999999984
 31
0.0
  0
ARC
  5
5D
  8
0
 10
107.31697800000001
 20
77.287762999999984
 30
0.0
 40
12.512115
 50
153.92329699999999
 51
206.07670300000001
  0
ARC
  5
5E
  8
0
 10
107.31697800000001
 20
66.287762999999998
 30
0.0
 40
12.512115
 50
153.92329699999999
 51
206.07670300000001
  0
LINE
  5
5F
  8
2
 10
111.754408
 20
106.969255
 30
0.0
 11
94.807407999999995
 21
106.969255
 31
0.0
  0
LINE
  5
60
  8
2
 10
110.807408
 20
107.91625500000001
 30
0.0
 11
89.807407999999995
 21
107.91625500000001
 31
0.0
  0
LINE
  5
61
  8
2
 10
110.807408
 20
118.022255
 30
0.0
 11
89.807407999999995
 21
118.022255
 31
0.0
  0
LINE
  5
62
  8
2
 10
111.754408
 20
118.969255
 30
0.0
 11
94.807407999999995
 21
118.969255
 31
0.0
  0
LINE
  5
63
  8
2
 10
94.807407999999995
 20
106.969255
 30
0.0
 11
94.807407999999995
 21
118.969255
 31
0.0
  0
LINE
  5
64
  8
2
 10
89.807407999999995
 20
107.91625500000001
 30
0.0
 11
89.807407999999995
 21
118.022255
 31
0.0
  0
LINE
  5
65
  8
2
 10
89.807407999999995
 20
107.91625500000001
 30
0.0
 11
86.771259000000001
 21
112.969255
 31
0.0
  0
LINE
  5
66
  8
2
 10
89.807407999999995
 20
118.022255
 30
0.0
 11
86.771259000000001
 21
112.969255
 31
0.0
  0
LINE
  5
67
  8
2
 10
112.807408
 20
120.022255
 30
0.0
 11
110.807408
 21
118.022255
 31
0.0
  0
LINE
  5
68
  8
2
 10
110.807408
 20
118.022255
 30
0.0
 11
110.807408
 21
107.91625500000001
 31
0.0
  0
LINE
  5
69
  8
2
 10
112.807408
 20
105.91625500000001
 30
0.0
 11
110.807408
 21
107.91625500000001
 31
0.0
  0
LINE
  5
6A
  8
0
 10
88.307407999999995
 20
123.469255
 30
0.0
 11
94.807407999999995
 21
123.469255
 31
0.0
  0
LINE
  5
6B
  8
0
 10
94.807407999999995
 20
102.469255
 30
0.0
 11
95.096082999999993
 21
101.969255
 31
0.0
  0
LINE
  5
6C
  8
0
 10
94.807407999999995
 20
123.469255
 30
0.0
 11
95.096082999999993
 21
123.969255
 31
0.0
  0
LINE
  5
6D
  8
0
 10
88.307407999999995
 20
102.469255
 30
0.0
 11
94.807407999999995
 21
102.469255
 31
0.0
  0
LINE
  5
6E
  8
0
 10
74.807407999999995
 20
104.069255
 30
0.0
 11
74.807407999999995
 21
121.869255
 31
0.0
  0
LINE
  5
6F
  8
0
 10
68.807407999999995
 20
120.005154
 30
0.0
 11
68.807407999999995
 21
105.933357
 31
0.0
  0
LINE
  5
70
  8
0
 10
88.307407999999995
 20
121.869255
 30
0.0
 11
88.307407999999995
 21
123.469255
 31
0.0
  0
LINE
  5
71
  8
0
 10
88.307407999999995
 20
104.069255
 30
0.0
 11
88.307407999999995
 21
102.469255
 31
0.0
  0
LINE
  5
72
  8
0
 10
70.648265000000009
 20
121.869255
 30
0.0
 11
88.307407999999995
 21
121.869255
 31
0.0
  0
LINE
  5
73
  8
0
 10
70.648265000000009
 20
104.069255
 30
0.0
 11
88.307407999999995
 21
104.069255
 31
0.0
  0
LINE
  5
74
  8
0
 10
70.648265000000009
 20
104.069255
 30
0.0
 11
68.807407999999995
 21
105.933357
 31
0.0
  0
LINE
  5
75
  8
0
 10
70.648265000000009
 20
121.869255
 30
0.0
 11
68.807407999999995
 21
120.005154
 31
0.0
  0
LINE
  5
76
  8
1
 10
27.909033000000001
 20
55.787762999999998
 30
0.0
 11
27.909033000000001
 21
87.787762999999998
 31
0.0
  0
LINE
  5
77
  8
1
 10
10.207326999999999
 20
71.787762999999984
 30
0.0
 11
45.610739000000002
 21
71.787762999999984
 31
0.0
  0
LINE
  5
78
  8
0
 10
34.259886000000002
 20
60.787762999999998
 30
0.0
 11
21.55818
 21
60.787762999999998
 31
0.0
  0
LINE
  5
79
  8
0
 10
21.55818
 20
60.787762999999998
 30
0.0
 11
15.207326999999999
 21
71.787762999999984
 31
0.0
  0
LINE
  5
7A
  8
0
 10
15.207326999999999
 20
71.787762999999984
 30
0.0
 11
21.55818
 21
82.787762999999998
 31
0.0
  0
LINE
  5
7B
  8
0
 10
21.55818
 20
82.787762999999998
 30
0.0
 11
34.259886000000002
 21
82.787762999999998
 31
0.0
  0
LINE
  5
7C
  8
0
 10
34.259886000000002
 20
82.787762999999998
 30
0.0
 11
40.610739000000002
 21
71.787762999999984
 31
0.0
  0
LINE
  5
7D
  8
0
 10
40.610739000000002
 20
71.787762999999984
 30
0.0
 11
34.259886000000002
 21
60.787762999999998
 31
0.0
  0
LINE
  5
7E
  8
0
 10
19.009032999999999
 20
66.216408000000001
 30
0.0
 11
19.009032999999999
 21
77.359118000000009
 31
0.0
  0
LINE
  5
7F
  8
0
 10
36.809032999999999
 20
66.216408000000001
 30
0.0
 11
36.809032999999999
 21
77.359118000000009
 31
0.0
  0
LINE
  5
80
  8
2
 10
35.809032999999999
 20
74.787762999999984
 30
0.0
 11
35.809032999999999
 21
68.787762999999998
 31
0.0
  0
LINE
  5
81
  8
2
 10
20.009032999999999
 20
74.787762999999984
 30
0.0
 11
20.009032999999999
 21
68.787762999999998
 31
0.0
  0
LINE
  5
82
  8
2
 10
20.009032999999999
 20
68.787762999999998
 30
0.0
 11
19.009032999999999
 21
67.787762999999998
 31
0.0
  0
LINE
  5
83
  8
2
 10
19.009032999999999
 20
75.787762999999998
 30
0.0
 11
20.009032999999999
 21
74.787762999999984
 31
0.0
  0
LINE
  5
84
  8
2
 10
35.809032999999999
 20
68.787762999999998
 30
0.0
 11
36.809032999999999
 21
67.787762999999998
 31
0.0
  0
LINE
  5
85
  8
2
 10
35.809032999999999
 20
74.787762999999984
 30
0.0
 11
36.809032999999999
 21
75.787762999999998
 31
0.0
  0
LINE
  5
86
  8
2
 10
35.809032999999999
 20
68.787762999999998
 30
0.0
 11
20.009032999999999
 21
68.787762999999998
 31
0.0
  0
LINE
  5
87
  8
2
 10
35.809032999999999
 20
74.787762999999984
 30
0.0
 11
20.009032999999999
 21
74.787762999999984
 31
0.0
  0
CIRCLE
  5
88
  8
0
 10
27.909033000000001
 20
71.787762999999984
 30
0.0
 40
10.5
  0
CIRCLE
  5
89
  8
0
 10
27.909033000000001
 20
71.787762999999984
 30
0.0
 40
7.0358979999999987
  0
LINE
  5
8A
  8
2
 10
112.807361
 20
64.734763000000001
 30
0.0
 11
110.807361
 21
66.734763000000001
 31
0.0
  0
LINE
  5
8B
  8
2
 10
110.807361
 20
76.840762999999995
 30
0.0
 11
110.807361
 21
66.734763000000001
 31
0.0
  0
LINE
  5
8C
  8
2
 10
112.807361
 20
78.840762999999995
 30
0.0
 11
110.807361
 21
76.840762999999995
 31
0.0
  0
LINE
  5
8D
  8
2
 10
89.807360999999986
 20
76.840762999999995
 30
0.0
 11
86.771213000000003
 21
71.787762999999984
 31
0.0
  0
LINE
  5
8E
  8
2
 10
89.807360999999986
 20
66.734763000000001
 30
0.0
 11
86.771213000000003
 21
71.787762999999984
 31
0.0
  0
LINE
  5
8F
  8
2
 10
89.807360999999986
 20
66.734763000000001
 30
0.0
 11
89.807360999999986
 21
76.840762999999995
 31
0.0
  0
LINE
  5
90
  8
2
 10
94.807360999999986
 20
65.787762999999998
 30
0.0
 11
94.807360999999986
 21
77.787762999999998
 31
0.0
  0
LINE
  5
91
  8
2
 10
111.754361
 20
77.787762999999998
 30
0.0
 11
94.807360999999986
 21
77.787762999999998
 31
0.0
  0
LINE
  5
92
  8
2
 10
110.807361
 20
76.840762999999995
 30
0.0
 11
89.807360999999986
 21
76.840762999999995
 31
0.0
  0
LINE
  5
93
  8
2
 10
110.807361
 20
66.734763000000001
 30
0.0
 11
89.807360999999986
 21
66.734763000000001
 31
0.0
  0
LINE
  5
94
  8
2
 10
111.754361
 20
65.787762999999998
 30
0.0
 11
94.807360999999986
 21
65.787762999999998
 31
0.0
  0
LINE
  5
95
  8
0
 10
94.807407999999995
 20
102.469255
 30
0.0
 11
94.807407999999995
 21
123.469255
 31
0.0
  0
ARC
  5
96
  8
0
 10
100.71889299999999
 20
122.495535
 30
0.0
 40
5.6228099999999994
 50
154.38424699999999
 51
214.38424699999999
  0
LINE
  5
97
  8
0
 10
96.078564000000014
 20
119.320108
 30
0.0
 11
112.807408
 21
119.320108
 31
0.0
  0
ARC
  5
98
  8
0
 10
116.113603
 20
112.969255
 30
0.0
 40
21.017520000000001
 50
162.412046
 51
197.587954
  0
LINE
  5
99
  8
0
 10
96.078564000000014
 20
106.618402
 30
0.0
 11
112.807408
 21
106.618402
 31
0.0
  0
ARC
  5
9A
  8
0
 10
100.71889299999999
 20
103.442976
 30
0.0
 40
5.6228099999999994
 50
145.61575300000001
 51
205.61575300000001
  0
ARC
  5
9B
  8
0
 10
100.71889299999999
 20
40.132550000000002
 30
0.0
 40
5.6228099999999994
 50
154.38424699999999
 51
214.38424699999999
  0
LINE
  5
9C
  8
0
 10
96.078564000000014
 20
36.957124
 30
0.0
 11
112.807408
 21
36.957124
 31
0.0
  0
ARC
  5
9D
  8
0
 10
116.113603
 20
30.606271
 30
0.0
 40
21.017520000000001
 50
162.412046
 51
197.587954
  0
LINE
  5
9E
  8
0
 10
96.078564000000014
 20
24.255417999999999
 30
0.0
 11
112.807408
 21
24.255417999999999
 31
0.0
  0
ARC
  5
9F
  8
0
 10
100.71889299999999
 20
21.079991
 30
0.0
 40
5.6228099999999994
 50
145.61575300000001
 51
205.61575300000001
  0
LINE
  5
A0
  8
0
 10
94.807407999999995
 20
41.106271
 30
0.0
 11
94.807407999999995
 21
20.106271
 31
0.0
  0
LINE
  5
A1
  8
0
 10
70.648265000000009
 20
21.706271000000001
 30
0.0
 11
68.807407999999995
 21
23.570371999999999
 31
0.0
  0
LINE
  5
A2
  8
0
 10
70.648265000000009
 20
39.506271000000012
 30
0.0
 11
68.807407999999995
 21
37.642169000000003
 31
0.0
  0
LINE
  5
A3
  8
0
 10
70.648265000000009
 20
39.506271000000012
 30
0.0
 11
88.307407999999995
 21
39.506271000000012
 31
0.0
  0
LINE
  5
A4
  8
0
 10
70.648265000000009
 20
21.706271000000001
 30
0.0
 11
88.307407999999995
 21
21.706271000000001
 31
0.0
  0
LINE
  5
A5
  8
0
 10
88.307407999999995
 20
39.506271000000012
 30
0.0
 11
88.307407999999995
 21
41.106271
 31
0.0
  0
LINE
  5
A6
  8
0
 10
88.307407999999995
 20
21.706271000000001
 30
0.0
 11
88.307407999999995
 21
20.106271
 31
0.0
  0
LINE
  5
A7
  8
0
 10
68.807407999999995
 20
23.570371999999999
 30
0.0
 11
68.807407999999995
 21
37.642169000000003
 31
0.0
  0
LINE
  5
A8
  8
0
 10
74.807407999999995
 20
39.506271000000012
 30
0.0
 11
74.807407999999995
 21
21.706271000000001
 31
0.0
  0
LINE
  5
A9
  8
0
 10
88.307407999999995
 20
41.106271
 30
0.0
 11
94.807407999999995
 21
41.106271
 31
0.0
  0
LINE
  5
AA
  8
0
 10
94.807407999999995
 20
20.106271
 30
0.0
 11
95.096082999999993
 21
19.606271
 31
0.0
  0
LINE
  5
AB
  8
0
 10
94.807407999999995
 20
41.106271
 30
0.0
 11
95.096082999999993
 21
41.606271
 31
0.0
  0
LINE
  5
AC
  8
0
 10
88.307407999999995
 20
20.106271
 30
0.0
 11
94.807407999999995
 21
20.106271
 31
0.0
  0
LINE
  5
AD
  8
2
 10
112.807408
 20
37.659271000000011
 30
0.0
 11
110.807408
 21
35.659271000000011
 31
0.0
  0
LINE
  5
AE
  8
2
 10
110.807408
 20
25.553270999999999
 30
0.0
 11
110.807408
 21
35.659271000000011
 31
0.0
  0
LINE
  5
AF
  8
2
 10
112.807408
 20
23.553270999999999
 30
0.0
 11
110.807408
 21
25.553270999999999
 31
0.0
  0
LINE
  5
B0
  8
2
 10
89.807407999999995
 20
25.553270999999999
 30
0.0
 11
86.771259000000001
 21
30.606271
 31
0.0
  0
LINE
  5
B1
  8
2
 10
89.807407999999995
 20
35.659271000000011
 30
0.0
 11
86.771259000000001
 21
30.606271
 31
0.0
  0
LINE
  5
B2
  8
2
 10
89.807407999999995
 20
35.659271000000011
 30
0.0
 11
89.807407999999995
 21
25.553270999999999
 31
0.0
  0
LINE
  5
B3
  8
2
 10
94.807407999999995
 20
36.606271
 30
0.0
 11
94.807407999999995
 21
24.606271
 31
0.0
  0
LINE
  5
B4
  8
2
 10
111.754408
 20
24.606271
 30
0.0
 11
94.807407999999995
 21
24.606271
 31
0.0
  0
LINE
  5
B5
  8
2
 10
110.807408
 20
25.553270999999999
 30
0.0
 11
89.807407999999995
 21
25.553270999999999
 31
0.0
  0
LINE
  5
B6
  8
2
 10
110.807408
 20
35.659271000000011
 30
0.0
 11
89.807407999999995
 21
35.659271000000011
 31
0.0
  0
LINE
  5
B7
  8
2
 10
111.754408
 20
36.606271
 30
0.0
 11
94.807407999999995
 21
36.606271
 31
0.0
  0
LINE
  5
B8
  8
0
 10
112.807408
 20
17.904565000000002
 30
0.0
 11
112.807408
 21
43.307977000000001
 31
0.0
  0
LINE
  5
B9
  8
0
 10
112.807408
 20
43.307977000000001
 30
0.0
 11
96.078564000000014
 21
43.307977000000001
 31
0.0
  0
LINE
  5
BA
  8
0
 10
94.807407999999995
 20
41.106271
 30
0.0
 11
96.078564000000014
 21
43.307977000000001
 31
0.0
  0
LINE
  5
BB
  8
0
 10
94.807407999999995
 20
20.106271
 30
0.0
 11
96.078564000000014
 21
17.904565000000002
 31
0.0
  0
LINE
  5
BC
  8
0
 10
112.807408
 20
17.904565000000002
 30
0.0
 11
96.078564000000014
 21
17.904565000000002
 31
0.0
  0
LINE
  5
BD
  8
1
 10
63.807407999999988
 20
30.606271
 30
0.0
 11
117.807408
 21
30.606271
 31
0.0
  0
LINE
  5
BE
  8
1
 10
77.807407999999995
 20
17.006271000000002
 30
0.0
 11
77.807407999999995
 21
44.206270999999987
 31
0.0
  0
TEXT
  5
1D6
  8
0
 62
     3
 10
0.0
 20
0.0
 30
0.0
 40
10.0
  1
CNS1-60
  7
STANDARD1
  0
ENDSEC
  0
EOF
