  0
SECTION
  2
HEADER
  9
$ACADVER
  1
AC1009
  9
$INSBASE
 10
0.0
 20
0.0
 30
0.0
  9
$EXTMIN
 10
0.0
 20
-2.960436562073669
 30
0.0
  9
$EXTMAX
 10
267.91768409923009
 20
171.28915017605769
 30
0.0
  9
$LIMMIN
 10
0.0
 20
0.0
  9
$LIMMAX
 10
12.0
 20
9.0
  9
$ORTHOMODE
 70
     1
  9
$REGENMODE
 70
     1
  9
$FILLMODE
 70
     1
  9
$QTEXTMODE
 70
     0
  9
$MIRRTEXT
 70
     0
  9
$DRAGMODE
 70
     2
  9
$LTSCALE
 40
5.0
  9
$OSMODE
 70
  3071
  9
$ATTMODE
 70
     1
  9
$TEXTSIZE
 40
0.2
  9
$TRACEWID
 40
0.05
  9
$TEXTSTYLE
  7
STANDARD
  9
$CLAYER
  8
0
  9
$CELTYPE
  6
BYLAYER
  9
$CECOLOR
 62
   256
  9
$DIMSCALE
 40
1.0
  9
$DIMASZ
 40
0.18
  9
$DIMEXO
 40
0.0625
  9
$DIMDLI
 40
0.38
  9
$DIMRND
 40
0.0
  9
$DIMDLE
 40
0.0
  9
$DIMEXE
 40
0.18
  9
$DIMTP
 40
0.0
  9
$DIMTM
 40
0.0
  9
$DIMTXT
 40
2.6000000000000001
  9
$DIMCEN
 40
0.09
  9
$DIMTSZ
 40
0.0
  9
$DIMTOL
 70
     0
  9
$DIMLIM
 70
     0
  9
$DIMTIH
 70
     0
  9
$DIMTOH
 70
     0
  9
$DIMSE1
 70
     0
  9
$DIMSE2
 70
     0
  9
$DIMTAD
 70
     1
  9
$DIMZIN
 70
     8
  9
$DIMBLK
  1

  9
$DIMASO
 70
     1
  9
$DIMSHO
 70
     1
  9
$DIMPOST
  1

  9
$DIMAPOST
  1

  9
$DIMALT
 70
     0
  9
$DIMALTD
 70
     2
  9
$DIMALTF
 40
25.399999999999999
  9
$DIMLFAC
 40
1.0
  9
$DIMTOFL
 70
     0
  9
$DIMTVP
 40
0.0
  9
$DIMTIX
 70
     0
  9
$DIMSOXD
 70
     0
  9
$DIMSAH
 70
     0
  9
$DIMBLK1
  1

  9
$DIMBLK2
  1

  9
$DIMSTYLE
  2
STANDARD
  9
$DIMCLRD
 70
     0
  9
$DIMCLRE
 70
     0
  9
$DIMCLRT
 70
     0
  9
$DIMTFAC
 40
1.0
  9
$DIMGAP
 40
0.09
  9
$LUNITS
 70
     2
  9
$LUPREC
 70
     4
  9
$SKETCHINC
 40
0.1
  9
$FILLETRAD
 40
0.0
  9
$AUNITS
 70
     0
  9
$AUPREC
 70
     0
  9
$MENU
  1
.
  9
$ELEVATION
 40
0.0
  9
$PELEVATION
 40
0.0
  9
$THICKNESS
 40
0.0
  9
$LIMCHECK
 70
     0
  9
$BLIPMODE
 70
     0
  9
$CHAMFERA
 40
0.0
  9
$CHAMFERB
 40
0.0
  9
$SKPOLY
 70
     0
  9
$TDCREATE
 40
2453083.4120647679
  9
$TDUPDATE
 40
2456598.4975751741
  9
$TDINDWG
 40
0.3241679745
  9
$TDUSRTIMER
 40
0.3241678588
  9
$USRTIMER
 70
     1
  9
$ANGBASE
 50
0.0
  9
$ANGDIR
 70
     0
  9
$PDMODE
 70
     0
  9
$PDSIZE
 40
0.0
  9
$PLINEWID
 40
0.0
  9
$COORDS
 70
     1
  9
$SPLFRAME
 70
     0
  9
$SPLINETYPE
 70
     6
  9
$SPLINESEGS
 70
     8
  9
$ATTDIA
 70
     0
  9
$ATTREQ
 70
     1
  9
$HANDLING
 70
     1
  9
$HANDSEED
  5
18E2
  9
$SURFTAB1
 70
     6
  9
$SURFTAB2
 70
     6
  9
$SURFTYPE
 70
     6
  9
$SURFU
 70
     6
  9
$SURFV
 70
     6
  9
$UCSNAME
  2

  9
$UCSORG
 10
0.0
 20
0.0
 30
0.0
  9
$UCSXDIR
 10
1.0
 20
0.0
 30
0.0
  9
$UCSYDIR
 10
0.0
 20
1.0
 30
0.0
  9
$PUCSNAME
  2

  9
$PUCSORG
 10
0.0
 20
0.0
 30
0.0
  9
$PUCSXDIR
 10
1.0
 20
0.0
 30
0.0
  9
$PUCSYDIR
 10
0.0
 20
1.0
 30
0.0
  9
$USERI1
 70
     0
  9
$USERI2
 70
     1
  9
$USERI3
 70
     0
  9
$USERI4
 70
     0
  9
$USERI5
 70
     0
  9
$USERR1
 40
0.0
  9
$USERR2
 40
0.0
  9
$USERR3
 40
0.0
  9
$USERR4
 40
0.0
  9
$USERR5
 40
0.0
  9
$WORLDVIEW
 70
     1
  9
$SHADEDGE
 70
     3
  9
$SHADEDIF
 70
    70
  9
$TILEMODE
 70
     1
  9
$MAXACTVP
 70
    64
  9
$PLIMCHECK
 70
     0
  9
$PEXTMIN
 10
0.0
 20
0.0
 30
0.0
  9
$PEXTMAX
 10
0.0
 20
0.0
 30
0.0
  9
$PLIMMIN
 10
0.0
 20
0.0
  9
$PLIMMAX
 10
12.0
 20
9.0
  9
$UNITMODE
 70
     0
  9
$VISRETAIN
 70
     1
  9
$PLINEGEN
 70
     0
  9
$PSLTSCALE
 70
     1
  0
ENDSEC
  0
SECTION
  2
TABLES
  0
TABLE
  2
VPORT
 70
     1
  0
VPORT
  2
*ACTIVE
 70
     0
 10
0.0
 20
0.0
 11
1.0
 21
1.0
 12
138.78756852580449
 22
84.161320591241989
 13
0.0
 23
0.0
 14
0.5
 24
0.5
 15
0.5
 25
0.5
 16
0.0
 26
0.0
 36
1.0
 17
0.0
 27
0.0
 37
0.0
 40
175.82903942217979
 41
1.831871345029239
 42
50.0
 43
0.0
 44
0.0
 50
0.0
 51
0.0
 71
     0
 72
  1000
 73
     1
 74
     2
 75
     0
 76
     0
 77
     0
 78
     0
  0
ENDTAB
  0
TABLE
  2
LTYPE
 70
     4
  0
LTYPE
  2
CONTINUOUS
 70
     0
  3
Solid Line
 72
    65
 73
     0
 40
0.0
  0
LTYPE
  2
CENTER
 70
     0
  3
____ _ ____ _ ____ _ ____ _ ____ _ ____ _ ____
 72
    65
 73
     4
 40
2.0
 49
1.25
 49
-0.25
 49
0.25
 49
-0.25
  0
LTYPE
  2
HIDDEN
 70
     0
  3
_ _ _ _ _ _ _ _ _ _ _ _ _ _ _ _ _ _ _ _ _ _ _
 72
    65
 73
     2
 40
0.375
 49
0.25
 49
-0.125
  0
LTYPE
  2
PHANTOM2
 70
     0
  3
___ _ _ ___ _ _ ___ _ _ ___ _ _
 72
    65
 73
     6
 40
1.25
 49
0.625
 49
-0.125
 49
0.125
 49
-0.125
 49
0.125
 49
-0.125
  0
ENDTAB
  0
TABLE
  2
LAYER
 70
     5
  0
LAYER
  2
0
 70
     0
 62
     7
  6
CONTINUOUS
  0
LAYER
  2
1
 70
     0
 62
     1
  6
CENTER
  0
LAYER
  2
DEFPOINTS
 70
     0
 62
     7
  6
CONTINUOUS
  0
LAYER
  2
2
 70
     0
 62
     2
  6
HIDDEN
  0
LAYER
  2
3
 70
     0
 62
     3
  6
CONTINUOUS
  0
ENDTAB
  0
TABLE
  2
STYLE
 70
     2
  0
STYLE
  2
STANDARD
 70
     0
 40
0.0
 41
1.0
 50
0.0
 71
     0
 42
0.2
  3
simplex.shx
  4
bigfont.shx
  0
STYLE
  2
STANDARD1
 70
     0
 40
0.0
 41
1.0
 50
0.0
 71
     0
 42
3.0
  3
txt
  4

  0
ENDTAB
  0
TABLE
  2
VIEW
 70
     0
  0
ENDTAB
  0
TABLE
  2
UCS
 70
     0
  0
ENDTAB
  0
TABLE
  2
APPID
 70
     3
  0
APPID
  2
ACAD
 70
     0
  0
APPID
  2
ACAD_MLEADERVER
 70
     0
  0
APPID
  2
ACAD_NAV_VCDISPLAY
 70
     0
  0
ENDTAB
  0
TABLE
  2
DIMSTYLE
 70
     1
  0
DIMSTYLE
  2
STANDARD
 70
     0
  3

  4

  5

  6

  7

 40
1.0
 41
0.18
 42
0.0625
 43
0.38
 44
0.18
 45
0.0
 46
0.0
 47
0.0
 48
0.0
140
2.6000000000000001
141
0.09
142
0.0
143
25.399999999999999
144
1.0
145
0.0
146
1.0
147
0.09
 71
     0
 72
     0
 73
     0
 74
     0
 75
     0
 76
     0
 77
     1
 78
     8
170
     0
171
     2
172
     0
173
     0
174
     0
175
     0
176
     0
177
     0
178
     0
  0
ENDTAB
  0
ENDSEC
  0
SECTION
  2
BLOCKS
  0
BLOCK
  8
0
  2
$MODEL_SPACE
 70
     0
 10
0.0
 20
0.0
 30
0.0
  3
$MODEL_SPACE
  1

  0
ENDBLK
  5
21
  8
0
  0
BLOCK
 67
     1
  8
0
  2
$PAPER_SPACE
 70
     0
 10
0.0
 20
0.0
 30
0.0
  3
$PAPER_SPACE
  1

  0
ENDBLK
  5
5B
 67
     1
  8
0
  0
ENDSEC
  0
SECTION
  2
ENTITIES
  0
LINE
  5
1629
  8
1
 10
103.3712152349633
 20
112.68424994996811
 30
0.0
 11
49.965040089442198
 21
112.68424994996811
 31
0.0
  0
LINE
  5
1640
  8
2
 10
83.554023434731846
 20
91.684250233090154
 30
0.0
 11
83.554023434731874
 21
122.6842497264506
 31
0.0
  0
LINE
  5
1641
  8
2
 10
57.554022665459406
 20
103.6842503373982
 30
0.0
 11
82.554023270819087
 21
103.6842503373982
 31
0.0
  0
LINE
  5
1642
  8
2
 10
83.554023434731775
 20
133.684249666846
 30
0.0
 11
83.554023434731846
 21
102.68425017348549
 31
0.0
  0
LINE
  5
1643
  8
2
 10
82.554023270819087
 20
103.6842503373982
 30
0.0
 11
82.554023270819044
 21
121.6842495625378
 31
0.0
  0
LINE
  5
1644
  8
2
 10
83.554023434731846
 20
102.68425017348549
 30
0.0
 11
82.554023270819087
 21
103.6842503373982
 31
0.0
  0
LINE
  5
1646
  8
2
 10
57.554022665459406
 20
103.6842503373982
 30
0.0
 11
55.554022570464511
 21
102.52954911193871
 31
0.0
  0
LINE
  5
1647
  8
2
 10
57.55402266545935
 20
121.6842495625379
 30
0.0
 11
57.554022665459406
 21
103.6842503373982
 31
0.0
  0
LINE
  5
1648
  8
2
 10
83.554023434731846
 20
91.684250233090154
 30
0.0
 11
96.554023702952776
 21
91.684250233090154
 31
0.0
  0
LINE
  5
164A
  8
2
 10
96.554023702952776
 20
91.684250233090154
 30
0.0
 11
96.554023702952591
 21
133.68424966684589
 31
0.0
  0
LINE
  5
164B
  8
2
 10
98.554024030778322
 20
90.529549938953153
 30
0.0
 11
96.554023702952776
 21
91.684250233090154
 31
0.0
  0
LINE
  5
164D
  8
0
 10
88.054021378371615
 20
73.184248132026426
 30
0.0
 11
90.554022719476109
 21
73.184248132026426
 31
0.0
  0
LINE
  5
1650
  8
0
 10
88.054021378371885
 20
73.184248132026426
 30
0.0
 11
88.054021378371615
 21
152.1842517679097
 31
0.0
  0
LINE
  5
1651
  8
0
 10
87.554024090382939
 20
72.684250844037763
 30
0.0
 11
88.054021378371615
 21
73.184248132026426
 31
0.0
  0
LINE
  5
1654
  8
0
 10
87.554024090382939
 20
72.684250844037763
 30
0.0
 11
56.554022617961962
 21
72.684250844037763
 31
0.0
  0
LINE
  5
1656
  8
0
 10
56.554022617961962
 20
152.68424905589839
 30
0.0
 11
56.554022617962246
 21
72.684250844037706
 31
0.0
  0
LINE
  5
1657
  8
0
 10
55.554022570464511
 20
73.684249145305387
 30
0.0
 11
56.554022617961962
 21
72.684250844037763
 31
0.0
  0
LINE
  5
1658
  8
0
 10
55.554022570464802
 20
73.684249145305103
 30
0.0
 11
55.554022570464511
 21
151.6842507546308
 31
0.0
  0
LINE
  5
165C
  8
0
 10
98.554024030778322
 20
161.6842486684682
 30
0.0
 11
98.554024030778663
 21
63.684251231468238
 31
0.0
  0
LINE
  5
165D
  8
0
 10
97.554022004220386
 20
62.684249204910031
 30
0.0
 11
98.554024030778322
 21
63.684251231467961
 31
0.0
  0
LINE
  5
165F
  8
0
 10
90.554022719476109
 20
63.684251231467961
 30
0.0
 11
91.554021020743747
 21
62.684249204910031
 31
0.0
  0
LINE
  5
1660
  8
0
 10
90.554022719476109
 20
63.684251231467961
 30
0.0
 11
90.554022719476109
 21
161.6842486684682
 31
0.0
  0
LINE
  5
1662
  8
0
 10
97.554022004220755
 20
62.684249204910373
 30
0.0
 11
97.554022004220386
 21
162.68425069502609
 31
0.0
  0
LINE
  5
1663
  8
0
 10
97.554022004220386
 20
62.684249204910031
 30
0.0
 11
91.554021020743747
 21
62.684249204910031
 31
0.0
  0
LINE
  5
1664
  8
0
 10
91.554021020743747
 20
162.68425069502609
 30
0.0
 11
91.554021020744088
 21
62.68424920490969
 31
0.0
  0
LINE
  5
1665
  8
0
 10
90.554022719476109
 20
152.1842517679097
 30
0.0
 11
88.054021378371615
 21
152.1842517679097
 31
0.0
  0
LINE
  5
1666
  8
0
 10
88.054021378371615
 20
152.1842517679097
 30
0.0
 11
87.554024090382939
 21
152.68424905589839
 31
0.0
  0
LINE
  5
1667
  8
0
 10
87.554024090382939
 20
152.68424905589839
 30
0.0
 11
56.554022617961962
 21
152.68424905589839
 31
0.0
  0
LINE
  5
1668
  8
0
 10
56.554022617961962
 20
152.68424905589839
 30
0.0
 11
55.554022570464511
 21
151.6842507546308
 31
0.0
  0
LINE
  5
1669
  8
0
 10
98.554024030778322
 20
161.6842486684682
 30
0.0
 11
97.554022004220386
 21
162.68425069502609
 31
0.0
  0
LINE
  5
166A
  8
0
 10
91.554021020743747
 20
162.68425069502609
 30
0.0
 11
90.554022719476109
 21
161.6842486684682
 31
0.0
  0
LINE
  5
166B
  8
0
 10
97.554022004220386
 20
162.68425069502609
 30
0.0
 11
91.554021020743747
 21
162.68425069502609
 31
0.0
  0
CIRCLE
  5
166C
  8
3
 10
188.0995804375442
 20
133.89745338556469
 30
0.0
 40
4.0000004226533292
  0
CIRCLE
  5
166D
  8
3
 10
188.09958043754389
 20
91.471046514371778
 30
0.0
 40
4.0000008886491401
  0
CIRCLE
  5
166E
  8
3
 10
230.52598730873689
 20
91.471046514371665
 30
0.0
 40
4.0000008886489686
  0
CIRCLE
  5
166F
  8
3
 10
230.52598730873689
 20
133.89745338556449
 30
0.0
 40
4.0000004226531871
  0
CIRCLE
  5
1672
  8
0
 10
209.3127838731404
 20
112.68424994996811
 30
0.0
 40
8.9999999999999716
  0
CIRCLE
  5
1673
  8
0
 10
209.3127838731404
 20
112.68424994996811
 30
0.0
 40
10.0
  0
CIRCLE
  5
1674
  8
0
 10
230.52598730873689
 20
91.471046514371665
 30
0.0
 40
3.4000000000000048
  0
CIRCLE
  5
1675
  8
0
 10
230.52598730873689
 20
133.89745338556449
 30
0.0
 40
3.3999999999999768
  0
CIRCLE
  5
1676
  8
0
 10
188.0995804375442
 20
133.89745338556469
 30
0.0
 40
3.3999999999999768
  0
CIRCLE
  5
1677
  8
0
 10
209.3127838731404
 20
112.68424994996811
 30
0.0
 40
21.0
  0
CIRCLE
  5
1678
  8
0
 10
209.3127838731404
 20
112.68424994996811
 30
0.0
 40
50.000000000000007
  0
CIRCLE
  5
1679
  8
0
 10
188.09958043754389
 20
91.471046514371778
 30
0.0
 40
3.3999999999999768
  0
CIRCLE
  5
167A
  8
0
 10
209.3127838731404
 20
112.68424994996811
 30
0.0
 40
22.15470053837927
  0
CIRCLE
  5
167B
  8
0
 10
209.3127838731404
 20
112.68424994996811
 30
0.0
 40
48.999999999999979
  0
LINE
  5
16C3
  8
1
 10
209.3127838731404
 20
171.28915017605769
 30
0.0
 11
209.3127838731404
 21
54.079349723878408
 31
0.0
  0
LINE
  5
16C4
  8
1
 10
150.70788364705069
 20
112.68424994996811
 30
0.0
 11
267.91768409923009
 21
112.68424994996811
 31
0.0
  0
CIRCLE
  5
16D0
  8
1
 10
209.3127838731404
 20
112.68424994996811
 30
0.0
 40
30.000000000000021
  0
LINE
  5
16DC
  8
1
 10
234.5804780979818
 20
87.416555725126557
 30
0.0
 11
226.47149651949189
 21
95.525537303616716
 31
0.0
  0
LINE
  5
16DE
  8
1
 10
234.5804780979818
 20
137.95194417480971
 30
0.0
 11
226.47149651949189
 21
129.8429625963195
 31
0.0
  0
LINE
  5
16DF
  8
1
 10
184.04508964829901
 20
87.416555725126557
 30
0.0
 11
192.154071226789
 21
95.525537303616716
 31
0.0
  0
LINE
  5
16E0
  8
1
 10
184.04508964829901
 20
137.95194417480971
 30
0.0
 11
192.154071226789
 21
129.8429625963195
 31
0.0
  0
LINE
  5
1794
  8
2
 10
57.554022665459406
 20
121.6842495625379
 30
0.0
 11
55.554022570464511
 21
122.8389507879974
 31
0.0
  0
LINE
  5
1795
  8
2
 10
83.554023434731846
 20
122.6842497264506
 30
0.0
 11
82.554023270819087
 21
121.6842495625379
 31
0.0
  0
LINE
  5
1796
  8
2
 10
57.554022665459406
 20
121.6842495625379
 30
0.0
 11
82.554023270819087
 21
121.6842495625379
 31
0.0
  0
LINE
  5
1797
  8
2
 10
98.554024030778322
 20
134.838949960983
 30
0.0
 11
96.554023702952776
 21
133.684249666846
 31
0.0
  0
LINE
  5
1798
  8
2
 10
83.554023434731846
 20
133.684249666846
 30
0.0
 11
96.554023702952776
 21
133.684249666846
 31
0.0
  0
TEXT
  5
184E
  8
0
 62
     3
 10
0.0
 20
0.0
 30
0.0
 40
10.0
  1
CP122-09001
  7
STANDARD1
  0
ENDSEC
  0
EOF
