  0
SECTION
  2
HEADER
  9
$ACADVER
  1
AC1009
  9
$INSBASE
 10
0.0
 20
0.0
 30
0.0
  9
$EXTMIN
 10
0.0
 20
-2.960436562073669
 30
0.0
  9
$EXTMAX
 10
272.99999713897711
 20
282.99999986588972
 30
0.0
  9
$LIMMIN
 10
0.0
 20
0.0
  9
$LIMMAX
 10
375.0
 20
270.0
  9
$ORTHOMODE
 70
     1
  9
$REGENMODE
 70
     1
  9
$FILLMODE
 70
     1
  9
$QTEXTMODE
 70
     0
  9
$MIRRTEXT
 70
     0
  9
$DRAGMODE
 70
     2
  9
$LTSCALE
 40
10.0
  9
$OSMODE
 70
  3071
  9
$ATTMODE
 70
     1
  9
$TEXTSIZE
 40
6.0
  9
$TRACEWID
 40
0.05
  9
$TEXTSTYLE
  7
STANDARD
  9
$CLAYER
  8
0
  9
$CELTYPE
  6
BYLAYER
  9
$CECOLOR
 62
     6
  9
$DIMSCALE
 40
1.0
  9
$DIMASZ
 40
3.0
  9
$DIMEXO
 40
2.0
  9
$DIMDLI
 40
0.3799999999999999
  9
$DIMRND
 40
0.0
  9
$DIMDLE
 40
0.0
  9
$DIMEXE
 40
2.0
  9
$DIMTP
 40
0.0
  9
$DIMTM
 40
0.0
  9
$DIMTXT
 40
3.2000000000000002
  9
$DIMCEN
 40
0.09
  9
$DIMTSZ
 40
0.0
  9
$DIMTOL
 70
     0
  9
$DIMLIM
 70
     0
  9
$DIMTIH
 70
     0
  9
$DIMTOH
 70
     0
  9
$DIMSE1
 70
     0
  9
$DIMSE2
 70
     0
  9
$DIMTAD
 70
     1
  9
$DIMZIN
 70
     9
  9
$DIMBLK
  1

  9
$DIMASO
 70
     0
  9
$DIMSHO
 70
     0
  9
$DIMPOST
  1

  9
$DIMAPOST
  1

  9
$DIMALT
 70
     0
  9
$DIMALTD
 70
     2
  9
$DIMALTF
 40
25.399999999999999
  9
$DIMLFAC
 40
1.0
  9
$DIMTOFL
 70
     0
  9
$DIMTVP
 40
0.0
  9
$DIMTIX
 70
     0
  9
$DIMSOXD
 70
     0
  9
$DIMSAH
 70
     0
  9
$DIMBLK1
  1

  9
$DIMBLK2
  1

  9
$DIMSTYLE
  2
STANDARD
  9
$DIMCLRD
 70
     0
  9
$DIMCLRE
 70
     0
  9
$DIMCLRT
 70
     0
  9
$DIMTFAC
 40
1.0
  9
$DIMGAP
 40
0.09
  9
$LUNITS
 70
     2
  9
$LUPREC
 70
     4
  9
$SKETCHINC
 40
0.1
  9
$FILLETRAD
 40
20.0
  9
$AUNITS
 70
     0
  9
$AUPREC
 70
     3
  9
$MENU
  1
E:\r13\win\SUPPORT\ACAD
  9
$ELEVATION
 40
0.0
  9
$PELEVATION
 40
0.0
  9
$THICKNESS
 40
0.0
  9
$LIMCHECK
 70
     0
  9
$BLIPMODE
 70
     0
  9
$CHAMFERA
 40
0.0
  9
$CHAMFERB
 40
0.0
  9
$SKPOLY
 70
     0
  9
$TDCREATE
 40
2449840.6320370371
  9
$TDUPDATE
 40
2456598.4976055091
  9
$TDINDWG
 40
1.1334715162
  9
$TDUSRTIMER
 40
1.1334715162
  9
$USRTIMER
 70
     1
  9
$ANGBASE
 50
0.0
  9
$ANGDIR
 70
     0
  9
$PDMODE
 70
     0
  9
$PDSIZE
 40
0.0
  9
$PLINEWID
 40
0.0
  9
$COORDS
 70
     1
  9
$SPLFRAME
 70
     0
  9
$SPLINETYPE
 70
     6
  9
$SPLINESEGS
 70
     8
  9
$ATTDIA
 70
     0
  9
$ATTREQ
 70
     1
  9
$HANDLING
 70
     1
  9
$HANDSEED
  5
164AC
  9
$SURFTAB1
 70
     6
  9
$SURFTAB2
 70
     6
  9
$SURFTYPE
 70
     6
  9
$SURFU
 70
     6
  9
$SURFV
 70
     6
  9
$UCSNAME
  2

  9
$UCSORG
 10
0.0
 20
0.0
 30
0.0
  9
$UCSXDIR
 10
1.0
 20
0.0
 30
0.0
  9
$UCSYDIR
 10
0.0
 20
1.0
 30
0.0
  9
$PUCSNAME
  2

  9
$PUCSORG
 10
0.0
 20
0.0
 30
0.0
  9
$PUCSXDIR
 10
1.0
 20
0.0
 30
0.0
  9
$PUCSYDIR
 10
0.0
 20
1.0
 30
0.0
  9
$USERI1
 70
     0
  9
$USERI2
 70
     1
  9
$USERI3
 70
     0
  9
$USERI4
 70
     0
  9
$USERI5
 70
     0
  9
$USERR1
 40
0.0
  9
$USERR2
 40
0.0
  9
$USERR3
 40
0.0
  9
$USERR4
 40
0.0
  9
$USERR5
 40
0.0
  9
$WORLDVIEW
 70
     1
  9
$SHADEDGE
 70
     3
  9
$SHADEDIF
 70
    70
  9
$TILEMODE
 70
     1
  9
$MAXACTVP
 70
    16
  9
$PLIMCHECK
 70
     0
  9
$PEXTMIN
 10
1.0000000000000000E+020
 20
1.0000000000000000E+020
 30
1.0000000000000000E+020
  9
$PEXTMAX
 10
-1.0000000000000000E+020
 20
-1.0000000000000000E+020
 30
-1.0000000000000000E+020
  9
$PLIMMIN
 10
0.0
 20
0.0
  9
$PLIMMAX
 10
12.0
 20
9.0
  9
$UNITMODE
 70
     0
  9
$VISRETAIN
 70
     0
  9
$PLINEGEN
 70
     0
  9
$PSLTSCALE
 70
     0
  0
ENDSEC
  0
SECTION
  2
TABLES
  0
TABLE
  2
VPORT
 70
     1
  0
VPORT
  2
*ACTIVE
 70
     0
 10
0.0
 20
0.0
 11
1.0
 21
1.0
 12
195.4183441793171
 22
140.02100431397909
 13
0.0
 23
0.0
 14
10.0
 24
10.0
 15
10.0
 25
10.0
 16
0.0
 26
0.0
 36
1.0
 17
0.0
 27
0.0
 37
0.0
 40
288.5400659571589
 41
1.831871345029239
 42
50.0
 43
0.0
 44
0.0
 50
0.0
 51
0.0
 71
     0
 72
   500
 73
     1
 74
     0
 75
     0
 76
     0
 77
     0
 78
     0
  0
ENDTAB
  0
TABLE
  2
LTYPE
 70
     3
  0
LTYPE
  2
CONTINUOUS
 70
     0
  3
Solid Line
 72
    65
 73
     0
 40
0.0
  0
LTYPE
  2
CENTER
 70
     0
  3
____ _ ____ _ ____ _ ____ _ ____ _ ____ _ ____
 72
    65
 73
     4
 40
2.0
 49
1.25
 49
-0.25
 49
0.25
 49
-0.25
  0
LTYPE
  2
PHANTOM2
 70
     0
  3
___ _ _ ___ _ _ ___ _ _ ___ _ _
 72
    65
 73
     6
 40
1.25
 49
0.625
 49
-0.125
 49
0.125
 49
-0.125
 49
0.125
 49
-0.125
  0
ENDTAB
  0
TABLE
  2
LAYER
 70
     4
  0
LAYER
  2
0
 70
     0
 62
     7
  6
CONTINUOUS
  0
LAYER
  2
1
 70
     0
 62
     1
  6
CENTER
  0
LAYER
  2
DEFPOINTS
 70
     0
 62
     7
  6
CONTINUOUS
  0
LAYER
  2
3
 70
     0
 62
     3
  6
CONTINUOUS
  0
ENDTAB
  0
TABLE
  2
STYLE
 70
     2
  0
STYLE
  2
STANDARD
 70
     0
 40
0.0
 41
1.0
 50
0.0
 71
     0
 42
6.0
  3
TXT
  4
BIGFONT
  0
STYLE
  2
STANDARD1
 70
     0
 40
0.0
 41
1.0
 50
0.0
 71
     0
 42
3.0
  3
txt
  4

  0
ENDTAB
  0
TABLE
  2
VIEW
 70
     1
  0
VIEW
  2
ALL
 70
     0
 40
270.0
 10
213.25689075630251
 20
135.0
 41
0.0
 11
0.0
 21
0.0
 31
1.0
 12
0.0
 22
0.0
 32
0.0
 42
0.0
 43
0.0
 44
0.0
 50
0.0
 71
     0
  0
ENDTAB
  0
TABLE
  2
UCS
 70
     0
  0
ENDTAB
  0
TABLE
  2
APPID
 70
     6
  0
APPID
  2
ACAD
 70
     0
  0
APPID
  2
ACAD_EXEMPT_FROM_CAD_STANDARDS
 70
     0
  0
APPID
  2
ACAD_MLEADERVER
 70
     0
  0
APPID
  2
ACAD_DSTYLE_DIMJAG
 70
     0
  0
APPID
  2
ACAD_DSTYLE_DIMTALN
 70
     0
  0
APPID
  2
ACAD_NAV_VCDISPLAY
 70
     0
  0
ENDTAB
  0
TABLE
  2
DIMSTYLE
 70
     1
  0
DIMSTYLE
  2
STANDARD
 70
     0
  3

  4

  5

  6

  7

 40
1.0
 41
0.18
 42
0.0625
 43
0.38
 44
0.18
 45
0.0
 46
0.0
 47
0.0
 48
0.0
140
0.18
141
0.09
142
0.0
143
25.399999999999999
144
1.0
145
0.0
146
1.0
147
0.09
 71
     0
 72
     0
 73
     1
 74
     1
 75
     0
 76
     0
 77
     0
 78
     0
170
     0
171
     2
172
     0
173
     0
174
     0
175
     0
176
     0
177
     0
178
     0
  0
ENDTAB
  0
ENDSEC
  0
SECTION
  2
BLOCKS
  0
BLOCK
  8
0
  2
$MODEL_SPACE
 70
     0
 10
0.0
 20
0.0
 30
0.0
  3
$MODEL_SPACE
  1

  0
ENDBLK
  5
126
  8
0
  0
BLOCK
 67
     1
  8
0
  2
$PAPER_SPACE
 70
     0
 10
0.0
 20
0.0
 30
0.0
  3
$PAPER_SPACE
  1

  0
ENDBLK
  5
124
 67
     1
  8
0
  0
ENDSEC
  0
SECTION
  2
ENTITIES
  0
ARC
  5
15481
  8
0
 10
146.4999985694885
 20
252.49999986588969
 30
0.0
 40
15.400000000000031
 50
84.410380012016006
 51
95.589619987983994
  0
CIRCLE
  5
15483
  8
0
 10
146.4999985694885
 20
252.49999986588969
 30
0.0
 40
17.560000000000031
  0
ARC
  5
15488
  8
0
 10
167.9999985694885
 20
252.49999986588969
 30
0.0
 40
1.50000000000001
 50
19.471220634494038
 51
340.5287793655059
  0
LINE
  5
15489
  8
0
 10
170.44948756694791
 20
252.99999988963839
 30
0.0
 11
169.414212629199
 21
252.99999988963839
 31
0.0
  0
LINE
  5
1548A
  8
0
 10
169.414212629199
 20
251.99999984214091
 30
0.0
 11
170.44948756694791
 21
251.99999984214091
 31
0.0
  0
ARC
  5
15496
  8
0
 10
146.4999985694885
 20
252.49999986588969
 30
0.0
 40
16.000000000000021
 50
95.379378991112063
 51
264.62062100888789
  0
LINE
  5
15497
  8
0
 10
144.99999855645001
 20
268.42953303456318
 30
0.0
 11
144.9999985564499
 21
255.66227724876251
 31
0.0
  0
ARC
  5
15499
  8
0
 10
146.4999985694885
 20
252.49999986588969
 30
0.0
 40
16.000000000000021
 50
275.37937899111199
 51
84.620621008887923
  0
LINE
  5
1549A
  8
0
 10
147.99999858252701
 20
236.57046754504341
 30
0.0
 11
147.99999858252701
 21
249.3377219407954
 31
0.0
  0
ARC
  5
1549D
  8
0
 10
146.4999985694885
 20
252.49999986588969
 30
0.0
 40
3.7000000000000068
 50
113.916534421855
 51
246.083465578145
  0
ARC
  5
1549F
  8
0
 10
146.4999985694885
 20
252.49999986588969
 30
0.0
 40
3.7000000000000068
 50
293.91653442185498
 51
66.08346557814501
  0
ARC
  5
154A8
  8
0
 10
145.00198144927691
 20
267.66976722872431
 30
0.0
 40
0.0964998498524374
 50
289.79110656427832
 51
341.01015668953011
  0
POLYLINE
  5
154A9
  8
0
 66
     1
 10
0.0
 20
0.0
 30
0.0
 70
   128
  0
VERTEX
  5
161E9
  8
0
 10
147.90676772128791
 20
267.63836612552421
 30
0.0
  0
VERTEX
  5
161EA
  8
0
 10
147.8871666407212
 20
267.66926833987247
 30
0.0
  0
VERTEX
  5
161EB
  8
0
 10
147.70823381372409
 20
267.85252954651838
 30
0.0
  0
SEQEND
  5
161EC
  8
0
  0
POLYLINE
  5
154AA
  8
0
 66
     1
 10
0.0
 20
0.0
 30
0.0
 70
   128
  0
VERTEX
  5
161ED
  8
0
 10
145.2915434345401
 20
267.85251223966151
 30
0.0
  0
VERTEX
  5
161EE
  8
0
 10
145.2144455909729
 20
267.79533123224991
 30
0.0
  0
VERTEX
  5
161EF
  8
0
 10
145.09322941768909
 20
267.63836612552421
 30
0.0
  0
SEQEND
  5
161F0
  8
0
  0
ARC
  5
154AB
  8
0
 10
147.9980156897002
 20
267.66976722872431
 30
0.0
 40
0.096499849852457
 50
198.9898433104637
 51
250.20889343570749
  0
LINE
  5
154B2
  8
0
 10
145.03465551417321
 20
267.57896730303781
 30
0.0
 11
144.99999855645001
 21
267.57555959373718
 31
0.0
  0
LINE
  5
154B3
  8
0
 10
147.99999858252701
 20
267.57555959373718
 30
0.0
 11
147.96534162480381
 21
267.57896730303781
 31
0.0
  0
CIRCLE
  5
154B4
  8
0
 10
131.2972027739778
 20
267.7027956614001
 30
0.0
 40
2.25
  0
CIRCLE
  5
154B5
  8
0
 10
146.4999985694885
 20
252.49999986588969
 30
0.0
 40
25.5
  0
CIRCLE
  5
154B7
  8
0
 10
161.70279436499919
 20
267.7027956614005
 30
0.0
 40
2.25
  0
CIRCLE
  5
154B8
  8
0
 10
131.2972027739782
 20
237.29720407037851
 30
0.0
 40
2.25
  0
CIRCLE
  5
154BC
  8
0
 10
161.70279436499979
 20
237.29720407037891
 30
0.0
 40
2.25
  0
ARC
  5
154C1
  8
0
 10
165.89999856948859
 20
130.40000043213379
 30
0.0
 40
0.4000000000000341
 50
180.0
 51
270.0
  0
LINE
  5
154C2
  8
0
 10
165.49999795854089
 20
135.00000043213379
 30
0.0
 11
165.49999795854089
 21
130.40000033006081
 31
0.0
  0
ARC
  5
154C3
  8
0
 10
163.28744301393289
 20
146.1000004321337
 30
0.0
 40
0.772555555555571
 50
315.1340181557531
 51
44.865981844253831
  0
ARC
  5
154C4
  8
0
 10
129.71255412504411
 20
146.1000004321337
 30
0.0
 40
0.772555555555571
 50
135.13401815574611
 51
224.86598184425389
  0
ARC
  5
154C5
  8
0
 10
163.28744301393289
 20
159.90000043213371
 30
0.0
 40
0.7725555555555611
 50
315.1340181557531
 51
44.865981844246917
  0
ARC
  5
154C6
  8
0
 10
129.71255412504411
 20
159.90000043213371
 30
0.0
 40
0.7725555555555611
 50
135.1340181557531
 51
224.86598184425389
  0
LINE
  5
154C7
  8
0
 10
151.79999841377139
 20
156.0000001490117
 30
0.0
 11
150.9999983757734
 21
156.0000001490117
 31
0.0
  0
LINE
  5
154C8
  8
0
 10
147.99999858252701
 20
156.0000001490117
 30
0.0
 11
144.99999855645001
 21
156.0000001490117
 31
0.0
  0
LINE
  5
154C9
  8
0
 10
141.99999876320359
 20
156.0000001490117
 30
0.0
 11
141.1999987252056
 21
156.0000001490117
 31
0.0
  0
LINE
  5
154CA
  8
0
 10
141.1999987252056
 20
150.0000000968576
 30
0.0
 11
141.99999876320359
 21
150.0000000968576
 31
0.0
  0
LINE
  5
154CB
  8
0
 10
144.99999855645001
 20
150.0000000968576
 30
0.0
 11
147.99999858252701
 21
150.0000000968576
 31
0.0
  0
LINE
  5
154CC
  8
0
 10
150.9999983757734
 20
150.0000000968576
 30
0.0
 11
151.79999841377139
 21
150.0000000968576
 31
0.0
  0
ARC
  5
154CD
  8
0
 10
130.9999985694885
 20
147.13561619099411
 30
0.0
 40
0.5
 50
180.0
 51
244.2285382594504
  0
ARC
  5
154CE
  8
0
 10
130.9999985694885
 20
160.93561619099421
 30
0.0
 40
0.5000000000000037
 50
180.0
 51
244.2285382594504
  0
LINE
  5
154CF
  8
0
 10
130.4999978095293
 20
164.13397593796259
 30
0.0
 11
130.4999978095293
 21
160.93561677634719
 31
0.0
  0
LINE
  5
154D0
  8
0
 10
130.4999978095293
 20
145.06438440084469
 30
0.0
 11
130.4999978095293
 21
141.8660257048906
 31
0.0
  0
ARC
  5
154D1
  8
0
 10
130.9999985694885
 20
145.06438467327331
 30
0.0
 40
0.5
 50
115.7714617405565
 51
180.0
  0
LINE
  5
154D2
  8
0
 10
130.4999978095293
 20
150.45712860673669
 30
0.0
 11
130.4999978095293
 21
147.1356160044671
 31
0.0
  0
LINE
  5
154D3
  8
0
 10
130.4999978095293
 20
158.86438517272481
 30
0.0
 11
130.4999978095293
 21
155.54999998211869
 31
0.0
  0
ARC
  5
154D4
  8
0
 10
130.9999985694885
 20
158.86438467327329
 30
0.0
 40
0.5
 50
115.7714617405565
 51
180.0
  0
LINE
  5
154D5
  8
0
 10
130.78260764479629
 20
146.6853485479952
 30
0.0
 11
130.854222625494
 21
146.64500086009511
 31
0.0
  0
LINE
  5
154D6
  8
0
 10
130.854222625494
 20
145.55500047653919
 30
0.0
 11
130.78260764479629
 21
145.5146527886391
 31
0.0
  0
LINE
  5
154D7
  8
0
 10
130.78260764479629
 20
160.48534838855269
 30
0.0
 11
130.854222625494
 21
160.44499976933011
 31
0.0
  0
LINE
  5
154D8
  8
0
 10
130.854222625494
 20
159.3550003170968
 30
0.0
 11
130.78260764479629
 21
159.3146516978741
 31
0.0
  0
ARC
  5
154D9
  8
0
 10
130.9999985694885
 20
164.1339750283492
 30
0.0
 40
0.5000000000000041
 50
59.999999999999858
 51
180.0
  0
ARC
  5
154DA
  8
0
 10
130.9999985694885
 20
141.86602583591821
 30
0.0
 40
0.5000000000000041
 50
180.0
 51
300.00000000000011
  0
LINE
  5
154DB
  8
0
 10
162.49999932944769
 20
141.8660257048906
 30
0.0
 11
162.49999932944769
 21
145.06438440084469
 31
0.0
  0
LINE
  5
154DC
  8
0
 10
162.49999932944769
 20
160.93561677634719
 30
0.0
 11
162.49999932944769
 21
164.13397593796259
 31
0.0
  0
ARC
  5
154DD
  8
0
 10
161.9999985694885
 20
145.06438467327331
 30
0.0
 40
0.5
 50
0.0
 51
64.228538259422365
  0
ARC
  5
154DE
  8
0
 10
161.9999985694885
 20
147.13561619099411
 30
0.0
 40
0.5
 50
295.77146174057759
 51
0.0
  0
LINE
  5
154DF
  8
0
 10
162.49999932944769
 20
158.499999627471
 30
0.0
 11
162.49999932944769
 21
158.86438517272481
 31
0.0
  0
LINE
  5
154E0
  8
0
 10
162.49999932944769
 20
147.1356160044671
 30
0.0
 11
162.49999932944769
 21
147.500171981752
 31
0.0
  0
ARC
  5
154E1
  8
0
 10
161.9999985694885
 20
158.86438467327329
 30
0.0
 40
0.5
 50
0.0
 51
64.228538259443511
  0
ARC
  5
154E2
  8
0
 10
161.9999985694885
 20
160.93561619099421
 30
0.0
 40
0.5000000000000037
 50
295.7714617405565
 51
0.0
  0
LINE
  5
154E3
  8
0
 10
162.21738949418059
 20
145.5146527886391
 30
0.0
 11
162.14577451348299
 21
145.55500047653919
 31
0.0
  0
LINE
  5
154E4
  8
0
 10
162.14577451348299
 20
146.64500086009511
 30
0.0
 11
162.21738949418059
 21
146.6853485479952
 31
0.0
  0
LINE
  5
154E5
  8
0
 10
162.21738949418059
 20
159.3146516978741
 30
0.0
 11
162.14577451348299
 21
159.3550003170968
 31
0.0
  0
LINE
  5
154E6
  8
0
 10
162.14577451348299
 20
160.44499976933011
 30
0.0
 11
162.21738949418059
 21
160.48534838855269
 31
0.0
  0
ARC
  5
154E7
  8
0
 10
161.9999985694885
 20
141.86602583591821
 30
0.0
 40
0.5000000000000041
 50
239.99999999999989
 51
0.0
  0
ARC
  5
154E8
  8
0
 10
161.9999985694885
 20
164.1339750283492
 30
0.0
 40
0.5000000000000041
 50
0.0
 51
120.0000000000001
  0
LINE
  5
154E9
  8
0
 10
120.9999990463257
 20
135.50000045588251
 30
0.0
 11
121.4999981969595
 21
135.00000043213379
 31
0.0
  0
LINE
  5
154EA
  8
0
 10
171.4999989420175
 20
135.00000043213379
 30
0.0
 11
171.99999809265131
 21
135.50000045588251
 31
0.0
  0
LINE
  5
154EB
  8
0
 10
171.99999809265131
 20
135.50000045588251
 30
0.0
 11
171.99999809265131
 21
139.50000023841869
 31
0.0
  0
LINE
  5
154EC
  8
0
 10
120.9999990463257
 20
139.50000023841869
 30
0.0
 11
120.9999990463257
 21
135.50000045588251
 31
0.0
  0
LINE
  5
154ED
  8
0
 10
171.99999809265131
 20
139.50000023841869
 30
0.0
 11
171.4999989420175
 21
140.00000032037499
 31
0.0
  0
LINE
  5
154EE
  8
0
 10
121.4999981969595
 20
140.00000032037499
 30
0.0
 11
120.9999990463257
 21
139.50000023841869
 31
0.0
  0
ARC
  5
154EF
  8
0
 10
162.8999985694885
 20
140.40000043213371
 30
0.0
 40
0.4000000000000199
 50
180.0
 51
270.0
  0
ARC
  5
154F0
  8
0
 10
130.09999856948849
 20
140.40000043213371
 30
0.0
 40
0.4000000000000199
 50
270.0
 51
0.0
  0
LINE
  5
154F1
  8
0
 10
162.49999932944769
 20
140.4000005722047
 30
0.0
 11
162.49999932944769
 21
141.0000004842878
 31
0.0
  0
LINE
  5
154F2
  8
0
 10
130.4999978095293
 20
141.0000004842878
 30
0.0
 11
130.4999978095293
 21
140.4000005722047
 31
0.0
  0
LINE
  5
154F3
  8
0
 10
162.49999932944769
 20
164.99999976158151
 30
0.0
 11
162.49999932944769
 21
165.99999992549431
 31
0.0
  0
LINE
  5
154F4
  8
0
 10
130.4999978095293
 20
165.99999992549431
 30
0.0
 11
130.4999978095293
 21
164.99999976158151
 31
0.0
  0
LINE
  5
154F5
  8
0
 10
162.49999932944769
 20
165.99999992549431
 30
0.0
 11
162.28284098207951
 21
166.21715827286249
 31
0.0
  0
LINE
  5
154F6
  8
0
 10
130.71715615689749
 20
166.21715827286249
 30
0.0
 11
130.4999978095293
 21
165.99999992549431
 31
0.0
  0
LINE
  5
154F7
  8
0
 10
162.28284098207951
 20
166.78284360468399
 30
0.0
 11
162.49999932944769
 21
167.0000019520522
 31
0.0
  0
LINE
  5
154F8
  8
0
 10
162.49999932944769
 20
167.0000019520522
 30
0.0
 11
162.49999932944769
 21
176.4999988526107
 31
0.0
  0
LINE
  5
154F9
  8
0
 10
130.4999978095293
 20
176.4999988526107
 30
0.0
 11
130.4999978095293
 21
167.0000019520522
 31
0.0
  0
LINE
  5
154FA
  8
0
 10
130.4999978095293
 20
167.0000019520522
 30
0.0
 11
130.71715615689749
 21
166.78284360468399
 31
0.0
  0
LINE
  5
154FB
  8
0
 10
162.49999932944769
 20
176.4999988526107
 30
0.0
 11
161.99999831616881
 21
176.99999986588961
 31
0.0
  0
LINE
  5
154FC
  8
0
 10
130.99999882280821
 20
176.99999986588961
 30
0.0
 11
130.4999978095293
 21
176.4999988526107
 31
0.0
  0
ARC
  5
154FD
  8
0
 10
162.56568399443779
 20
166.50000043213379
 30
0.0
 40
0.3999999999999891
 50
135.0
 51
225.0
  0
ARC
  5
154FE
  8
0
 10
130.43431314453929
 20
166.50000043213379
 30
0.0
 40
0.3999999999999891
 50
315.0
 51
45.0
  0
LINE
  5
154FF
  8
0
 10
158.99999875575301
 20
123.0000003278256
 30
0.0
 11
158.99999875575301
 21
133.00000033713891
 31
0.0
  0
LINE
  5
15500
  8
0
 10
133.99999838322401
 20
133.00000033713891
 30
0.0
 11
133.99999838322401
 21
123.0000003278256
 31
0.0
  0
LINE
  5
15501
  8
0
 10
158.99999875575301
 20
133.00000033713891
 30
0.0
 11
158.4999986737966
 21
133.50000041909519
 31
0.0
  0
LINE
  5
15502
  8
0
 10
134.4999984651804
 20
133.50000041909519
 30
0.0
 11
133.99999838322401
 21
133.00000033713891
 31
0.0
  0
LINE
  5
15503
  8
0
 10
134.04999829828739
 20
121.5000000819565
 30
0.0
 11
134.54999838024369
 21
121.0000000000001
 31
0.0
  0
LINE
  5
15504
  8
0
 10
158.44999875873319
 20
121.0000000000001
 30
0.0
 11
158.9499988406896
 21
121.5000000819565
 31
0.0
  0
LINE
  5
15505
  8
0
 10
134.04999829828739
 20
123.0000003278256
 30
0.0
 11
134.04999829828739
 21
121.5000000819565
 31
0.0
  0
LINE
  5
15506
  8
0
 10
158.9499988406896
 20
121.5000000819565
 30
0.0
 11
158.9499988406896
 21
123.0000003278256
 31
0.0
  0
LINE
  5
15507
  8
0
 10
158.4999986737966
 20
133.50000041909519
 30
0.0
 11
158.4999986737966
 21
135.00000043213379
 31
0.0
  0
LINE
  5
15508
  8
0
 10
134.4999984651804
 20
135.00000043213379
 30
0.0
 11
134.4999984651804
 21
133.50000041909519
 31
0.0
  0
LINE
  5
15509
  8
0
 10
170.03960691392419
 20
130.0000005438925
 30
0.0
 11
165.89999914169309
 21
130.0000005438925
 31
0.0
  0
ARC
  5
1550A
  8
0
 10
170.04426754209749
 20
130.40522748054281
 30
0.0
 40
0.4052537373572644
 50
269.34105429179652
 51
359.26095199379978
  0
LINE
  5
1550B
  8
0
 10
170.44948756694791
 20
130.40000033006081
 30
0.0
 11
170.44948756694791
 21
135.00000043213379
 31
0.0
  0
LINE
  5
1550C
  8
0
 10
163.8349980860948
 20
146.64500086009511
 30
0.0
 11
129.16499905288219
 21
146.64500086009511
 31
0.0
  0
LINE
  5
1550D
  8
0
 10
163.8349980860948
 20
145.55500047653919
 30
0.0
 11
129.16499905288219
 21
145.55500047653919
 31
0.0
  0
LINE
  5
1550E
  8
0
 10
163.83499922919779
 20
160.44499976933011
 30
0.0
 11
129.16499905288219
 21
160.44499976933011
 31
0.0
  0
LINE
  5
15510
  8
0
 10
163.83499845498841
 20
159.3550003170968
 30
0.0
 11
129.16499905288219
 21
159.3550003170968
 31
0.0
  0
LINE
  5
15512
  8
0
 10
161.99999831616881
 20
156.81036813557159
 30
0.0
 11
161.99999831616881
 21
149.18589005619299
 31
0.0
  0
ARC
  5
15519
  8
0
 10
140.19999733683471
 20
145.00000143307449
 30
0.0
 40
1.0000013883717249
 50
270.0000701561878
 51
359.99992984381208
  0
LINE
  5
1551F
  8
0
 10
141.1999987252056
 20
145.06438440084469
 30
0.0
 11
141.1999987252056
 21
145.00000020861631
 31
0.0
  0
LINE
  5
1552A
  8
0
 10
141.1999987252056
 20
161.00000096857559
 30
0.0
 11
141.1999987252056
 21
160.93561677634719
 31
0.0
  0
ARC
  5
15530
  8
0
 10
140.19999732490501
 20
160.9999997321876
 30
0.0
 40
1.000001400301439
 50
0.0000708397109351
 51
89.999929160289057
  0
ARC
  5
15535
  8
0
 10
114.6288071899193
 20
153.00002912902741
 30
0.0
 40
16.074733062654921
 50
350.89800808856609
 51
9.1275152411863676
  0
LINE
  5
15537
  8
0
 10
141.1999987252056
 20
145.55500047653919
 30
0.0
 11
141.1999987252056
 21
145.06438440084469
 31
0.0
  0
LINE
  5
15538
  8
0
 10
141.1999987252056
 20
160.93561677634719
 30
0.0
 11
141.1999987252056
 21
160.44499976933011
 31
0.0
  0
LINE
  5
15539
  8
0
 10
141.1999987252056
 20
159.3550003170968
 30
0.0
 11
141.1999987252056
 21
146.64500086009511
 31
0.0
  0
LINE
  5
1553A
  8
0
 10
140.19999856129289
 20
144.0000000447036
 30
0.0
 11
135.9640999510884
 21
144.0000000447036
 31
0.0
  0
LINE
  5
1553D
  8
0
 10
135.9640999510884
 20
162.00000113248831
 30
0.0
 11
140.19999856129289
 21
162.00000113248831
 31
0.0
  0
POLYLINE
  5
1553E
  8
0
 66
     1
 10
0.0
 20
0.0
 30
0.0
 70
   128
  0
VERTEX
  5
161F1
  8
0
 10
135.9640999510884
 20
144.0000000447036
 30
0.0
  0
VERTEX
  5
161F2
  8
0
 10
135.90308155864469
 20
143.99813739955431
 30
0.0
  0
VERTEX
  5
161F3
  8
0
 10
135.46409986913201
 20
143.86602556705481
 30
0.0
  0
SEQEND
  5
161F4
  8
0
  0
POLYLINE
  5
15541
  8
0
 66
     1
 10
0.0
 20
0.0
 30
0.0
 70
   128
  0
VERTEX
  5
161F5
  8
0
 10
135.46409986913201
 20
162.1339756101371
 30
0.0
  0
VERTEX
  5
161F6
  8
0
 10
135.5166981741786
 20
162.10566712915909
 30
0.0
  0
VERTEX
  5
161F7
  8
0
 10
135.9640999510884
 20
162.00000113248831
 30
0.0
  0
SEQEND
  5
161F8
  8
0
  0
ARC
  5
15546
  8
0
 10
152.79999948041259
 20
145.00000111134489
 30
0.0
 40
1.0000010666416961
 50
180.00005172248191
 51
269.9999482775246
  0
LINE
  5
15548
  8
0
 10
151.79999841377139
 20
145.00000020861631
 30
0.0
 11
151.79999841377139
 21
145.06438440084469
 31
0.0
  0
ARC
  5
1555A
  8
0
 10
152.80000006747551
 20
160.99999947878419
 30
0.0
 40
1.000001653705213
 50
90.000085358611457
 51
179.9999146413885
  0
LINE
  5
1555D
  8
0
 10
151.79999841377139
 20
160.93561677634719
 30
0.0
 11
151.79999841377139
 21
161.00000096857559
 31
0.0
  0
ARC
  5
15562
  8
0
 10
177.88298700995949
 20
153.0000024488242
 30
0.0
 40
16.336654459952879
 50
160.3261175921302
 51
199.6732614718542
  0
LINE
  5
15563
  8
0
 10
151.79999841377139
 20
145.06438440084469
 30
0.0
 11
151.79999841377139
 21
145.55500047653919
 31
0.0
  0
LINE
  5
15565
  8
0
 10
151.79999841377131
 20
146.64500086009511
 30
0.0
 11
151.79999841377139
 21
159.3550003170968
 31
0.0
  0
LINE
  5
15566
  8
0
 10
151.79999841377139
 20
160.44499976933011
 30
0.0
 11
151.79999841377139
 21
160.93561677634719
 31
0.0
  0
LINE
  5
15568
  8
0
 10
157.03589718788859
 20
144.0000000447036
 30
0.0
 11
152.79999857768411
 21
144.0000000447036
 31
0.0
  0
LINE
  5
15569
  8
0
 10
152.79999857768411
 20
162.00000113248831
 30
0.0
 11
157.03589718788859
 21
162.00000113248831
 31
0.0
  0
POLYLINE
  5
1556C
  8
0
 66
     1
 10
0.0
 20
0.0
 30
0.0
 70
   128
  0
VERTEX
  5
161F9
  8
0
 10
157.53589726984501
 20
143.86602556705481
 30
0.0
  0
VERTEX
  5
161FA
  8
0
 10
157.48329896479839
 20
143.8943331167103
 30
0.0
  0
VERTEX
  5
161FB
  8
0
 10
157.03589718788859
 20
144.0000000447036
 30
0.0
  0
SEQEND
  5
161FC
  8
0
  0
POLYLINE
  5
1556D
  8
0
 66
     1
 10
0.0
 20
0.0
 30
0.0
 70
   128
  0
VERTEX
  5
161FD
  8
0
 10
157.03589718788859
 20
162.00000113248831
 30
0.0
  0
VERTEX
  5
161FE
  8
0
 10
157.09691558033219
 20
162.0018637776376
 30
0.0
  0
VERTEX
  5
161FF
  8
0
 10
157.53589726984501
 20
162.1339756101371
 30
0.0
  0
SEQEND
  5
16200
  8
0
  0
LINE
  5
15571
  8
0
 10
171.4999989420175
 20
135.00000043213379
 30
0.0
 11
121.4999981969595
 21
135.00000043213379
 31
0.0
  0
LINE
  5
15574
  8
0
 10
121.4999981969595
 20
140.00000032037499
 30
0.0
 11
171.4999989420175
 21
140.00000032037499
 31
0.0
  0
LINE
  5
15575
  8
0
 10
158.8626920059323
 20
143.1000006422401
 30
0.0
 11
134.13730513304469
 21
143.1000006422401
 31
0.0
  0
ARC
  5
15578
  8
0
 10
146.4999985694885
 20
145.0000001961877
 30
0.0
 40
1.4999998526533831
 50
200.30705746922641
 51
339.69294253077362
  0
ARC
  5
1557A
  8
0
 10
151.9999977812617
 20
144.50000014571231
 30
0.0
 40
0.99999925164278
 50
181.1790398684756
 51
270.00004345455909
  0
LINE
  5
1557B
  8
0
 10
151.9999985396862
 20
143.50000089406981
 30
0.0
 11
158.1698718294501
 21
143.50000089406981
 31
0.0
  0
LINE
  5
1557E
  8
0
 10
134.83012530952689
 20
143.50000089406981
 30
0.0
 11
140.99999859929079
 21
143.50000089406981
 31
0.0
  0
ARC
  5
1557F
  8
0
 10
141.00000017611191
 20
144.49999931029839
 30
0.0
 40
0.9999984162298392
 50
269.99990965466958
 51
358.82100702230269
  0
LINE
  5
15581
  8
0
 10
158.8626920059323
 20
162.8999996036292
 30
0.0
 11
147.99999858252701
 21
162.8999996036292
 31
0.0
  0
LINE
  5
15582
  8
0
 10
162.49999932944769
 20
165.99999992549431
 30
0.0
 11
147.99999858252701
 21
165.99999992549431
 31
0.0
  0
LINE
  5
15585
  8
0
 10
144.99999855645001
 20
165.99999992549431
 30
0.0
 11
130.4999978095293
 21
165.99999992549431
 31
0.0
  0
LINE
  5
15586
  8
0
 10
144.99999855645001
 20
162.8999996036292
 30
0.0
 11
134.13730513304469
 21
162.8999996036292
 31
0.0
  0
ARC
  5
1558A
  8
0
 10
140.9999999762673
 20
161.5000016824585
 30
0.0
 40
0.9999986006645679
 50
1.1789499575931299
 51
90.000078895050194
  0
LINE
  5
1558B
  8
0
 10
140.99999859929079
 20
162.50000028312209
 30
0.0
 11
134.83012530952689
 21
162.50000028312209
 31
0.0
  0
LINE
  5
1558F
  8
0
 10
158.1698718294501
 20
162.50000028312209
 30
0.0
 11
151.9999985396862
 21
162.50000028312209
 31
0.0
  0
ARC
  5
15590
  8
0
 10
151.9999996164897
 20
161.49999917765811
 30
0.0
 40
1.0000011054646869
 50
90.000061696232379
 51
178.8209094511204
  0
LINE
  5
15595
  8
0
 10
162.49999932944769
 20
167.0000019520522
 30
0.0
 11
147.99999858252701
 21
167.0000019520522
 31
0.0
  0
LINE
  5
15598
  8
0
 10
147.99999858252701
 20
176.99999986588961
 30
0.0
 11
147.99999858252701
 21
160.4449997693302
 31
0.0
  0
LINE
  5
1559A
  8
0
 10
144.99999855645001
 20
167.0000019520522
 30
0.0
 11
130.4999978095293
 21
167.0000019520522
 31
0.0
  0
LINE
  5
1559B
  8
0
 10
144.99999855645001
 20
160.4449997693302
 30
0.0
 11
144.99999855645001
 21
176.99999986588961
 31
0.0
  0
LINE
  5
1559D
  8
0
 10
147.99999858252701
 20
176.99999986588961
 30
0.0
 11
161.99999831616881
 21
176.99999986588961
 31
0.0
  0
LINE
  5
1559F
  8
0
 10
130.99999882280821
 20
176.99999986588961
 30
0.0
 11
144.99999855645001
 21
176.99999986588961
 31
0.0
  0
LINE
  5
155A3
  8
0
 10
150.9999983757734
 20
144.6794231459499
 30
0.0
 11
147.96534162480381
 21
144.6794231459499
 31
0.0
  0
LINE
  5
155A4
  8
0
 10
150.9999983757734
 20
144.6794231459499
 30
0.0
 11
150.9999983757734
 21
144.5000001266599
 31
0.0
  0
LINE
  5
155A5
  8
0
 10
150.9999983757734
 20
144.5000001266599
 30
0.0
 11
151.0002102516591
 21
144.4794234856964
 31
0.0
  0
ARC
  5
155A6
  8
0
 10
146.49999138526931
 20
145.00000319258081
 30
0.0
 40
1.5000076302477601
 50
339.69293042751377
 51
347.65961858523082
  0
LINE
  5
155A7
  8
0
 10
141.9997868873179
 20
144.4794234856964
 30
0.0
 11
141.99999876320359
 21
144.5000001266599
 31
0.0
  0
LINE
  5
155A8
  8
0
 10
141.99999876320359
 20
144.5000001266599
 30
0.0
 11
141.99999876320359
 21
144.6794231459499
 31
0.0
  0
LINE
  5
155A9
  8
0
 10
145.03465551417321
 20
144.6794231459499
 30
0.0
 11
141.99999876320359
 21
144.6794231459499
 31
0.0
  0
ARC
  5
155AA
  8
0
 10
146.50000575370771
 20
145.00000319258081
 30
0.0
 40
1.5000076302477601
 50
192.34038141477549
 51
200.30706957248611
  0
LINE
  5
155AB
  8
0
 10
151.0002102516591
 20
161.5205767601729
 30
0.0
 11
150.9999983757734
 21
161.5000001192094
 31
0.0
  0
LINE
  5
155AC
  8
0
 10
150.9999983757734
 20
161.5000001192094
 30
0.0
 11
150.9999983757734
 21
161.3205770999194
 31
0.0
  0
LINE
  5
155AD
  8
0
 10
150.9999983757734
 20
161.3205770999194
 30
0.0
 11
147.99999858252701
 21
161.3205770999194
 31
0.0
  0
LINE
  5
155AF
  8
0
 10
144.99999855645001
 20
161.3205770999194
 30
0.0
 11
141.99999876320359
 21
161.3205770999194
 31
0.0
  0
LINE
  5
155B0
  8
0
 10
141.99999876320359
 20
161.3205770999194
 30
0.0
 11
141.99999876320359
 21
161.5000001192094
 31
0.0
  0
LINE
  5
155B1
  8
0
 10
141.99999876320359
 20
161.5000001192094
 30
0.0
 11
141.9997868873179
 21
161.5205767601729
 31
0.0
  0
LINE
  5
155B3
  8
0
 10
150.9999983757734
 20
161.3205770999194
 30
0.0
 11
150.9999983757734
 21
160.44499976933011
 31
0.0
  0
LINE
  5
155B4
  8
0
 10
150.9999983757734
 20
159.3550003170968
 30
0.0
 11
150.9999983757734
 21
146.64500086009511
 31
0.0
  0
LINE
  5
155B5
  8
0
 10
150.9999983757734
 20
145.55500047653919
 30
0.0
 11
150.9999983757734
 21
144.6794231459499
 31
0.0
  0
LINE
  5
155B6
  8
0
 10
147.96534162480381
 20
144.6794231459499
 30
0.0
 11
147.99999858252701
 21
145.00000020861631
 31
0.0
  0
LINE
  5
155B7
  8
0
 10
147.99999858252701
 20
145.00000020861631
 30
0.0
 11
147.99999858252701
 21
145.55500047653919
 31
0.0
  0
LINE
  5
155B8
  8
0
 10
147.99999858252701
 20
146.64500086009511
 30
0.0
 11
147.99999858252701
 21
159.3550003170968
 31
0.0
  0
LINE
  5
155BA
  8
0
 10
141.99999876320359
 20
144.6794231459499
 30
0.0
 11
141.99999876320359
 21
145.55500047653919
 31
0.0
  0
LINE
  5
155BB
  8
0
 10
141.99999876320359
 20
146.64500086009511
 30
0.0
 11
141.99999876320359
 21
159.3550003170968
 31
0.0
  0
LINE
  5
155BC
  8
0
 10
141.99999876320359
 20
160.44499976933011
 30
0.0
 11
141.99999876320359
 21
161.3205770999194
 31
0.0
  0
LINE
  5
155BD
  8
0
 10
144.99999855645001
 20
145.00000020861631
 30
0.0
 11
145.03465551417321
 21
144.6794231459499
 31
0.0
  0
LINE
  5
155BF
  8
0
 10
144.99999855645001
 20
159.3550003170968
 30
0.0
 11
144.99999855645001
 21
146.64500086009511
 31
0.0
  0
LINE
  5
155C0
  8
0
 10
144.99999855645001
 20
145.55500047653919
 30
0.0
 11
144.99999855645001
 21
145.00000020861631
 31
0.0
  0
LINE
  5
155C2
  8
0
 10
133.99999838322401
 20
123.0000003278256
 30
0.0
 11
158.99999875575301
 21
123.0000003278256
 31
0.0
  0
LINE
  5
155C3
  8
0
 10
158.4999986737966
 20
133.50000041909519
 30
0.0
 11
134.4999984651804
 21
133.50000041909519
 31
0.0
  0
LINE
  5
155C5
  8
0
 10
158.44999875873319
 20
121.0000000000001
 30
0.0
 11
134.54999838024369
 21
121.0000000000001
 31
0.0
  0
ARC
  5
155E8
  8
0
 10
62.28744396760726
 20
146.1000004321337
 30
0.0
 40
0.7725555555555611
 50
315.1340181557531
 51
44.865981844246917
  0
ARC
  5
155E9
  8
0
 10
28.71255507871831
 20
146.10000043213381
 30
0.0
 40
0.7725555555555611
 50
135.1340181557531
 51
224.8659818442469
  0
ARC
  5
155EA
  8
0
 10
62.28744396760726
 20
159.90000043213371
 30
0.0
 40
0.7725555555555611
 50
315.1340181557531
 51
44.865981844246917
  0
ARC
  5
155EB
  8
0
 10
28.71255507871831
 20
159.90000043213371
 30
0.0
 40
0.7725555555555611
 50
135.1340181557531
 51
224.8659818442469
  0
ARC
  5
155EC
  8
0
 10
45.499999523162842
 20
165.82058515086629
 30
0.0
 40
24.500777410297619
 50
243.68015138064979
 51
296.3198486193503
  0
ARC
  5
155ED
  8
0
 10
45.499999523162842
 20
140.1794277976189
 30
0.0
 40
24.50076602452592
 50
63.68013820980142
 51
116.31986179020549
  0
ARC
  5
155EE
  8
0
 10
56.873199582568418
 20
143.00277354453789
 30
0.0
 40
0.9972371541049092
 50
90.264846293697843
 51
120.758194024039
  0
ARC
  5
155EF
  8
0
 10
34.135225459870867
 20
143.0331329997102
 30
0.0
 40
0.9668745767543086
 50
58.750807330262383
 51
90.226152352006196
  0
ARC
  5
155F0
  8
0
 10
56.864861224467973
 20
162.96718943383641
 30
0.0
 40
0.96719548877729
 50
238.7562700658103
 51
270.22088567952773
  0
ARC
  5
155F1
  8
0
 10
34.155802035037823
 20
162.92957065132299
 30
0.0
 40
0.9243163427696071
 50
268.64519726138639
 51
301.35808675808312
  0
POLYLINE
  5
155F2
  8
0
 66
     1
 10
0.0
 20
0.0
 30
0.0
 70
   128
  0
VERTEX
  5
16201
  8
0
 10
30.626064613461491
 20
145.00000672787439
 30
0.0
  0
VERTEX
  5
16202
  8
0
 10
30.630032978951931
 20
144.88289384543901
 30
0.0
  0
VERTEX
  5
16203
  8
0
 10
30.65942645072937
 20
144.6674845218659
 30
0.0
  0
VERTEX
  5
16204
  8
0
 10
30.723982937633991
 20
144.4553888440133
 30
0.0
  0
VERTEX
  5
16205
  8
0
 10
30.819741524755951
 20
144.28043989837181
 30
0.0
  0
VERTEX
  5
16206
  8
0
 10
30.936591774225231
 20
144.15158955752861
 30
0.0
  0
VERTEX
  5
16207
  8
0
 10
31.08154188841581
 20
144.05754180997619
 30
0.0
  0
VERTEX
  5
16208
  8
0
 10
31.246738955378529
 20
144.0070259422065
 30
0.0
  0
VERTEX
  5
16209
  8
0
 10
31.338078416883938
 20
144.0000000447036
 30
0.0
  0
SEQEND
  5
1620A
  8
0
  0
POLYLINE
  5
155F3
  8
0
 66
     1
 10
0.0
 20
0.0
 30
0.0
 70
   128
  0
VERTEX
  5
1620B
  8
0
 10
60.373934432864182
 20
161.00000096857559
 30
0.0
  0
VERTEX
  5
1620C
  8
0
 10
60.361653082072728
 20
161.20462743937981
 30
0.0
  0
VERTEX
  5
1620D
  8
0
 10
60.319840423762791
 20
161.41713289916521
 30
0.0
  0
VERTEX
  5
1620E
  8
0
 10
60.234290994703763
 20
161.63257388770589
 30
0.0
  0
VERTEX
  5
1620F
  8
0
 10
60.131706744432442
 20
161.78087396919739
 30
0.0
  0
VERTEX
  5
16210
  8
0
 10
60.001856163144112
 20
161.89524596929559
 30
0.0
  0
VERTEX
  5
16211
  8
0
 10
59.84669875353574
 20
161.9707743674517
 30
0.0
  0
VERTEX
  5
16212
  8
0
 10
59.675843901932232
 20
161.9998372197152
 30
0.0
  0
VERTEX
  5
16213
  8
0
 10
59.662395603954792
 20
162.00000113248831
 30
0.0
  0
SEQEND
  5
16214
  8
0
  0
POLYLINE
  5
155F4
  8
0
 66
     1
 10
0.0
 20
0.0
 30
0.0
 70
   128
  0
VERTEX
  5
16215
  8
0
 10
59.661920629441731
 20
144.0000000447036
 30
0.0
  0
VERTEX
  5
16216
  8
0
 10
59.759146049618721
 20
144.00795819610369
 30
0.0
  0
VERTEX
  5
16217
  8
0
 10
59.926452562212937
 20
144.06132949888709
 30
0.0
  0
VERTEX
  5
16218
  8
0
 10
60.063743479549878
 20
144.1518922373653
 30
0.0
  0
VERTEX
  5
16219
  8
0
 10
60.17147421836853
 20
144.26830290257939
 30
0.0
  0
VERTEX
  5
1621A
  8
0
 10
60.258028544485562
 20
144.41459970921289
 30
0.0
  0
VERTEX
  5
1621B
  8
0
 10
60.324315428733819
 20
144.59916362911471
 30
0.0
  0
VERTEX
  5
1621C
  8
0
 10
60.364695712923996
 20
144.8220244646073
 30
0.0
  0
VERTEX
  5
1621D
  8
0
 10
60.373934432864182
 20
144.9999992772938
 30
0.0
  0
SEQEND
  5
1621E
  8
0
  0
POLYLINE
  5
155F5
  8
0
 66
     1
 10
0.0
 20
0.0
 30
0.0
 70
   128
  0
VERTEX
  5
1621F
  8
0
 10
31.33642065784511
 20
161.99992008960879
 30
0.0
  0
VERTEX
  5
16220
  8
0
 10
31.240852996706959
 20
161.9920420497657
 30
0.0
  0
VERTEX
  5
16221
  8
0
 10
31.07354648411274
 20
161.93867167830479
 30
0.0
  0
VERTEX
  5
16222
  8
0
 10
30.936255566775799
 20
161.848108008504
 30
0.0
  0
VERTEX
  5
16223
  8
0
 10
30.82852482795715
 20
161.73169827461251
 30
0.0
  0
VERTEX
  5
16224
  8
0
 10
30.741970501840111
 20
161.58540053665649
 30
0.0
  0
VERTEX
  5
16225
  8
0
 10
30.675683617591861
 20
161.40083661675459
 30
0.0
  0
VERTEX
  5
16226
  8
0
 10
30.63530333340168
 20
161.17797671258461
 30
0.0
  0
VERTEX
  5
16227
  8
0
 10
30.626064613461491
 20
160.99999538064009
 30
0.0
  0
SEQEND
  5
16228
  8
0
  0
LINE
  5
155F6
  8
0
 10
60.078254434771338
 20
145.52073242308299
 30
0.0
 11
60.019582957029343
 21
145.55500047653919
 31
0.0
  0
LINE
  5
155F9
  8
0
 10
30.98729390650988
 20
145.55500047653919
 30
0.0
 11
30.921744611554232
 21
145.52073242308299
 31
0.0
  0
LINE
  5
155FC
  8
0
 10
30.921744629740711
 20
160.47926871478569
 30
0.0
 11
30.98380982875824
 21
160.44499976933011
 31
0.0
  0
LINE
  5
155FD
  8
0
 10
30.98729390650988
 20
159.3550003170968
 30
0.0
 11
30.92174556106329
 21
159.32073137164119
 31
0.0
  0
LINE
  5
155FE
  8
0
 10
60.373934432864182
 20
145.00000020861631
 30
0.0
 11
60.373934432864182
 21
145.06438440084469
 31
0.0
  0
ARC
  5
155FF
  8
0
 10
59.873934266301148
 20
145.06438467327331
 30
0.0
 40
0.5000000000000285
 50
0.0
 51
65.8805485289502
  0
LINE
  5
15600
  8
0
 10
30.626064613461491
 20
145.06438440084469
 30
0.0
 11
30.626064613461491
 21
145.00000020861631
 31
0.0
  0
ARC
  5
15601
  8
0
 10
31.126064780024421
 20
145.06438467327331
 30
0.0
 40
0.5
 50
114.11945147104279
 51
180.0
  0
ARC
  5
15603
  8
0
 10
31.126064780024421
 20
147.1356161909942
 30
0.0
 40
0.5000000000000011
 50
180.0
 51
245.88054852895709
  0
LINE
  5
15604
  8
0
 10
30.626064613461491
 20
158.86438517272481
 30
0.0
 11
30.626064613461491
 21
147.1356160044671
 31
0.0
  0
ARC
  5
15606
  8
0
 10
31.126064780024421
 20
158.86438467327341
 30
0.0
 40
0.5
 50
114.11945147104279
 51
180.0
  0
LINE
  5
15607
  8
0
 10
60.373904064111798
 20
160.93561619099421
 30
0.0
 11
60.373934432864182
 21
161.00000096857559
 31
0.0
  0
ARC
  5
15608
  8
0
 10
31.126064780024421
 20
160.93561619099421
 30
0.0
 40
0.5000000000000077
 50
180.0
 51
245.88054852895709
  0
LINE
  5
15609
  8
0
 10
30.626064613461491
 20
161.00000096857559
 30
0.0
 11
30.626064613461491
 21
160.93561677634719
 31
0.0
  0
LINE
  5
1560A
  8
0
 10
20.0
 20
135.50000045588251
 30
0.0
 11
20.499999150633808
 21
135.00000043213379
 31
0.0
  0
LINE
  5
1560B
  8
0
 10
70.499999895691872
 20
135.00000043213379
 30
0.0
 11
70.999999046325684
 21
135.50000045588251
 31
0.0
  0
LINE
  5
1560C
  8
0
 10
70.999999046325684
 20
135.50000045588251
 30
0.0
 11
70.999999046325684
 21
139.50000023841869
 31
0.0
  0
LINE
  5
1560D
  8
0
 10
20.0
 20
139.50000023841869
 30
0.0
 11
20.0
 21
135.50000045588251
 31
0.0
  0
LINE
  5
1560E
  8
0
 10
70.999999046325684
 20
139.50000023841869
 30
0.0
 11
70.499999895691872
 21
140.00000032037499
 31
0.0
  0
LINE
  5
1560F
  8
0
 10
20.499999150633808
 20
140.00000032037499
 30
0.0
 11
20.0
 21
139.50000023841869
 31
0.0
  0
ARC
  5
15610
  8
0
 10
61.899999523162698
 20
140.40000043213371
 30
0.0
 40
0.3999999999999986
 50
180.0
 51
270.0
  0
ARC
  5
15611
  8
0
 10
29.099999523162751
 20
140.40000043213371
 30
0.0
 40
0.3999999999999986
 50
270.0
 51
0.0
  0
LINE
  5
15612
  8
0
 10
61.500000283122063
 20
140.4000005722047
 30
0.0
 11
61.500000283122063
 21
143.1000006422401
 31
0.0
  0
LINE
  5
15613
  8
0
 10
29.499998763203621
 20
143.1000006422401
 30
0.0
 11
29.499998763203621
 21
140.4000005722047
 31
0.0
  0
LINE
  5
15614
  8
0
 10
57.99999970942735
 20
123.0000003278256
 30
0.0
 11
57.99999970942735
 21
133.00000033713891
 31
0.0
  0
LINE
  5
15615
  8
0
 10
32.999999336898327
 20
133.00000033713891
 30
0.0
 11
32.999999336898327
 21
123.0000003278256
 31
0.0
  0
LINE
  5
15616
  8
0
 10
57.99999970942735
 20
133.00000033713891
 30
0.0
 11
57.49999962747097
 21
133.50000041909519
 31
0.0
  0
LINE
  5
15617
  8
0
 10
33.499999418854713
 20
133.50000041909519
 30
0.0
 11
32.999999336898327
 21
133.00000033713891
 31
0.0
  0
LINE
  5
15618
  8
0
 10
33.049999251961708
 20
121.5000000819565
 30
0.0
 11
33.549999333918088
 21
121.0000000000001
 31
0.0
  0
LINE
  5
15619
  8
0
 10
57.449999712407582
 20
121.0000000000001
 30
0.0
 11
57.949999794363968
 21
121.5000000819565
 31
0.0
  0
LINE
  5
1561A
  8
0
 10
33.049999251961708
 20
123.0000003278256
 30
0.0
 11
33.049999251961708
 21
121.5000000819565
 31
0.0
  0
LINE
  5
1561B
  8
0
 10
57.949999794363968
 20
121.5000000819565
 30
0.0
 11
57.949999794363968
 21
123.0000003278256
 31
0.0
  0
LINE
  5
1561E
  8
0
 10
57.49999962747097
 20
133.50000041909519
 30
0.0
 11
57.49999962747097
 21
135.00000043213379
 31
0.0
  0
LINE
  5
1561F
  8
0
 10
33.499999418854713
 20
135.00000043213379
 30
0.0
 11
33.499999418854713
 21
133.50000041909519
 31
0.0
  0
LINE
  5
15620
  8
0
 10
62.83499909719842
 20
146.64500086009511
 30
0.0
 11
28.165000006556511
 21
146.64500086009511
 31
0.0
  0
LINE
  5
15622
  8
0
 10
62.834999567361137
 20
145.55500047653919
 30
0.0
 11
28.165000006556511
 21
145.55500047653919
 31
0.0
  0
LINE
  5
15624
  8
0
 10
62.834999039769173
 20
160.44499976933011
 30
0.0
 11
28.165000006556511
 21
160.44499976933011
 31
0.0
  0
LINE
  5
15625
  8
0
 10
62.834999039769173
 20
159.3550003170968
 30
0.0
 11
28.165000006556511
 21
159.3550003170968
 31
0.0
  0
CIRCLE
  5
1563B
  8
0
 10
45.499984295299321
 20
153.00012763810071
 30
0.0
 40
2.5498723440634539
  0
LINE
  5
15651
  8
0
 10
59.661920629441731
 20
144.0000000447036
 30
0.0
 11
56.868589930236332
 21
144.0000000447036
 31
0.0
  0
LINE
  5
15653
  8
0
 10
34.131409116089337
 20
144.0000000447036
 30
0.0
 11
31.338078416883938
 21
144.0000000447036
 31
0.0
  0
LINE
  5
15655
  8
0
 10
56.868589930236332
 20
162.00000113248831
 30
0.0
 11
59.661920629441731
 21
162.00000113248831
 31
0.0
  0
LINE
  5
15658
  8
0
 10
31.338078416883938
 20
162.00000113248831
 30
0.0
 11
34.131409116089337
 21
162.00000113248831
 31
0.0
  0
LINE
  5
15659
  8
0
 10
70.499999895691872
 20
135.00000043213379
 30
0.0
 11
20.499999150633808
 21
135.00000043213379
 31
0.0
  0
LINE
  5
1565D
  8
0
 10
20.499999150633929
 20
140.00000032037499
 30
0.0
 11
70.499999895691872
 21
140.00000032037499
 31
0.0
  0
LINE
  5
1565F
  8
0
 10
61.500000283122063
 20
143.1000006422401
 30
0.0
 11
55.656958818435662
 21
143.1000006422401
 31
0.0
  0
LINE
  5
15660
  8
0
 10
35.343040227890008
 20
143.1000006422401
 30
0.0
 11
29.499998763203621
 21
143.1000006422401
 31
0.0
  0
POLYLINE
  5
15661
  8
0
 10
35.343040614678984
 20
143.10000043213378
 30
0.0
 66
     1
 70
     8
  0
VERTEX
  8
0
  5
162A4
 10
35.3430
 20
143.100
 30
0.000000
  70
    32
  0
VERTEX
  8
0
  5
162A5
 10
35.4765
 20
143.037
 30
0.000000
  70
    32
  0
VERTEX
  8
0
  5
162A6
 10
35.6111
 20
142.976
 30
0.000000
  70
    32
  0
VERTEX
  8
0
  5
162A7
 10
35.7468
 20
142.915
 30
0.000000
  70
    32
  0
VERTEX
  8
0
  5
162A8
 10
35.8837
 20
142.855
 30
0.000000
  70
    32
  0
VERTEX
  8
0
  5
162A9
 10
36.0216
 20
142.795
 30
0.000000
  70
    32
  0
VERTEX
  8
0
  5
162AA
 10
36.1607
 20
142.737
 30
0.000000
  70
    32
  0
VERTEX
  8
0
  5
162AB
 10
36.3009
 20
142.679
 30
0.000000
  70
    32
  0
VERTEX
  8
0
  5
162AC
 10
36.4421
 20
142.623
 30
0.000000
  70
    32
  0
VERTEX
  8
0
  5
162AD
 10
36.5843
 20
142.567
 30
0.000000
  70
    32
  0
VERTEX
  8
0
  5
162AE
 10
36.7276
 20
142.512
 30
0.000000
  70
    32
  0
VERTEX
  8
0
  5
162AF
 10
36.8719
 20
142.458
 30
0.000000
  70
    32
  0
VERTEX
  8
0
  5
162B0
 10
37.0172
 20
142.405
 30
0.000000
  70
    32
  0
VERTEX
  8
0
  5
162B1
 10
37.1635
 20
142.353
 30
0.000000
  70
    32
  0
VERTEX
  8
0
  5
162B2
 10
37.3107
 20
142.302
 30
0.000000
  70
    32
  0
VERTEX
  8
0
  5
162B3
 10
37.4589
 20
142.251
 30
0.000000
  70
    32
  0
VERTEX
  8
0
  5
162B4
 10
37.6080
 20
142.202
 30
0.000000
  70
    32
  0
VERTEX
  8
0
  5
162B5
 10
37.7580
 20
142.153
 30
0.000000
  70
    32
  0
VERTEX
  8
0
  5
162B6
 10
37.9089
 20
142.106
 30
0.000000
  70
    32
  0
VERTEX
  8
0
  5
162B7
 10
38.0607
 20
142.059
 30
0.000000
  70
    32
  0
VERTEX
  8
0
  5
162B8
 10
38.2134
 20
142.014
 30
0.000000
  70
    32
  0
VERTEX
  8
0
  5
162B9
 10
38.3669
 20
141.969
 30
0.000000
  70
    32
  0
VERTEX
  8
0
  5
162BA
 10
38.5212
 20
141.925
 30
0.000000
  70
    32
  0
VERTEX
  8
0
  5
162BB
 10
38.6763
 20
141.882
 30
0.000000
  70
    32
  0
VERTEX
  8
0
  5
162BC
 10
38.8322
 20
141.840
 30
0.000000
  70
    32
  0
VERTEX
  8
0
  5
162BD
 10
38.9889
 20
141.799
 30
0.000000
  70
    32
  0
VERTEX
  8
0
  5
162BE
 10
39.1463
 20
141.760
 30
0.000000
  70
    32
  0
VERTEX
  8
0
  5
162BF
 10
39.3045
 20
141.721
 30
0.000000
  70
    32
  0
VERTEX
  8
0
  5
162C0
 10
39.4634
 20
141.683
 30
0.000000
  70
    32
  0
VERTEX
  8
0
  5
162C1
 10
39.6230
 20
141.646
 30
0.000000
  70
    32
  0
VERTEX
  8
0
  5
162C2
 10
39.7832
 20
141.610
 30
0.000000
  70
    32
  0
VERTEX
  8
0
  5
162C3
 10
39.9441
 20
141.575
 30
0.000000
  70
    32
  0
VERTEX
  8
0
  5
162C4
 10
40.1057
 20
141.541
 30
0.000000
  70
    32
  0
VERTEX
  8
0
  5
162C5
 10
40.2679
 20
141.508
 30
0.000000
  70
    32
  0
VERTEX
  8
0
  5
162C6
 10
40.4307
 20
141.476
 30
0.000000
  70
    32
  0
VERTEX
  8
0
  5
162C7
 10
40.5940
 20
141.445
 30
0.000000
  70
    32
  0
VERTEX
  8
0
  5
162C8
 10
40.7580
 20
141.415
 30
0.000000
  70
    32
  0
VERTEX
  8
0
  5
162C9
 10
40.9225
 20
141.386
 30
0.000000
  70
    32
  0
VERTEX
  8
0
  5
162CA
 10
41.0875
 20
141.358
 30
0.000000
  70
    32
  0
VERTEX
  8
0
  5
162CB
 10
41.2530
 20
141.331
 30
0.000000
  70
    32
  0
VERTEX
  8
0
  5
162CC
 10
41.4190
 20
141.306
 30
0.000000
  70
    32
  0
VERTEX
  8
0
  5
162CD
 10
41.5855
 20
141.281
 30
0.000000
  70
    32
  0
VERTEX
  8
0
  5
162CE
 10
41.7524
 20
141.257
 30
0.000000
  70
    32
  0
VERTEX
  8
0
  5
162CF
 10
41.9198
 20
141.234
 30
0.000000
  70
    32
  0
VERTEX
  8
0
  5
162D0
 10
42.0876
 20
141.213
 30
0.000000
  70
    32
  0
VERTEX
  8
0
  5
162D1
 10
42.2558
 20
141.192
 30
0.000000
  70
    32
  0
VERTEX
  8
0
  5
162D2
 10
42.4243
 20
141.172
 30
0.000000
  70
    32
  0
VERTEX
  8
0
  5
162D3
 10
42.5932
 20
141.154
 30
0.000000
  70
    32
  0
VERTEX
  8
0
  5
162D4
 10
42.7625
 20
141.136
 30
0.000000
  70
    32
  0
VERTEX
  8
0
  5
162D5
 10
42.9320
 20
141.120
 30
0.000000
  70
    32
  0
VERTEX
  8
0
  5
162D6
 10
43.1019
 20
141.104
 30
0.000000
  70
    32
  0
VERTEX
  8
0
  5
162D7
 10
43.2720
 20
141.090
 30
0.000000
  70
    32
  0
VERTEX
  8
0
  5
162D8
 10
43.4424
 20
141.077
 30
0.000000
  70
    32
  0
VERTEX
  8
0
  5
162D9
 10
43.6131
 20
141.064
 30
0.000000
  70
    32
  0
VERTEX
  8
0
  5
162DA
 10
43.7839
 20
141.053
 30
0.000000
  70
    32
  0
VERTEX
  8
0
  5
162DB
 10
43.9549
 20
141.043
 30
0.000000
  70
    32
  0
VERTEX
  8
0
  5
162DC
 10
44.1262
 20
141.034
 30
0.000000
  70
    32
  0
VERTEX
  8
0
  5
162DD
 10
44.2975
 20
141.026
 30
0.000000
  70
    32
  0
VERTEX
  8
0
  5
162DE
 10
44.4691
 20
141.019
 30
0.000000
  70
    32
  0
VERTEX
  8
0
  5
162DF
 10
44.6407
 20
141.013
 30
0.000000
  70
    32
  0
VERTEX
  8
0
  5
162E0
 10
44.8124
 20
141.009
 30
0.000000
  70
    32
  0
VERTEX
  8
0
  5
162E1
 10
44.9843
 20
141.005
 30
0.000000
  70
    32
  0
VERTEX
  8
0
  5
162E2
 10
45.1561
 20
141.002
 30
0.000000
  70
    32
  0
VERTEX
  8
0
  5
162E3
 10
45.3281
 20
141.001
 30
0.000000
  70
    32
  0
VERTEX
  8
0
  5
162E4
 10
45.5000
 20
141.000
 30
0.000000
  70
    32
  0
VERTEX
  8
0
  5
162E5
 10
45.6719
 20
141.001
 30
0.000000
  70
    32
  0
VERTEX
  8
0
  5
162E6
 10
45.8439
 20
141.002
 30
0.000000
  70
    32
  0
VERTEX
  8
0
  5
162E7
 10
46.0157
 20
141.005
 30
0.000000
  70
    32
  0
VERTEX
  8
0
  5
162E8
 10
46.1876
 20
141.009
 30
0.000000
  70
    32
  0
VERTEX
  8
0
  5
162E9
 10
46.3593
 20
141.013
 30
0.000000
  70
    32
  0
VERTEX
  8
0
  5
162EA
 10
46.5309
 20
141.019
 30
0.000000
  70
    32
  0
VERTEX
  8
0
  5
162EB
 10
46.7024
 20
141.026
 30
0.000000
  70
    32
  0
VERTEX
  8
0
  5
162EC
 10
46.8738
 20
141.034
 30
0.000000
  70
    32
  0
VERTEX
  8
0
  5
162ED
 10
47.0451
 20
141.043
 30
0.000000
  70
    32
  0
VERTEX
  8
0
  5
162EE
 10
47.2161
 20
141.053
 30
0.000000
  70
    32
  0
VERTEX
  8
0
  5
162EF
 10
47.3869
 20
141.064
 30
0.000000
  70
    32
  0
VERTEX
  8
0
  5
162F0
 10
47.5576
 20
141.077
 30
0.000000
  70
    32
  0
VERTEX
  8
0
  5
162F1
 10
47.7280
 20
141.090
 30
0.000000
  70
    32
  0
VERTEX
  8
0
  5
162F2
 10
47.8981
 20
141.104
 30
0.000000
  70
    32
  0
VERTEX
  8
0
  5
162F3
 10
48.0680
 20
141.120
 30
0.000000
  70
    32
  0
VERTEX
  8
0
  5
162F4
 10
48.2375
 20
141.136
 30
0.000000
  70
    32
  0
VERTEX
  8
0
  5
162F5
 10
48.4068
 20
141.154
 30
0.000000
  70
    32
  0
VERTEX
  8
0
  5
162F6
 10
48.5757
 20
141.172
 30
0.000000
  70
    32
  0
VERTEX
  8
0
  5
162F7
 10
48.7442
 20
141.192
 30
0.000000
  70
    32
  0
VERTEX
  8
0
  5
162F8
 10
48.9124
 20
141.213
 30
0.000000
  70
    32
  0
VERTEX
  8
0
  5
162F9
 10
49.0802
 20
141.234
 30
0.000000
  70
    32
  0
VERTEX
  8
0
  5
162FA
 10
49.2476
 20
141.257
 30
0.000000
  70
    32
  0
VERTEX
  8
0
  5
162FB
 10
49.4145
 20
141.281
 30
0.000000
  70
    32
  0
VERTEX
  8
0
  5
162FC
 10
49.5810
 20
141.306
 30
0.000000
  70
    32
  0
VERTEX
  8
0
  5
162FD
 10
49.7470
 20
141.331
 30
0.000000
  70
    32
  0
VERTEX
  8
0
  5
162FE
 10
49.9125
 20
141.358
 30
0.000000
  70
    32
  0
VERTEX
  8
0
  5
162FF
 10
50.0775
 20
141.386
 30
0.000000
  70
    32
  0
VERTEX
  8
0
  5
16300
 10
50.2420
 20
141.415
 30
0.000000
  70
    32
  0
VERTEX
  8
0
  5
16301
 10
50.4060
 20
141.445
 30
0.000000
  70
    32
  0
VERTEX
  8
0
  5
16302
 10
50.5693
 20
141.476
 30
0.000000
  70
    32
  0
VERTEX
  8
0
  5
16303
 10
50.7321
 20
141.508
 30
0.000000
  70
    32
  0
VERTEX
  8
0
  5
16304
 10
50.8943
 20
141.541
 30
0.000000
  70
    32
  0
VERTEX
  8
0
  5
16305
 10
51.0559
 20
141.575
 30
0.000000
  70
    32
  0
VERTEX
  8
0
  5
16306
 10
51.2168
 20
141.610
 30
0.000000
  70
    32
  0
VERTEX
  8
0
  5
16307
 10
51.3770
 20
141.646
 30
0.000000
  70
    32
  0
VERTEX
  8
0
  5
16308
 10
51.5366
 20
141.683
 30
0.000000
  70
    32
  0
VERTEX
  8
0
  5
16309
 10
51.6955
 20
141.721
 30
0.000000
  70
    32
  0
VERTEX
  8
0
  5
1630A
 10
51.8537
 20
141.760
 30
0.000000
  70
    32
  0
VERTEX
  8
0
  5
1630B
 10
52.0111
 20
141.799
 30
0.000000
  70
    32
  0
VERTEX
  8
0
  5
1630C
 10
52.1678
 20
141.840
 30
0.000000
  70
    32
  0
VERTEX
  8
0
  5
1630D
 10
52.3237
 20
141.882
 30
0.000000
  70
    32
  0
VERTEX
  8
0
  5
1630E
 10
52.4788
 20
141.925
 30
0.000000
  70
    32
  0
VERTEX
  8
0
  5
1630F
 10
52.6331
 20
141.969
 30
0.000000
  70
    32
  0
VERTEX
  8
0
  5
16310
 10
52.7866
 20
142.014
 30
0.000000
  70
    32
  0
VERTEX
  8
0
  5
16311
 10
52.9393
 20
142.059
 30
0.000000
  70
    32
  0
VERTEX
  8
0
  5
16312
 10
53.0911
 20
142.106
 30
0.000000
  70
    32
  0
VERTEX
  8
0
  5
16313
 10
53.2420
 20
142.153
 30
0.000000
  70
    32
  0
VERTEX
  8
0
  5
16314
 10
53.3920
 20
142.202
 30
0.000000
  70
    32
  0
VERTEX
  8
0
  5
16315
 10
53.5411
 20
142.251
 30
0.000000
  70
    32
  0
VERTEX
  8
0
  5
16316
 10
53.6893
 20
142.302
 30
0.000000
  70
    32
  0
VERTEX
  8
0
  5
16317
 10
53.8365
 20
142.353
 30
0.000000
  70
    32
  0
VERTEX
  8
0
  5
16318
 10
53.9828
 20
142.405
 30
0.000000
  70
    32
  0
VERTEX
  8
0
  5
16319
 10
54.1281
 20
142.458
 30
0.000000
  70
    32
  0
VERTEX
  8
0
  5
1631A
 10
54.2724
 20
142.512
 30
0.000000
  70
    32
  0
VERTEX
  8
0
  5
1631B
 10
54.4157
 20
142.567
 30
0.000000
  70
    32
  0
VERTEX
  8
0
  5
1631C
 10
54.5579
 20
142.623
 30
0.000000
  70
    32
  0
VERTEX
  8
0
  5
1631D
 10
54.6991
 20
142.679
 30
0.000000
  70
    32
  0
VERTEX
  8
0
  5
1631E
 10
54.8393
 20
142.737
 30
0.000000
  70
    32
  0
VERTEX
  8
0
  5
1631F
 10
54.9784
 20
142.795
 30
0.000000
  70
    32
  0
VERTEX
  8
0
  5
16320
 10
55.1163
 20
142.855
 30
0.000000
  70
    32
  0
VERTEX
  8
0
  5
16321
 10
55.2532
 20
142.915
 30
0.000000
  70
    32
  0
VERTEX
  8
0
  5
16322
 10
55.3889
 20
142.976
 30
0.000000
  70
    32
  0
VERTEX
  8
0
  5
16323
 10
55.5235
 20
143.037
 30
0.000000
  70
    32
  0
VERTEX
  8
0
  5
16324
 10
55.6570
 20
143.100
 30
0.000000
  70
    32
  0
SEQEND
  8
0
  5
16325
  0
LINE
  5
15666
  8
0
 10
61.42953269183635
 20
165.99999992549431
 30
0.0
 11
29.57046635448933
 21
165.99999992549431
 31
0.0
  0
LINE
  5
15667
  8
0
 10
61.42953269183635
 20
162.8999996036292
 30
0.0
 11
61.42953269183635
 21
165.99999992549431
 31
0.0
  0
LINE
  5
15668
  8
0
 10
61.42953269183635
 20
162.8999996036292
 30
0.0
 11
55.656958818435662
 21
162.8999996036292
 31
0.0
  0
POLYLINE
  5
15669
  8
0
 10
55.656958431646537
 20
162.90000043213385
 30
0.0
 66
     1
 70
     8
  0
VERTEX
  8
0
  5
16326
 10
55.6570
 20
162.900
 30
0.000000
  70
    32
  0
VERTEX
  8
0
  5
16327
 10
55.5235
 20
162.963
 30
0.000000
  70
    32
  0
VERTEX
  8
0
  5
16328
 10
55.3889
 20
163.024
 30
0.000000
  70
    32
  0
VERTEX
  8
0
  5
16329
 10
55.2532
 20
163.085
 30
0.000000
  70
    32
  0
VERTEX
  8
0
  5
1632A
 10
55.1163
 20
163.145
 30
0.000000
  70
    32
  0
VERTEX
  8
0
  5
1632B
 10
54.9784
 20
163.205
 30
0.000000
  70
    32
  0
VERTEX
  8
0
  5
1632C
 10
54.8393
 20
163.263
 30
0.000000
  70
    32
  0
VERTEX
  8
0
  5
1632D
 10
54.6991
 20
163.321
 30
0.000000
  70
    32
  0
VERTEX
  8
0
  5
1632E
 10
54.5579
 20
163.377
 30
0.000000
  70
    32
  0
VERTEX
  8
0
  5
1632F
 10
54.4157
 20
163.433
 30
0.000000
  70
    32
  0
VERTEX
  8
0
  5
16330
 10
54.2724
 20
163.488
 30
0.000000
  70
    32
  0
VERTEX
  8
0
  5
16331
 10
54.1281
 20
163.542
 30
0.000000
  70
    32
  0
VERTEX
  8
0
  5
16332
 10
53.9828
 20
163.595
 30
0.000000
  70
    32
  0
VERTEX
  8
0
  5
16333
 10
53.8365
 20
163.647
 30
0.000000
  70
    32
  0
VERTEX
  8
0
  5
16334
 10
53.6893
 20
163.698
 30
0.000000
  70
    32
  0
VERTEX
  8
0
  5
16335
 10
53.5411
 20
163.749
 30
0.000000
  70
    32
  0
VERTEX
  8
0
  5
16336
 10
53.3920
 20
163.798
 30
0.000000
  70
    32
  0
VERTEX
  8
0
  5
16337
 10
53.2420
 20
163.847
 30
0.000000
  70
    32
  0
VERTEX
  8
0
  5
16338
 10
53.0911
 20
163.894
 30
0.000000
  70
    32
  0
VERTEX
  8
0
  5
16339
 10
52.9393
 20
163.941
 30
0.000000
  70
    32
  0
VERTEX
  8
0
  5
1633A
 10
52.7866
 20
163.986
 30
0.000000
  70
    32
  0
VERTEX
  8
0
  5
1633B
 10
52.6331
 20
164.031
 30
0.000000
  70
    32
  0
VERTEX
  8
0
  5
1633C
 10
52.4788
 20
164.075
 30
0.000000
  70
    32
  0
VERTEX
  8
0
  5
1633D
 10
52.3237
 20
164.118
 30
0.000000
  70
    32
  0
VERTEX
  8
0
  5
1633E
 10
52.1678
 20
164.160
 30
0.000000
  70
    32
  0
VERTEX
  8
0
  5
1633F
 10
52.0111
 20
164.201
 30
0.000000
  70
    32
  0
VERTEX
  8
0
  5
16340
 10
51.8537
 20
164.240
 30
0.000000
  70
    32
  0
VERTEX
  8
0
  5
16341
 10
51.6955
 20
164.279
 30
0.000000
  70
    32
  0
VERTEX
  8
0
  5
16342
 10
51.5366
 20
164.317
 30
0.000000
  70
    32
  0
VERTEX
  8
0
  5
16343
 10
51.3770
 20
164.354
 30
0.000000
  70
    32
  0
VERTEX
  8
0
  5
16344
 10
51.2168
 20
164.390
 30
0.000000
  70
    32
  0
VERTEX
  8
0
  5
16345
 10
51.0559
 20
164.425
 30
0.000000
  70
    32
  0
VERTEX
  8
0
  5
16346
 10
50.8943
 20
164.459
 30
0.000000
  70
    32
  0
VERTEX
  8
0
  5
16347
 10
50.7321
 20
164.492
 30
0.000000
  70
    32
  0
VERTEX
  8
0
  5
16348
 10
50.5693
 20
164.524
 30
0.000000
  70
    32
  0
VERTEX
  8
0
  5
16349
 10
50.4060
 20
164.555
 30
0.000000
  70
    32
  0
VERTEX
  8
0
  5
1634A
 10
50.2420
 20
164.585
 30
0.000000
  70
    32
  0
VERTEX
  8
0
  5
1634B
 10
50.0775
 20
164.614
 30
0.000000
  70
    32
  0
VERTEX
  8
0
  5
1634C
 10
49.9125
 20
164.642
 30
0.000000
  70
    32
  0
VERTEX
  8
0
  5
1634D
 10
49.7470
 20
164.669
 30
0.000000
  70
    32
  0
VERTEX
  8
0
  5
1634E
 10
49.5810
 20
164.694
 30
0.000000
  70
    32
  0
VERTEX
  8
0
  5
1634F
 10
49.4145
 20
164.719
 30
0.000000
  70
    32
  0
VERTEX
  8
0
  5
16350
 10
49.2476
 20
164.743
 30
0.000000
  70
    32
  0
VERTEX
  8
0
  5
16351
 10
49.0802
 20
164.766
 30
0.000000
  70
    32
  0
VERTEX
  8
0
  5
16352
 10
48.9124
 20
164.787
 30
0.000000
  70
    32
  0
VERTEX
  8
0
  5
16353
 10
48.7442
 20
164.808
 30
0.000000
  70
    32
  0
VERTEX
  8
0
  5
16354
 10
48.5757
 20
164.828
 30
0.000000
  70
    32
  0
VERTEX
  8
0
  5
16355
 10
48.4068
 20
164.846
 30
0.000000
  70
    32
  0
VERTEX
  8
0
  5
16356
 10
48.2375
 20
164.864
 30
0.000000
  70
    32
  0
VERTEX
  8
0
  5
16357
 10
48.0680
 20
164.880
 30
0.000000
  70
    32
  0
VERTEX
  8
0
  5
16358
 10
47.8981
 20
164.896
 30
0.000000
  70
    32
  0
VERTEX
  8
0
  5
16359
 10
47.7280
 20
164.910
 30
0.000000
  70
    32
  0
VERTEX
  8
0
  5
1635A
 10
47.5576
 20
164.923
 30
0.000000
  70
    32
  0
VERTEX
  8
0
  5
1635B
 10
47.3869
 20
164.936
 30
0.000000
  70
    32
  0
VERTEX
  8
0
  5
1635C
 10
47.2161
 20
164.947
 30
0.000000
  70
    32
  0
VERTEX
  8
0
  5
1635D
 10
47.0451
 20
164.957
 30
0.000000
  70
    32
  0
VERTEX
  8
0
  5
1635E
 10
46.8738
 20
164.966
 30
0.000000
  70
    32
  0
VERTEX
  8
0
  5
1635F
 10
46.7024
 20
164.974
 30
0.000000
  70
    32
  0
VERTEX
  8
0
  5
16360
 10
46.5309
 20
164.981
 30
0.000000
  70
    32
  0
VERTEX
  8
0
  5
16361
 10
46.3593
 20
164.987
 30
0.000000
  70
    32
  0
VERTEX
  8
0
  5
16362
 10
46.1876
 20
164.991
 30
0.000000
  70
    32
  0
VERTEX
  8
0
  5
16363
 10
46.0157
 20
164.995
 30
0.000000
  70
    32
  0
VERTEX
  8
0
  5
16364
 10
45.8439
 20
164.998
 30
0.000000
  70
    32
  0
VERTEX
  8
0
  5
16365
 10
45.6719
 20
164.999
 30
0.000000
  70
    32
  0
VERTEX
  8
0
  5
16366
 10
45.5000
 20
165.000
 30
0.000000
  70
    32
  0
VERTEX
  8
0
  5
16367
 10
45.3281
 20
164.999
 30
0.000000
  70
    32
  0
VERTEX
  8
0
  5
16368
 10
45.1561
 20
164.998
 30
0.000000
  70
    32
  0
VERTEX
  8
0
  5
16369
 10
44.9843
 20
164.995
 30
0.000000
  70
    32
  0
VERTEX
  8
0
  5
1636A
 10
44.8124
 20
164.991
 30
0.000000
  70
    32
  0
VERTEX
  8
0
  5
1636B
 10
44.6407
 20
164.987
 30
0.000000
  70
    32
  0
VERTEX
  8
0
  5
1636C
 10
44.4691
 20
164.981
 30
0.000000
  70
    32
  0
VERTEX
  8
0
  5
1636D
 10
44.2975
 20
164.974
 30
0.000000
  70
    32
  0
VERTEX
  8
0
  5
1636E
 10
44.1262
 20
164.966
 30
0.000000
  70
    32
  0
VERTEX
  8
0
  5
1636F
 10
43.9549
 20
164.957
 30
0.000000
  70
    32
  0
VERTEX
  8
0
  5
16370
 10
43.7839
 20
164.947
 30
0.000000
  70
    32
  0
VERTEX
  8
0
  5
16371
 10
43.6131
 20
164.936
 30
0.000000
  70
    32
  0
VERTEX
  8
0
  5
16372
 10
43.4424
 20
164.923
 30
0.000000
  70
    32
  0
VERTEX
  8
0
  5
16373
 10
43.2720
 20
164.910
 30
0.000000
  70
    32
  0
VERTEX
  8
0
  5
16374
 10
43.1019
 20
164.896
 30
0.000000
  70
    32
  0
VERTEX
  8
0
  5
16375
 10
42.9320
 20
164.880
 30
0.000000
  70
    32
  0
VERTEX
  8
0
  5
16376
 10
42.7625
 20
164.864
 30
0.000000
  70
    32
  0
VERTEX
  8
0
  5
16377
 10
42.5932
 20
164.846
 30
0.000000
  70
    32
  0
VERTEX
  8
0
  5
16378
 10
42.4243
 20
164.828
 30
0.000000
  70
    32
  0
VERTEX
  8
0
  5
16379
 10
42.2558
 20
164.808
 30
0.000000
  70
    32
  0
VERTEX
  8
0
  5
1637A
 10
42.0876
 20
164.787
 30
0.000000
  70
    32
  0
VERTEX
  8
0
  5
1637B
 10
41.9198
 20
164.766
 30
0.000000
  70
    32
  0
VERTEX
  8
0
  5
1637C
 10
41.7524
 20
164.743
 30
0.000000
  70
    32
  0
VERTEX
  8
0
  5
1637D
 10
41.5855
 20
164.719
 30
0.000000
  70
    32
  0
VERTEX
  8
0
  5
1637E
 10
41.4190
 20
164.694
 30
0.000000
  70
    32
  0
VERTEX
  8
0
  5
1637F
 10
41.2530
 20
164.669
 30
0.000000
  70
    32
  0
VERTEX
  8
0
  5
16380
 10
41.0875
 20
164.642
 30
0.000000
  70
    32
  0
VERTEX
  8
0
  5
16381
 10
40.9225
 20
164.614
 30
0.000000
  70
    32
  0
VERTEX
  8
0
  5
16382
 10
40.7580
 20
164.585
 30
0.000000
  70
    32
  0
VERTEX
  8
0
  5
16383
 10
40.5940
 20
164.555
 30
0.000000
  70
    32
  0
VERTEX
  8
0
  5
16384
 10
40.4307
 20
164.524
 30
0.000000
  70
    32
  0
VERTEX
  8
0
  5
16385
 10
40.2679
 20
164.492
 30
0.000000
  70
    32
  0
VERTEX
  8
0
  5
16386
 10
40.1057
 20
164.459
 30
0.000000
  70
    32
  0
VERTEX
  8
0
  5
16387
 10
39.9441
 20
164.425
 30
0.000000
  70
    32
  0
VERTEX
  8
0
  5
16388
 10
39.7832
 20
164.390
 30
0.000000
  70
    32
  0
VERTEX
  8
0
  5
16389
 10
39.6230
 20
164.354
 30
0.000000
  70
    32
  0
VERTEX
  8
0
  5
1638A
 10
39.4634
 20
164.317
 30
0.000000
  70
    32
  0
VERTEX
  8
0
  5
1638B
 10
39.3045
 20
164.279
 30
0.000000
  70
    32
  0
VERTEX
  8
0
  5
1638C
 10
39.1463
 20
164.240
 30
0.000000
  70
    32
  0
VERTEX
  8
0
  5
1638D
 10
38.9889
 20
164.201
 30
0.000000
  70
    32
  0
VERTEX
  8
0
  5
1638E
 10
38.8322
 20
164.160
 30
0.000000
  70
    32
  0
VERTEX
  8
0
  5
1638F
 10
38.6763
 20
164.118
 30
0.000000
  70
    32
  0
VERTEX
  8
0
  5
16390
 10
38.5212
 20
164.075
 30
0.000000
  70
    32
  0
VERTEX
  8
0
  5
16391
 10
38.3669
 20
164.031
 30
0.000000
  70
    32
  0
VERTEX
  8
0
  5
16392
 10
38.2134
 20
163.986
 30
0.000000
  70
    32
  0
VERTEX
  8
0
  5
16393
 10
38.0607
 20
163.941
 30
0.000000
  70
    32
  0
VERTEX
  8
0
  5
16394
 10
37.9089
 20
163.894
 30
0.000000
  70
    32
  0
VERTEX
  8
0
  5
16395
 10
37.7580
 20
163.847
 30
0.000000
  70
    32
  0
VERTEX
  8
0
  5
16396
 10
37.6080
 20
163.798
 30
0.000000
  70
    32
  0
VERTEX
  8
0
  5
16397
 10
37.4589
 20
163.749
 30
0.000000
  70
    32
  0
VERTEX
  8
0
  5
16398
 10
37.3107
 20
163.698
 30
0.000000
  70
    32
  0
VERTEX
  8
0
  5
16399
 10
37.1635
 20
163.647
 30
0.000000
  70
    32
  0
VERTEX
  8
0
  5
1639A
 10
37.0172
 20
163.595
 30
0.000000
  70
    32
  0
VERTEX
  8
0
  5
1639B
 10
36.8719
 20
163.542
 30
0.000000
  70
    32
  0
VERTEX
  8
0
  5
1639C
 10
36.7276
 20
163.488
 30
0.000000
  70
    32
  0
VERTEX
  8
0
  5
1639D
 10
36.5843
 20
163.433
 30
0.000000
  70
    32
  0
VERTEX
  8
0
  5
1639E
 10
36.4421
 20
163.377
 30
0.000000
  70
    32
  0
VERTEX
  8
0
  5
1639F
 10
36.3009
 20
163.321
 30
0.000000
  70
    32
  0
VERTEX
  8
0
  5
163A0
 10
36.1607
 20
163.263
 30
0.000000
  70
    32
  0
VERTEX
  8
0
  5
163A1
 10
36.0216
 20
163.205
 30
0.000000
  70
    32
  0
VERTEX
  8
0
  5
163A2
 10
35.8837
 20
163.145
 30
0.000000
  70
    32
  0
VERTEX
  8
0
  5
163A3
 10
35.7468
 20
163.085
 30
0.000000
  70
    32
  0
VERTEX
  8
0
  5
163A4
 10
35.6111
 20
163.024
 30
0.000000
  70
    32
  0
VERTEX
  8
0
  5
163A5
 10
35.4765
 20
162.963
 30
0.000000
  70
    32
  0
VERTEX
  8
0
  5
163A6
 10
35.3430
 20
162.900
 30
0.000000
  70
    32
  0
SEQEND
  8
0
  5
163A7
  0
LINE
  5
1566A
  8
0
 10
35.343040227890008
 20
162.8999996036292
 30
0.0
 11
29.57046635448933
 21
162.8999996036292
 31
0.0
  0
LINE
  5
1566B
  8
0
 10
29.57046635448933
 20
165.99999992549431
 30
0.0
 11
29.57046635448933
 21
162.8999996036292
 31
0.0
  0
LINE
  5
15670
  8
0
 10
29.788598865270611
 20
166.21715827286249
 30
0.0
 11
29.57046635448933
 21
165.99999992549431
 31
0.0
  0
LINE
  5
15672
  8
0
 10
61.42953269183635
 20
165.99999992549431
 30
0.0
 11
61.211400181055062
 21
166.21715827286249
 31
0.0
  0
LINE
  5
15673
  8
0
 10
61.42953269183635
 20
167.0000019520522
 30
0.0
 11
29.57046635448933
 21
167.0000019520522
 31
0.0
  0
LINE
  5
15674
  8
0
 10
61.211400181055062
 20
166.78284360468399
 30
0.0
 11
61.42953269183635
 21
167.0000019520522
 31
0.0
  0
LINE
  5
15676
  8
0
 10
29.57046635448933
 20
167.0000019520522
 30
0.0
 11
29.788598865270611
 21
166.78284360468399
 31
0.0
  0
LINE
  5
15677
  8
0
 10
29.57046635448933
 20
176.4999988526107
 30
0.0
 11
29.57046635448933
 21
167.0000019520522
 31
0.0
  0
LINE
  5
15679
  8
0
 10
61.42953269183635
 20
167.0000019520522
 30
0.0
 11
61.42953269183635
 21
176.4999988526107
 31
0.0
  0
LINE
  5
1567A
  8
0
 10
30.072750970721241
 20
176.99999986588961
 30
0.0
 11
60.927248075604432
 21
176.99999986588961
 31
0.0
  0
LINE
  5
1567B
  8
0
 10
60.927248075604432
 20
176.99999986588961
 30
0.0
 11
61.42953269183635
 21
176.4999988526107
 31
0.0
  0
LINE
  5
1567C
  8
0
 10
29.57046635448933
 20
176.4999988526107
 30
0.0
 11
30.072750970721241
 21
176.99999986588961
 31
0.0
  0
ARC
  5
1567D
  8
0
 10
29.507339732631749
 20
166.50000093877321
 30
0.0
 40
0.3988817786665852
 50
314.8391610608038
 51
45.160838939196111
  0
ARC
  5
1567E
  8
0
 10
61.492644458231318
 20
166.50000093877321
 30
0.0
 40
0.3988713039364231
 50
134.837647929074
 51
225.162352070926
  0
LINE
  5
15680
  8
0
 10
32.999999336898327
 20
123.0000003278256
 30
0.0
 11
57.99999970942735
 21
123.0000003278256
 31
0.0
  0
LINE
  5
15682
  8
0
 10
57.49999962747097
 20
133.50000041909519
 30
0.0
 11
33.499999418854827
 21
133.5000004190953
 31
0.0
  0
LINE
  5
15684
  8
0
 10
57.449999712407582
 20
121.0000000000001
 30
0.0
 11
33.549999333918088
 21
121.0000000000001
 31
0.0
  0
LINE
  5
15686
  8
0
 10
55.603445081198743
 20
143.50000089406981
 30
0.0
 11
60.278810076415532
 21
143.50000089406981
 31
0.0
  0
POLYLINE
  5
15687
  8
0
 66
     1
 10
0.0
 20
0.0
 30
0.0
 70
   128
  0
VERTEX
  5
16229
  8
0
 10
60.278810076415532
 20
143.50000089406981
 30
0.0
  0
VERTEX
  5
1622A
  8
0
 10
60.339484810829163
 20
143.52034749835741
 30
0.0
  0
VERTEX
  5
1622B
  8
0
 10
60.373913012444973
 20
143.62623608112341
 30
0.0
  0
VERTEX
  5
1622C
  8
0
 10
60.362625382840633
 20
143.72298466414219
 30
0.0
  0
VERTEX
  5
1622D
  8
0
 10
60.291288867592812
 20
143.9494888335467
 30
0.0
  0
VERTEX
  5
1622E
  8
0
 10
60.17149377614259
 20
144.21079280227431
 30
0.0
  0
VERTEX
  5
1622F
  8
0
 10
60.15152528882026
 20
144.24674744158989
 30
0.0
  0
SEQEND
  5
16230
  8
0
  0
ARC
  5
15688
  8
0
 10
155.55168133497929
 20
65.3226401032571
 30
0.0
 40
148.1159832414674
 50
147.69512147688829
 51
148.32427104326399
  0
POLYLINE
  5
15689
  8
0
 66
     1
 10
0.0
 20
0.0
 30
0.0
 70
   128
  0
VERTEX
  5
16231
  8
0
 10
30.85007656365633
 20
144.24698958545929
 30
0.0
  0
VERTEX
  5
16232
  8
0
 10
30.754210874438289
 20
144.05656485259539
 30
0.0
  0
VERTEX
  5
16233
  8
0
 10
30.667197406291962
 20
143.8346101939679
 30
0.0
  0
VERTEX
  5
16234
  8
0
 10
30.627806186676018
 20
143.66012225300079
 30
0.0
  0
VERTEX
  5
16235
  8
0
 10
30.64361538738012
 20
143.54145499318849
 30
0.0
  0
VERTEX
  5
16236
  8
0
 10
30.716026648879051
 20
143.50009961426269
 30
0.0
  0
VERTEX
  5
16237
  8
0
 10
30.721188969910141
 20
143.50000089406981
 30
0.0
  0
SEQEND
  5
16238
  8
0
  0
LINE
  5
1568A
  8
0
 10
30.721188969910141
 20
143.50000089406981
 30
0.0
 11
35.396553965126941
 21
143.50000089406981
 31
0.0
  0
LINE
  5
1568B
  8
0
 10
61.42953269183635
 20
162.8999996036292
 30
0.0
 11
60.629412978887551
 21
161.5205767601729
 31
0.0
  0
POLYLINE
  5
1568C
  8
0
 66
     1
 10
0.0
 20
0.0
 30
0.0
 70
   128
  0
VERTEX
  5
16239
  8
0
 10
60.149338543415062
 20
161.7553836703301
 30
0.0
  0
VERTEX
  5
1623A
  8
0
 10
60.227796882390969
 20
161.90422578156
 30
0.0
  0
VERTEX
  5
1623B
  8
0
 10
60.330897085368633
 20
162.15949384868151
 30
0.0
  0
VERTEX
  5
1623C
  8
0
 10
60.362914092838757
 20
162.27844609320169
 30
0.0
  0
VERTEX
  5
1623D
  8
0
 10
60.369964204728603
 20
162.4200630038977
 30
0.0
  0
VERTEX
  5
1623E
  8
0
 10
60.321467444300652
 20
162.49145074188721
 30
0.0
  0
VERTEX
  5
1623F
  8
0
 10
60.278810076415532
 20
162.50000028312209
 30
0.0
  0
SEQEND
  5
16240
  8
0
  0
LINE
  5
1568D
  8
0
 10
60.278810076415532
 20
162.50000028312209
 30
0.0
 11
55.603443475992087
 21
162.50000028312209
 31
0.0
  0
LINE
  5
1568E
  8
0
 10
30.370586067438129
 20
161.5205767601729
 30
0.0
 11
29.57046635448933
 21
162.8999996036292
 31
0.0
  0
LINE
  5
1568F
  8
0
 10
35.396555570333589
 20
162.50000028312209
 30
0.0
 11
30.721188969910141
 21
162.50000028312209
 31
0.0
  0
POLYLINE
  5
15690
  8
0
 66
     1
 10
0.0
 20
0.0
 30
0.0
 70
   128
  0
VERTEX
  5
16241
  8
0
 10
30.721188969910141
 20
162.50000028312209
 30
0.0
  0
VERTEX
  5
16242
  8
0
 10
30.717084631323811
 20
162.49993881583219
 30
0.0
  0
VERTEX
  5
16243
  8
0
 10
30.644071735441681
 20
162.45933873951441
 30
0.0
  0
VERTEX
  5
16244
  8
0
 10
30.627680458128449
 20
162.34125821292409
 30
0.0
  0
VERTEX
  5
16245
  8
0
 10
30.666621848940849
 20
162.16719029843819
 30
0.0
  0
VERTEX
  5
16246
  8
0
 10
30.75319480150938
 20
161.94569571316251
 30
0.0
  0
VERTEX
  5
16247
  8
0
 10
30.849397629499428
 20
161.7542511820794
 30
0.0
  0
SEQEND
  5
16248
  8
0
  0
ARC
  5
15692
  8
0
 10
30.023806020765619
 20
144.6885767536472
 30
0.0
 40
0.397331518315796
 50
328.23780807962999
 51
358.67991974664329
  0
ARC
  5
15693
  8
0
 10
30.026047163938529
 20
161.32055267835531
 30
0.0
 40
0.3983926321251471
 50
0.0035122450547718
 51
30.13755921093782
  0
ARC
  5
15694
  8
0
 10
60.974148199869653
 20
161.32049981612411
 30
0.0
 40
0.3985889563516575
 50
149.87003782150421
 51
179.98889072249921
  0
LINE
  5
15695
  8
0
 10
60.575559251010411
 20
161.3205770999194
 30
0.0
 11
60.575559251010411
 21
160.44499976933011
 31
0.0
  0
LINE
  5
15696
  8
0
 10
60.575559251010411
 20
159.3550003170968
 30
0.0
 11
60.575559251010411
 21
146.64500086009511
 31
0.0
  0
LINE
  5
15697
  8
0
 10
60.575559251010411
 20
145.55500047653919
 30
0.0
 11
60.575559251010411
 21
145.00000020861631
 31
0.0
  0
LINE
  5
15698
  8
0
 10
60.575559251010411
 20
145.00000020861631
 30
0.0
 11
60.578966960310929
 21
144.6794231459499
 31
0.0
  0
LINE
  5
15699
  8
0
 10
30.424439795315269
 20
145.00000020861631
 30
0.0
 11
30.424439795315269
 21
145.55500047653919
 31
0.0
  0
LINE
  5
1569A
  8
0
 10
30.424439795315269
 20
146.64500086009511
 30
0.0
 11
30.424439795315269
 21
159.3550003170968
 31
0.0
  0
LINE
  5
1569B
  8
0
 10
30.424439795315269
 20
160.44499976933011
 30
0.0
 11
30.424439795315269
 21
161.3205770999194
 31
0.0
  0
LINE
  5
1569C
  8
0
 10
30.421032086014751
 20
144.6794231459499
 30
0.0
 11
30.424439795315269
 21
145.00000020861631
 31
0.0
  0
LINE
  5
156A3
  8
0
 10
30.921744629737869
 20
146.67926887422971
 30
0.0
 11
30.983785847766399
 21
146.64500086009511
 31
0.0
  0
LINE
  5
156BF
  8
0
 10
60.578966960310929
 20
144.6794231459499
 30
0.0
 11
60.338857697193021
 21
144.6794231459499
 31
0.0
  0
LINE
  5
156C0
  8
0
 10
30.657797377278602
 20
144.6794231459499
 30
0.0
 11
30.421032086014751
 21
144.6794231459499
 31
0.0
  0
LINE
  5
156C1
  8
0
 10
30.66114128836114
 20
161.3205770999194
 30
0.0
 11
30.424439795315269
 21
161.3205770999194
 31
0.0
  0
LINE
  5
156C2
  8
0
 10
60.575559251010411
 20
161.3205770999194
 30
0.0
 11
60.33883878100869
 21
161.3205770999194
 31
0.0
  0
ARC
  5
156C3
  8
0
 10
249.5999976158142
 20
130.40000043213391
 30
0.0
 40
0.4000000000000341
 50
270.0
 51
0.0
  0
ARC
  5
156C4
  8
0
 10
245.39999761581419
 20
130.40000043213391
 30
0.0
 40
0.4000000000000341
 50
180.0
 51
270.0
  0
LINE
  5
156C5
  8
0
 10
244.99999767169359
 20
135.00000043213379
 30
0.0
 11
244.99999767169359
 21
130.40000033006081
 31
0.0
  0
LINE
  5
156C6
  8
0
 10
249.99999755993491
 20
130.40000033006081
 30
0.0
 11
249.99999755993491
 21
135.00000043213379
 31
0.0
  0
ARC
  5
156C7
  8
0
 10
264.28744206025863
 20
146.1000004321337
 30
0.0
 40
0.772555555555571
 50
315.1340181557531
 51
44.865981844253831
  0
ARC
  5
156C8
  8
0
 10
230.71255317136979
 20
146.1000004321337
 30
0.0
 40
0.772555555555571
 50
135.13401815574611
 51
224.8659818442469
  0
ARC
  5
156C9
  8
0
 10
264.28744206025868
 20
159.90000043213371
 30
0.0
 40
0.772555555555571
 50
315.13401815574622
 51
44.865981844246917
  0
ARC
  5
156CA
  8
0
 10
230.71255317136979
 20
159.90000043213371
 30
0.0
 40
0.772555555555571
 50
135.1340181557531
 51
224.86598184425611
  0
ARC
  5
156CB
  8
0
 10
247.49999761581421
 20
165.82058515086629
 30
0.0
 40
24.50077741029758
 50
243.68015138064979
 51
296.3198486193503
  0
ARC
  5
156CC
  8
0
 10
247.49999761581421
 20
140.1794277976189
 30
0.0
 40
24.500766024525991
 50
63.680138209794507
 51
116.31986179020549
  0
ARC
  5
156CD
  8
0
 10
258.87321509845992
 20
143.00273076983859
 30
0.0
 40
0.9972800090336331
 50
90.265835924265716
 51
120.7557143639586
  0
ARC
  5
156CE
  8
0
 10
258.86485094735718
 20
162.96715927679449
 30
0.0
 40
0.9671653642636979
 50
238.7557673496583
 51
270.22138839575638
  0
ARC
  5
156CF
  8
0
 10
236.13690988630299
 20
143.0368689048434
 30
0.0
 40
0.9628060031912973
 50
58.721269147652741
 51
90.296978841656951
  0
ARC
  5
156D0
  8
0
 10
236.12669745460369
 20
162.99758529431861
 30
0.0
 40
0.9975965034082051
 50
270.28500072499088
 51
300.7526017287625
  0
POLYLINE
  5
156D1
  8
0
 66
     1
 10
0.0
 20
0.0
 30
0.0
 70
   128
  0
VERTEX
  5
16249
  8
0
 10
232.62606270611289
 20
145.00000020861631
 30
0.0
  0
VERTEX
  5
1624A
  8
0
 10
232.6300310716033
 20
144.88289384543901
 30
0.0
  0
VERTEX
  5
1624B
  8
0
 10
232.65942454338071
 20
144.6674845218659
 30
0.0
  0
VERTEX
  5
1624C
  8
0
 10
232.72398103028539
 20
144.4553888440133
 30
0.0
  0
VERTEX
  5
1624D
  8
0
 10
232.81973961740729
 20
144.28043989837181
 30
0.0
  0
VERTEX
  5
1624E
  8
0
 10
232.9365898668766
 20
144.15158955752861
 30
0.0
  0
VERTEX
  5
1624F
  8
0
 10
233.08153998106721
 20
144.05754180997619
 30
0.0
  0
VERTEX
  5
16250
  8
0
 10
233.2467370480299
 20
144.0070259422065
 30
0.0
  0
VERTEX
  5
16251
  8
0
 10
233.33807650953531
 20
144.0000000447036
 30
0.0
  0
SEQEND
  5
16252
  8
0
  0
POLYLINE
  5
156D2
  8
0
 66
     1
 10
0.0
 20
0.0
 30
0.0
 70
   128
  0
VERTEX
  5
16253
  8
0
 10
262.37296581268311
 20
161.00012017786511
 30
0.0
  0
VERTEX
  5
16254
  8
0
 10
262.3616511747241
 20
161.20462743937981
 30
0.0
  0
VERTEX
  5
16255
  8
0
 10
262.31983851641422
 20
161.41713289916521
 30
0.0
  0
VERTEX
  5
16256
  8
0
 10
262.23428908735508
 20
161.63257388770589
 30
0.0
  0
VERTEX
  5
16257
  8
0
 10
262.13170483708382
 20
161.78087396919739
 30
0.0
  0
VERTEX
  5
16258
  8
0
 10
262.00185425579548
 20
161.89524596929559
 30
0.0
  0
VERTEX
  5
16259
  8
0
 10
261.84669684618711
 20
161.9707743674517
 30
0.0
  0
VERTEX
  5
1625A
  8
0
 10
261.67584199458361
 20
161.9998372197152
 30
0.0
  0
VERTEX
  5
1625B
  8
0
 10
261.66191872209311
 20
162.00000113248831
 30
0.0
  0
SEQEND
  5
1625C
  8
0
  0
POLYLINE
  5
156D3
  8
0
 66
     1
 10
0.0
 20
0.0
 30
0.0
 70
   128
  0
VERTEX
  5
1625D
  8
0
 10
261.66191872209311
 20
144.0000000447036
 30
0.0
  0
VERTEX
  5
1625E
  8
0
 10
261.75914414227009
 20
144.00795819610369
 30
0.0
  0
VERTEX
  5
1625F
  8
0
 10
261.92645065486431
 20
144.06132949888709
 30
0.0
  0
VERTEX
  5
16260
  8
0
 10
262.06374157220131
 20
144.1518922373653
 30
0.0
  0
VERTEX
  5
16261
  8
0
 10
262.1714723110199
 20
144.26830290257939
 30
0.0
  0
VERTEX
  5
16262
  8
0
 10
262.25802663713688
 20
144.41459970921289
 30
0.0
  0
VERTEX
  5
16263
  8
0
 10
262.32431352138519
 20
144.59916362911471
 30
0.0
  0
VERTEX
  5
16264
  8
0
 10
262.36469380557543
 20
144.8220244646073
 30
0.0
  0
VERTEX
  5
16265
  8
0
 10
262.37391762435442
 20
145.00000020861631
 30
0.0
  0
SEQEND
  5
16266
  8
0
  0
LINE
  5
156D6
  8
0
 10
232.9872919991613
 20
145.55500047653919
 30
0.0
 11
232.92174365371471
 21
145.5207315310837
 31
0.0
  0
LINE
  5
156D7
  8
0
 10
262.07825252742282
 20
145.52073242308299
 30
0.0
 11
262.01958104968071
 21
145.55500047653919
 31
0.0
  0
LINE
  5
156DA
  8
0
 10
232.9872919991613
 20
159.3550003170968
 30
0.0
 11
232.92174365371471
 21
159.32073137164119
 31
0.0
  0
LINE
  5
156DD
  8
0
 10
232.62606270611289
 20
145.06438440084469
 30
0.0
 11
232.62606270611289
 21
145.00000020861631
 31
0.0
  0
LINE
  5
156DE
  8
0
 10
262.37393252551561
 20
145.00000020861631
 30
0.0
 11
262.37393252551561
 21
145.06438440084469
 31
0.0
  0
ARC
  5
156DF
  8
0
 10
233.1260628726759
 20
145.06438467327331
 30
0.0
 40
0.5000000000000285
 50
114.1194514710498
 51
180.0
  0
ARC
  5
156E0
  8
0
 10
261.87393235895257
 20
145.06438467327331
 30
0.0
 40
0.5
 50
0.0
 51
65.8805485289502
  0
ARC
  5
156E2
  8
0
 10
233.1260628726759
 20
147.13561619099411
 30
0.0
 40
0.5000000000000285
 50
180.0
 51
245.88054852895019
  0
LINE
  5
156E3
  8
0
 10
232.62606270611289
 20
158.86438517272481
 30
0.0
 11
232.62606270611289
 21
147.1356160044671
 31
0.0
  0
ARC
  5
156E4
  8
0
 10
233.1260628726759
 20
158.86438467327329
 30
0.0
 40
0.5000000000000285
 50
114.1194514710498
 51
180.0
  0
LINE
  5
156E6
  8
0
 10
262.37393252551561
 20
160.7687183071491
 30
0.0
 11
262.37393252551561
 21
161.00000096857559
 31
0.0
  0
LINE
  5
156E9
  8
0
 10
221.9999980926514
 20
135.50000045588251
 30
0.0
 11
222.49999724328521
 21
135.00000043213379
 31
0.0
  0
LINE
  5
156EA
  8
0
 10
272.4999979883433
 20
135.00000043213379
 30
0.0
 11
272.99999713897711
 21
135.50000045588251
 31
0.0
  0
LINE
  5
156EB
  8
0
 10
272.99999713897711
 20
135.50000045588251
 30
0.0
 11
272.99999713897711
 21
139.50000023841869
 31
0.0
  0
LINE
  5
156EC
  8
0
 10
221.9999980926514
 20
139.50000023841869
 30
0.0
 11
221.9999980926514
 21
135.50000045588251
 31
0.0
  0
LINE
  5
156ED
  8
0
 10
272.99999713897711
 20
139.50000023841869
 30
0.0
 11
272.4999979883433
 21
140.00000032037499
 31
0.0
  0
LINE
  5
156EE
  8
0
 10
222.49999724328521
 20
140.00000032037499
 30
0.0
 11
221.9999980926514
 21
139.50000023841869
 31
0.0
  0
ARC
  5
156EF
  8
0
 10
263.89999761581419
 20
140.40000043213371
 30
0.0
 40
0.4000000000000057
 50
180.0
 51
270.0
  0
ARC
  5
156F0
  8
0
 10
231.09999761581429
 20
140.40000043213371
 30
0.0
 40
0.4000000000000057
 50
270.0
 51
0.0
  0
LINE
  5
156F1
  8
0
 10
263.49999837577337
 20
140.4000005722047
 30
0.0
 11
263.49999837577337
 21
143.1000006422401
 31
0.0
  0
LINE
  5
156F2
  8
0
 10
231.49999685585499
 20
143.1000006422401
 30
0.0
 11
231.49999685585499
 21
140.4000005722047
 31
0.0
  0
LINE
  5
156F3
  8
0
 10
259.99999780207872
 20
123.0000003278256
 30
0.0
 11
259.99999780207872
 21
133.00000033713891
 31
0.0
  0
LINE
  5
156F4
  8
0
 10
234.99999742954969
 20
133.00000033713891
 30
0.0
 11
234.99999742954969
 21
123.0000003278256
 31
0.0
  0
LINE
  5
156F5
  8
0
 10
259.99999780207872
 20
133.00000033713891
 30
0.0
 11
259.49999772012228
 21
133.50000041909519
 31
0.0
  0
LINE
  5
156F6
  8
0
 10
235.49999751150611
 20
133.50000041909519
 30
0.0
 11
234.99999742954969
 21
133.00000033713891
 31
0.0
  0
LINE
  5
156F7
  8
0
 10
235.0499973446131
 20
121.5000000819565
 30
0.0
 11
235.54999742656949
 21
121.0000000000001
 31
0.0
  0
LINE
  5
156F8
  8
0
 10
259.44999780505901
 20
121.0000000000001
 30
0.0
 11
259.9499978870154
 21
121.5000000819565
 31
0.0
  0
LINE
  5
156F9
  8
0
 10
235.0499973446131
 20
123.0000003278256
 30
0.0
 11
235.0499973446131
 21
121.5000000819565
 31
0.0
  0
LINE
  5
156FA
  8
0
 10
259.9499978870154
 20
121.5000000819565
 30
0.0
 11
259.9499978870154
 21
123.0000003278256
 31
0.0
  0
LINE
  5
156FD
  8
0
 10
259.49999772012228
 20
133.50000041909519
 30
0.0
 11
259.49999772012228
 21
135.00000043213379
 31
0.0
  0
LINE
  5
156FE
  8
0
 10
235.49999751150611
 20
135.00000043213379
 30
0.0
 11
235.49999751150611
 21
133.50000041909519
 31
0.0
  0
LINE
  5
156FF
  8
0
 10
249.600296625684
 20
130.0000005438925
 30
0.0
 11
245.3999976906926
 21
130.0000005438925
 31
0.0
  0
LINE
  5
15703
  8
0
 10
246.99999759206551
 20
130.0000005438925
 30
0.0
 11
246.99999759206551
 21
135.00000043213379
 31
0.0
  0
LINE
  5
15704
  8
0
 10
247.99999763956291
 20
130.0000005438925
 30
0.0
 11
247.99999763956291
 21
135.00000043213379
 31
0.0
  0
LINE
  5
15706
  8
0
 10
264.8349971324206
 20
146.64500086009511
 30
0.0
 11
230.16499809920791
 21
146.64500086009511
 31
0.0
  0
LINE
  5
15707
  8
0
 10
264.8349971324206
 20
145.55500047653919
 30
0.0
 11
230.16499809920791
 21
145.55500047653919
 31
0.0
  0
LINE
  5
15708
  8
0
 10
264.8349971324206
 20
160.44499976933011
 30
0.0
 11
230.16499809920791
 21
160.44499976933011
 31
0.0
  0
LINE
  5
15709
  8
0
 10
264.8349971324206
 20
159.3550003170968
 30
0.0
 11
230.16499809920791
 21
159.3550003170968
 31
0.0
  0
LINE
  5
1570A
  8
0
 10
246.05662189889699
 20
150.50000017881399
 30
0.0
 11
248.9433733327314
 21
150.50000017881399
 31
0.0
  0
LINE
  5
1570B
  8
0
 10
250.3867490496487
 20
152.99999965727341
 30
0.0
 11
248.9433733327314
 21
150.50000017881399
 31
0.0
  0
LINE
  5
1570C
  8
0
 10
250.3867490496487
 20
152.99999965727341
 30
0.0
 11
248.9433733327314
 21
155.50000099837791
 31
0.0
  0
LINE
  5
1570D
  8
0
 10
248.9433733327314
 20
155.50000099837791
 30
0.0
 11
246.05662189889699
 21
155.50000099837791
 31
0.0
  0
LINE
  5
1570E
  8
0
 10
244.6132461819798
 20
152.99999965727341
 30
0.0
 11
246.05662189889699
 21
155.50000099837791
 31
0.0
  0
LINE
  5
1570F
  8
0
 10
244.6132461819798
 20
152.99999965727341
 30
0.0
 11
246.05662189889699
 21
150.50000017881399
 31
0.0
  0
CIRCLE
  5
15710
  8
0
 10
247.49999761581421
 20
153.00000043213379
 30
0.0
 40
5.0
  0
CIRCLE
  5
15726
  8
0
 10
247.5039007298966
 20
153.0002865058668
 30
0.0
 40
5.4997145066127038
  0
POLYLINE
  5
15734
  8
0
 66
     1
 10
0.0
 20
0.0
 30
0.0
 70
   128
  0
VERTEX
  5
16267
  8
0
 10
262.07553025335068
 20
160.48534838855269
 30
0.0
  0
VERTEX
  5
16268
  8
0
 10
262.0787693932653
 20
160.48621265590199
 30
0.0
  0
VERTEX
  5
16269
  8
0
 10
262.33420602977282
 20
160.58624415099629
 30
0.0
  0
SEQEND
  5
1626A
  8
0
  0
ARC
  5
15737
  8
0
 10
261.95367322237189
 20
160.76465155784999
 30
0.0
 40
0.4202789791658229
 50
334.88113440038501
 51
0.5544203231616811
  0
LINE
  5
1573C
  8
0
 10
236.13140720874071
 20
144.0000000447036
 30
0.0
 11
233.33807650953531
 21
144.0000000447036
 31
0.0
  0
LINE
  5
1573F
  8
0
 10
261.66191872209311
 20
144.0000000447036
 30
0.0
 11
258.86858802288771
 21
144.0000000447036
 31
0.0
  0
LINE
  5
15740
  8
0
 10
233.33807650953531
 20
162.00000113248831
 30
0.0
 11
236.13140720874071
 21
162.00000113248831
 31
0.0
  0
LINE
  5
15742
  8
0
 10
258.86858802288771
 20
162.00000113248831
 30
0.0
 11
261.66191872209311
 21
162.00000113248831
 31
0.0
  0
LINE
  5
15744
  8
0
 10
272.49999798834352
 20
135.00000043213379
 30
0.0
 11
222.49999724328521
 21
135.00000043213379
 31
0.0
  0
LINE
  5
15749
  8
0
 10
222.49999724328521
 20
140.00000032037499
 30
0.0
 11
272.4999979883433
 21
140.00000032037499
 31
0.0
  0
LINE
  5
1574A
  8
0
 10
237.34303832054141
 20
143.1000006422401
 30
0.0
 11
231.49999685585499
 21
143.1000006422401
 31
0.0
  0
POLYLINE
  5
1574B
  8
0
 10
237.34303870733052
 20
143.1000004321337
 30
0.0
 66
     1
 70
     8
  0
VERTEX
  8
0
  5
163A8
 10
237.343
 20
143.100
 30
0.000000
  70
    32
  0
VERTEX
  8
0
  5
163A9
 10
237.476
 20
143.037
 30
0.000000
  70
    32
  0
VERTEX
  8
0
  5
163AA
 10
237.611
 20
142.976
 30
0.000000
  70
    32
  0
VERTEX
  8
0
  5
163AB
 10
237.747
 20
142.915
 30
0.000000
  70
    32
  0
VERTEX
  8
0
  5
163AC
 10
237.884
 20
142.855
 30
0.000000
  70
    32
  0
VERTEX
  8
0
  5
163AD
 10
238.022
 20
142.795
 30
0.000000
  70
    32
  0
VERTEX
  8
0
  5
163AE
 10
238.161
 20
142.737
 30
0.000000
  70
    32
  0
VERTEX
  8
0
  5
163AF
 10
238.301
 20
142.679
 30
0.000000
  70
    32
  0
VERTEX
  8
0
  5
163B0
 10
238.442
 20
142.623
 30
0.000000
  70
    32
  0
VERTEX
  8
0
  5
163B1
 10
238.584
 20
142.567
 30
0.000000
  70
    32
  0
VERTEX
  8
0
  5
163B2
 10
238.728
 20
142.512
 30
0.000000
  70
    32
  0
VERTEX
  8
0
  5
163B3
 10
238.872
 20
142.458
 30
0.000000
  70
    32
  0
VERTEX
  8
0
  5
163B4
 10
239.017
 20
142.405
 30
0.000000
  70
    32
  0
VERTEX
  8
0
  5
163B5
 10
239.163
 20
142.353
 30
0.000000
  70
    32
  0
VERTEX
  8
0
  5
163B6
 10
239.311
 20
142.302
 30
0.000000
  70
    32
  0
VERTEX
  8
0
  5
163B7
 10
239.459
 20
142.251
 30
0.000000
  70
    32
  0
VERTEX
  8
0
  5
163B8
 10
239.608
 20
142.202
 30
0.000000
  70
    32
  0
VERTEX
  8
0
  5
163B9
 10
239.758
 20
142.153
 30
0.000000
  70
    32
  0
VERTEX
  8
0
  5
163BA
 10
239.909
 20
142.106
 30
0.000000
  70
    32
  0
VERTEX
  8
0
  5
163BB
 10
240.061
 20
142.059
 30
0.000000
  70
    32
  0
VERTEX
  8
0
  5
163BC
 10
240.213
 20
142.014
 30
0.000000
  70
    32
  0
VERTEX
  8
0
  5
163BD
 10
240.367
 20
141.969
 30
0.000000
  70
    32
  0
VERTEX
  8
0
  5
163BE
 10
240.521
 20
141.925
 30
0.000000
  70
    32
  0
VERTEX
  8
0
  5
163BF
 10
240.676
 20
141.882
 30
0.000000
  70
    32
  0
VERTEX
  8
0
  5
163C0
 10
240.832
 20
141.840
 30
0.000000
  70
    32
  0
VERTEX
  8
0
  5
163C1
 10
240.989
 20
141.799
 30
0.000000
  70
    32
  0
VERTEX
  8
0
  5
163C2
 10
241.146
 20
141.760
 30
0.000000
  70
    32
  0
VERTEX
  8
0
  5
163C3
 10
241.305
 20
141.721
 30
0.000000
  70
    32
  0
VERTEX
  8
0
  5
163C4
 10
241.463
 20
141.683
 30
0.000000
  70
    32
  0
VERTEX
  8
0
  5
163C5
 10
241.623
 20
141.646
 30
0.000000
  70
    32
  0
VERTEX
  8
0
  5
163C6
 10
241.783
 20
141.610
 30
0.000000
  70
    32
  0
VERTEX
  8
0
  5
163C7
 10
241.944
 20
141.575
 30
0.000000
  70
    32
  0
VERTEX
  8
0
  5
163C8
 10
242.106
 20
141.541
 30
0.000000
  70
    32
  0
VERTEX
  8
0
  5
163C9
 10
242.268
 20
141.508
 30
0.000000
  70
    32
  0
VERTEX
  8
0
  5
163CA
 10
242.431
 20
141.476
 30
0.000000
  70
    32
  0
VERTEX
  8
0
  5
163CB
 10
242.594
 20
141.445
 30
0.000000
  70
    32
  0
VERTEX
  8
0
  5
163CC
 10
242.758
 20
141.415
 30
0.000000
  70
    32
  0
VERTEX
  8
0
  5
163CD
 10
242.922
 20
141.386
 30
0.000000
  70
    32
  0
VERTEX
  8
0
  5
163CE
 10
243.087
 20
141.358
 30
0.000000
  70
    32
  0
VERTEX
  8
0
  5
163CF
 10
243.253
 20
141.331
 30
0.000000
  70
    32
  0
VERTEX
  8
0
  5
163D0
 10
243.419
 20
141.306
 30
0.000000
  70
    32
  0
VERTEX
  8
0
  5
163D1
 10
243.586
 20
141.281
 30
0.000000
  70
    32
  0
VERTEX
  8
0
  5
163D2
 10
243.752
 20
141.257
 30
0.000000
  70
    32
  0
VERTEX
  8
0
  5
163D3
 10
243.920
 20
141.234
 30
0.000000
  70
    32
  0
VERTEX
  8
0
  5
163D4
 10
244.088
 20
141.213
 30
0.000000
  70
    32
  0
VERTEX
  8
0
  5
163D5
 10
244.256
 20
141.192
 30
0.000000
  70
    32
  0
VERTEX
  8
0
  5
163D6
 10
244.424
 20
141.172
 30
0.000000
  70
    32
  0
VERTEX
  8
0
  5
163D7
 10
244.593
 20
141.154
 30
0.000000
  70
    32
  0
VERTEX
  8
0
  5
163D8
 10
244.762
 20
141.136
 30
0.000000
  70
    32
  0
VERTEX
  8
0
  5
163D9
 10
244.932
 20
141.120
 30
0.000000
  70
    32
  0
VERTEX
  8
0
  5
163DA
 10
245.102
 20
141.104
 30
0.000000
  70
    32
  0
VERTEX
  8
0
  5
163DB
 10
245.272
 20
141.090
 30
0.000000
  70
    32
  0
VERTEX
  8
0
  5
163DC
 10
245.442
 20
141.077
 30
0.000000
  70
    32
  0
VERTEX
  8
0
  5
163DD
 10
245.613
 20
141.064
 30
0.000000
  70
    32
  0
VERTEX
  8
0
  5
163DE
 10
245.784
 20
141.053
 30
0.000000
  70
    32
  0
VERTEX
  8
0
  5
163DF
 10
245.955
 20
141.043
 30
0.000000
  70
    32
  0
VERTEX
  8
0
  5
163E0
 10
246.126
 20
141.034
 30
0.000000
  70
    32
  0
VERTEX
  8
0
  5
163E1
 10
246.298
 20
141.026
 30
0.000000
  70
    32
  0
VERTEX
  8
0
  5
163E2
 10
246.469
 20
141.019
 30
0.000000
  70
    32
  0
VERTEX
  8
0
  5
163E3
 10
246.641
 20
141.013
 30
0.000000
  70
    32
  0
VERTEX
  8
0
  5
163E4
 10
246.812
 20
141.009
 30
0.000000
  70
    32
  0
VERTEX
  8
0
  5
163E5
 10
246.984
 20
141.005
 30
0.000000
  70
    32
  0
VERTEX
  8
0
  5
163E6
 10
247.156
 20
141.002
 30
0.000000
  70
    32
  0
VERTEX
  8
0
  5
163E7
 10
247.328
 20
141.001
 30
0.000000
  70
    32
  0
VERTEX
  8
0
  5
163E8
 10
247.500
 20
141.000
 30
0.000000
  70
    32
  0
VERTEX
  8
0
  5
163E9
 10
247.672
 20
141.001
 30
0.000000
  70
    32
  0
VERTEX
  8
0
  5
163EA
 10
247.844
 20
141.002
 30
0.000000
  70
    32
  0
VERTEX
  8
0
  5
163EB
 10
248.016
 20
141.005
 30
0.000000
  70
    32
  0
VERTEX
  8
0
  5
163EC
 10
248.188
 20
141.009
 30
0.000000
  70
    32
  0
VERTEX
  8
0
  5
163ED
 10
248.359
 20
141.013
 30
0.000000
  70
    32
  0
VERTEX
  8
0
  5
163EE
 10
248.531
 20
141.019
 30
0.000000
  70
    32
  0
VERTEX
  8
0
  5
163EF
 10
248.702
 20
141.026
 30
0.000000
  70
    32
  0
VERTEX
  8
0
  5
163F0
 10
248.874
 20
141.034
 30
0.000000
  70
    32
  0
VERTEX
  8
0
  5
163F1
 10
249.045
 20
141.043
 30
0.000000
  70
    32
  0
VERTEX
  8
0
  5
163F2
 10
249.216
 20
141.053
 30
0.000000
  70
    32
  0
VERTEX
  8
0
  5
163F3
 10
249.387
 20
141.064
 30
0.000000
  70
    32
  0
VERTEX
  8
0
  5
163F4
 10
249.558
 20
141.077
 30
0.000000
  70
    32
  0
VERTEX
  8
0
  5
163F5
 10
249.728
 20
141.090
 30
0.000000
  70
    32
  0
VERTEX
  8
0
  5
163F6
 10
249.898
 20
141.104
 30
0.000000
  70
    32
  0
VERTEX
  8
0
  5
163F7
 10
250.068
 20
141.120
 30
0.000000
  70
    32
  0
VERTEX
  8
0
  5
163F8
 10
250.238
 20
141.136
 30
0.000000
  70
    32
  0
VERTEX
  8
0
  5
163F9
 10
250.407
 20
141.154
 30
0.000000
  70
    32
  0
VERTEX
  8
0
  5
163FA
 10
250.576
 20
141.172
 30
0.000000
  70
    32
  0
VERTEX
  8
0
  5
163FB
 10
250.744
 20
141.192
 30
0.000000
  70
    32
  0
VERTEX
  8
0
  5
163FC
 10
250.912
 20
141.213
 30
0.000000
  70
    32
  0
VERTEX
  8
0
  5
163FD
 10
251.080
 20
141.234
 30
0.000000
  70
    32
  0
VERTEX
  8
0
  5
163FE
 10
251.248
 20
141.257
 30
0.000000
  70
    32
  0
VERTEX
  8
0
  5
163FF
 10
251.414
 20
141.281
 30
0.000000
  70
    32
  0
VERTEX
  8
0
  5
16400
 10
251.581
 20
141.306
 30
0.000000
  70
    32
  0
VERTEX
  8
0
  5
16401
 10
251.747
 20
141.331
 30
0.000000
  70
    32
  0
VERTEX
  8
0
  5
16402
 10
251.913
 20
141.358
 30
0.000000
  70
    32
  0
VERTEX
  8
0
  5
16403
 10
252.078
 20
141.386
 30
0.000000
  70
    32
  0
VERTEX
  8
0
  5
16404
 10
252.242
 20
141.415
 30
0.000000
  70
    32
  0
VERTEX
  8
0
  5
16405
 10
252.406
 20
141.445
 30
0.000000
  70
    32
  0
VERTEX
  8
0
  5
16406
 10
252.569
 20
141.476
 30
0.000000
  70
    32
  0
VERTEX
  8
0
  5
16407
 10
252.732
 20
141.508
 30
0.000000
  70
    32
  0
VERTEX
  8
0
  5
16408
 10
252.894
 20
141.541
 30
0.000000
  70
    32
  0
VERTEX
  8
0
  5
16409
 10
253.056
 20
141.575
 30
0.000000
  70
    32
  0
VERTEX
  8
0
  5
1640A
 10
253.217
 20
141.610
 30
0.000000
  70
    32
  0
VERTEX
  8
0
  5
1640B
 10
253.377
 20
141.646
 30
0.000000
  70
    32
  0
VERTEX
  8
0
  5
1640C
 10
253.537
 20
141.683
 30
0.000000
  70
    32
  0
VERTEX
  8
0
  5
1640D
 10
253.695
 20
141.721
 30
0.000000
  70
    32
  0
VERTEX
  8
0
  5
1640E
 10
253.854
 20
141.760
 30
0.000000
  70
    32
  0
VERTEX
  8
0
  5
1640F
 10
254.011
 20
141.799
 30
0.000000
  70
    32
  0
VERTEX
  8
0
  5
16410
 10
254.168
 20
141.840
 30
0.000000
  70
    32
  0
VERTEX
  8
0
  5
16411
 10
254.324
 20
141.882
 30
0.000000
  70
    32
  0
VERTEX
  8
0
  5
16412
 10
254.479
 20
141.925
 30
0.000000
  70
    32
  0
VERTEX
  8
0
  5
16413
 10
254.633
 20
141.969
 30
0.000000
  70
    32
  0
VERTEX
  8
0
  5
16414
 10
254.787
 20
142.014
 30
0.000000
  70
    32
  0
VERTEX
  8
0
  5
16415
 10
254.939
 20
142.059
 30
0.000000
  70
    32
  0
VERTEX
  8
0
  5
16416
 10
255.091
 20
142.106
 30
0.000000
  70
    32
  0
VERTEX
  8
0
  5
16417
 10
255.242
 20
142.153
 30
0.000000
  70
    32
  0
VERTEX
  8
0
  5
16418
 10
255.392
 20
142.202
 30
0.000000
  70
    32
  0
VERTEX
  8
0
  5
16419
 10
255.541
 20
142.251
 30
0.000000
  70
    32
  0
VERTEX
  8
0
  5
1641A
 10
255.689
 20
142.302
 30
0.000000
  70
    32
  0
VERTEX
  8
0
  5
1641B
 10
255.837
 20
142.353
 30
0.000000
  70
    32
  0
VERTEX
  8
0
  5
1641C
 10
255.983
 20
142.405
 30
0.000000
  70
    32
  0
VERTEX
  8
0
  5
1641D
 10
256.128
 20
142.458
 30
0.000000
  70
    32
  0
VERTEX
  8
0
  5
1641E
 10
256.272
 20
142.512
 30
0.000000
  70
    32
  0
VERTEX
  8
0
  5
1641F
 10
256.416
 20
142.567
 30
0.000000
  70
    32
  0
VERTEX
  8
0
  5
16420
 10
256.558
 20
142.623
 30
0.000000
  70
    32
  0
VERTEX
  8
0
  5
16421
 10
256.699
 20
142.679
 30
0.000000
  70
    32
  0
VERTEX
  8
0
  5
16422
 10
256.839
 20
142.737
 30
0.000000
  70
    32
  0
VERTEX
  8
0
  5
16423
 10
256.978
 20
142.795
 30
0.000000
  70
    32
  0
VERTEX
  8
0
  5
16424
 10
257.116
 20
142.855
 30
0.000000
  70
    32
  0
VERTEX
  8
0
  5
16425
 10
257.253
 20
142.915
 30
0.000000
  70
    32
  0
VERTEX
  8
0
  5
16426
 10
257.389
 20
142.976
 30
0.000000
  70
    32
  0
VERTEX
  8
0
  5
16427
 10
257.524
 20
143.037
 30
0.000000
  70
    32
  0
VERTEX
  8
0
  5
16428
 10
257.657
 20
143.100
 30
0.000000
  70
    32
  0
SEQEND
  8
0
  5
16429
  0
LINE
  5
1574C
  8
0
 10
263.49999837577337
 20
143.1000006422401
 30
0.0
 11
257.65695691108698
 21
143.1000006422401
 31
0.0
  0
LINE
  5
15751
  8
0
 10
237.34303832054141
 20
162.8999996036292
 30
0.0
 11
231.57046444714069
 21
162.8999996036292
 31
0.0
  0
LINE
  5
15752
  8
0
 10
231.57046444714069
 20
165.99999992549431
 30
0.0
 11
231.57046444714069
 21
162.8999996036292
 31
0.0
  0
LINE
  5
15753
  8
0
 10
263.42953078448772
 20
165.99999992549431
 30
0.0
 11
231.57046444714069
 21
165.99999992549431
 31
0.0
  0
LINE
  5
15754
  8
0
 10
263.42953078448772
 20
162.8999996036292
 30
0.0
 11
263.42953078448772
 21
165.99999992549431
 31
0.0
  0
LINE
  5
15755
  8
0
 10
263.42953078448772
 20
162.8999996036292
 30
0.0
 11
257.65695691108698
 21
162.8999996036292
 31
0.0
  0
POLYLINE
  5
15756
  8
0
 10
257.65695652429804
 20
162.90000043213379
 30
0.0
 66
     1
 70
     8
  0
VERTEX
  8
0
  5
1642A
 10
257.657
 20
162.900
 30
0.000000
  70
    32
  0
VERTEX
  8
0
  5
1642B
 10
257.524
 20
162.963
 30
0.000000
  70
    32
  0
VERTEX
  8
0
  5
1642C
 10
257.389
 20
163.024
 30
0.000000
  70
    32
  0
VERTEX
  8
0
  5
1642D
 10
257.253
 20
163.085
 30
0.000000
  70
    32
  0
VERTEX
  8
0
  5
1642E
 10
257.116
 20
163.145
 30
0.000000
  70
    32
  0
VERTEX
  8
0
  5
1642F
 10
256.978
 20
163.205
 30
0.000000
  70
    32
  0
VERTEX
  8
0
  5
16430
 10
256.839
 20
163.263
 30
0.000000
  70
    32
  0
VERTEX
  8
0
  5
16431
 10
256.699
 20
163.321
 30
0.000000
  70
    32
  0
VERTEX
  8
0
  5
16432
 10
256.558
 20
163.377
 30
0.000000
  70
    32
  0
VERTEX
  8
0
  5
16433
 10
256.416
 20
163.433
 30
0.000000
  70
    32
  0
VERTEX
  8
0
  5
16434
 10
256.272
 20
163.488
 30
0.000000
  70
    32
  0
VERTEX
  8
0
  5
16435
 10
256.128
 20
163.542
 30
0.000000
  70
    32
  0
VERTEX
  8
0
  5
16436
 10
255.983
 20
163.595
 30
0.000000
  70
    32
  0
VERTEX
  8
0
  5
16437
 10
255.837
 20
163.647
 30
0.000000
  70
    32
  0
VERTEX
  8
0
  5
16438
 10
255.689
 20
163.698
 30
0.000000
  70
    32
  0
VERTEX
  8
0
  5
16439
 10
255.541
 20
163.749
 30
0.000000
  70
    32
  0
VERTEX
  8
0
  5
1643A
 10
255.392
 20
163.798
 30
0.000000
  70
    32
  0
VERTEX
  8
0
  5
1643B
 10
255.242
 20
163.847
 30
0.000000
  70
    32
  0
VERTEX
  8
0
  5
1643C
 10
255.091
 20
163.894
 30
0.000000
  70
    32
  0
VERTEX
  8
0
  5
1643D
 10
254.939
 20
163.941
 30
0.000000
  70
    32
  0
VERTEX
  8
0
  5
1643E
 10
254.787
 20
163.986
 30
0.000000
  70
    32
  0
VERTEX
  8
0
  5
1643F
 10
254.633
 20
164.031
 30
0.000000
  70
    32
  0
VERTEX
  8
0
  5
16440
 10
254.479
 20
164.075
 30
0.000000
  70
    32
  0
VERTEX
  8
0
  5
16441
 10
254.324
 20
164.118
 30
0.000000
  70
    32
  0
VERTEX
  8
0
  5
16442
 10
254.168
 20
164.160
 30
0.000000
  70
    32
  0
VERTEX
  8
0
  5
16443
 10
254.011
 20
164.201
 30
0.000000
  70
    32
  0
VERTEX
  8
0
  5
16444
 10
253.854
 20
164.240
 30
0.000000
  70
    32
  0
VERTEX
  8
0
  5
16445
 10
253.695
 20
164.279
 30
0.000000
  70
    32
  0
VERTEX
  8
0
  5
16446
 10
253.537
 20
164.317
 30
0.000000
  70
    32
  0
VERTEX
  8
0
  5
16447
 10
253.377
 20
164.354
 30
0.000000
  70
    32
  0
VERTEX
  8
0
  5
16448
 10
253.217
 20
164.390
 30
0.000000
  70
    32
  0
VERTEX
  8
0
  5
16449
 10
253.056
 20
164.425
 30
0.000000
  70
    32
  0
VERTEX
  8
0
  5
1644A
 10
252.894
 20
164.459
 30
0.000000
  70
    32
  0
VERTEX
  8
0
  5
1644B
 10
252.732
 20
164.492
 30
0.000000
  70
    32
  0
VERTEX
  8
0
  5
1644C
 10
252.569
 20
164.524
 30
0.000000
  70
    32
  0
VERTEX
  8
0
  5
1644D
 10
252.406
 20
164.555
 30
0.000000
  70
    32
  0
VERTEX
  8
0
  5
1644E
 10
252.242
 20
164.585
 30
0.000000
  70
    32
  0
VERTEX
  8
0
  5
1644F
 10
252.078
 20
164.614
 30
0.000000
  70
    32
  0
VERTEX
  8
0
  5
16450
 10
251.913
 20
164.642
 30
0.000000
  70
    32
  0
VERTEX
  8
0
  5
16451
 10
251.747
 20
164.669
 30
0.000000
  70
    32
  0
VERTEX
  8
0
  5
16452
 10
251.581
 20
164.694
 30
0.000000
  70
    32
  0
VERTEX
  8
0
  5
16453
 10
251.414
 20
164.719
 30
0.000000
  70
    32
  0
VERTEX
  8
0
  5
16454
 10
251.248
 20
164.743
 30
0.000000
  70
    32
  0
VERTEX
  8
0
  5
16455
 10
251.080
 20
164.766
 30
0.000000
  70
    32
  0
VERTEX
  8
0
  5
16456
 10
250.912
 20
164.787
 30
0.000000
  70
    32
  0
VERTEX
  8
0
  5
16457
 10
250.744
 20
164.808
 30
0.000000
  70
    32
  0
VERTEX
  8
0
  5
16458
 10
250.576
 20
164.828
 30
0.000000
  70
    32
  0
VERTEX
  8
0
  5
16459
 10
250.407
 20
164.846
 30
0.000000
  70
    32
  0
VERTEX
  8
0
  5
1645A
 10
250.238
 20
164.864
 30
0.000000
  70
    32
  0
VERTEX
  8
0
  5
1645B
 10
250.068
 20
164.880
 30
0.000000
  70
    32
  0
VERTEX
  8
0
  5
1645C
 10
249.898
 20
164.896
 30
0.000000
  70
    32
  0
VERTEX
  8
0
  5
1645D
 10
249.728
 20
164.910
 30
0.000000
  70
    32
  0
VERTEX
  8
0
  5
1645E
 10
249.558
 20
164.923
 30
0.000000
  70
    32
  0
VERTEX
  8
0
  5
1645F
 10
249.387
 20
164.936
 30
0.000000
  70
    32
  0
VERTEX
  8
0
  5
16460
 10
249.216
 20
164.947
 30
0.000000
  70
    32
  0
VERTEX
  8
0
  5
16461
 10
249.045
 20
164.957
 30
0.000000
  70
    32
  0
VERTEX
  8
0
  5
16462
 10
248.874
 20
164.966
 30
0.000000
  70
    32
  0
VERTEX
  8
0
  5
16463
 10
248.702
 20
164.974
 30
0.000000
  70
    32
  0
VERTEX
  8
0
  5
16464
 10
248.531
 20
164.981
 30
0.000000
  70
    32
  0
VERTEX
  8
0
  5
16465
 10
248.359
 20
164.987
 30
0.000000
  70
    32
  0
VERTEX
  8
0
  5
16466
 10
248.188
 20
164.991
 30
0.000000
  70
    32
  0
VERTEX
  8
0
  5
16467
 10
248.016
 20
164.995
 30
0.000000
  70
    32
  0
VERTEX
  8
0
  5
16468
 10
247.844
 20
164.998
 30
0.000000
  70
    32
  0
VERTEX
  8
0
  5
16469
 10
247.672
 20
164.999
 30
0.000000
  70
    32
  0
VERTEX
  8
0
  5
1646A
 10
247.500
 20
165.000
 30
0.000000
  70
    32
  0
VERTEX
  8
0
  5
1646B
 10
247.328
 20
164.999
 30
0.000000
  70
    32
  0
VERTEX
  8
0
  5
1646C
 10
247.156
 20
164.998
 30
0.000000
  70
    32
  0
VERTEX
  8
0
  5
1646D
 10
246.984
 20
164.995
 30
0.000000
  70
    32
  0
VERTEX
  8
0
  5
1646E
 10
246.812
 20
164.991
 30
0.000000
  70
    32
  0
VERTEX
  8
0
  5
1646F
 10
246.641
 20
164.987
 30
0.000000
  70
    32
  0
VERTEX
  8
0
  5
16470
 10
246.469
 20
164.981
 30
0.000000
  70
    32
  0
VERTEX
  8
0
  5
16471
 10
246.298
 20
164.974
 30
0.000000
  70
    32
  0
VERTEX
  8
0
  5
16472
 10
246.126
 20
164.966
 30
0.000000
  70
    32
  0
VERTEX
  8
0
  5
16473
 10
245.955
 20
164.957
 30
0.000000
  70
    32
  0
VERTEX
  8
0
  5
16474
 10
245.784
 20
164.947
 30
0.000000
  70
    32
  0
VERTEX
  8
0
  5
16475
 10
245.613
 20
164.936
 30
0.000000
  70
    32
  0
VERTEX
  8
0
  5
16476
 10
245.442
 20
164.923
 30
0.000000
  70
    32
  0
VERTEX
  8
0
  5
16477
 10
245.272
 20
164.910
 30
0.000000
  70
    32
  0
VERTEX
  8
0
  5
16478
 10
245.102
 20
164.896
 30
0.000000
  70
    32
  0
VERTEX
  8
0
  5
16479
 10
244.932
 20
164.880
 30
0.000000
  70
    32
  0
VERTEX
  8
0
  5
1647A
 10
244.762
 20
164.864
 30
0.000000
  70
    32
  0
VERTEX
  8
0
  5
1647B
 10
244.593
 20
164.846
 30
0.000000
  70
    32
  0
VERTEX
  8
0
  5
1647C
 10
244.424
 20
164.828
 30
0.000000
  70
    32
  0
VERTEX
  8
0
  5
1647D
 10
244.256
 20
164.808
 30
0.000000
  70
    32
  0
VERTEX
  8
0
  5
1647E
 10
244.088
 20
164.787
 30
0.000000
  70
    32
  0
VERTEX
  8
0
  5
1647F
 10
243.920
 20
164.766
 30
0.000000
  70
    32
  0
VERTEX
  8
0
  5
16480
 10
243.752
 20
164.743
 30
0.000000
  70
    32
  0
VERTEX
  8
0
  5
16481
 10
243.586
 20
164.719
 30
0.000000
  70
    32
  0
VERTEX
  8
0
  5
16482
 10
243.419
 20
164.694
 30
0.000000
  70
    32
  0
VERTEX
  8
0
  5
16483
 10
243.253
 20
164.669
 30
0.000000
  70
    32
  0
VERTEX
  8
0
  5
16484
 10
243.087
 20
164.642
 30
0.000000
  70
    32
  0
VERTEX
  8
0
  5
16485
 10
242.922
 20
164.614
 30
0.000000
  70
    32
  0
VERTEX
  8
0
  5
16486
 10
242.758
 20
164.585
 30
0.000000
  70
    32
  0
VERTEX
  8
0
  5
16487
 10
242.594
 20
164.555
 30
0.000000
  70
    32
  0
VERTEX
  8
0
  5
16488
 10
242.431
 20
164.524
 30
0.000000
  70
    32
  0
VERTEX
  8
0
  5
16489
 10
242.268
 20
164.492
 30
0.000000
  70
    32
  0
VERTEX
  8
0
  5
1648A
 10
242.106
 20
164.459
 30
0.000000
  70
    32
  0
VERTEX
  8
0
  5
1648B
 10
241.944
 20
164.425
 30
0.000000
  70
    32
  0
VERTEX
  8
0
  5
1648C
 10
241.783
 20
164.390
 30
0.000000
  70
    32
  0
VERTEX
  8
0
  5
1648D
 10
241.623
 20
164.354
 30
0.000000
  70
    32
  0
VERTEX
  8
0
  5
1648E
 10
241.463
 20
164.317
 30
0.000000
  70
    32
  0
VERTEX
  8
0
  5
1648F
 10
241.305
 20
164.279
 30
0.000000
  70
    32
  0
VERTEX
  8
0
  5
16490
 10
241.146
 20
164.240
 30
0.000000
  70
    32
  0
VERTEX
  8
0
  5
16491
 10
240.989
 20
164.201
 30
0.000000
  70
    32
  0
VERTEX
  8
0
  5
16492
 10
240.832
 20
164.160
 30
0.000000
  70
    32
  0
VERTEX
  8
0
  5
16493
 10
240.676
 20
164.118
 30
0.000000
  70
    32
  0
VERTEX
  8
0
  5
16494
 10
240.521
 20
164.075
 30
0.000000
  70
    32
  0
VERTEX
  8
0
  5
16495
 10
240.367
 20
164.031
 30
0.000000
  70
    32
  0
VERTEX
  8
0
  5
16496
 10
240.213
 20
163.986
 30
0.000000
  70
    32
  0
VERTEX
  8
0
  5
16497
 10
240.061
 20
163.941
 30
0.000000
  70
    32
  0
VERTEX
  8
0
  5
16498
 10
239.909
 20
163.894
 30
0.000000
  70
    32
  0
VERTEX
  8
0
  5
16499
 10
239.758
 20
163.847
 30
0.000000
  70
    32
  0
VERTEX
  8
0
  5
1649A
 10
239.608
 20
163.798
 30
0.000000
  70
    32
  0
VERTEX
  8
0
  5
1649B
 10
239.459
 20
163.749
 30
0.000000
  70
    32
  0
VERTEX
  8
0
  5
1649C
 10
239.311
 20
163.698
 30
0.000000
  70
    32
  0
VERTEX
  8
0
  5
1649D
 10
239.163
 20
163.647
 30
0.000000
  70
    32
  0
VERTEX
  8
0
  5
1649E
 10
239.017
 20
163.595
 30
0.000000
  70
    32
  0
VERTEX
  8
0
  5
1649F
 10
238.872
 20
163.542
 30
0.000000
  70
    32
  0
VERTEX
  8
0
  5
164A0
 10
238.728
 20
163.488
 30
0.000000
  70
    32
  0
VERTEX
  8
0
  5
164A1
 10
238.584
 20
163.433
 30
0.000000
  70
    32
  0
VERTEX
  8
0
  5
164A2
 10
238.442
 20
163.377
 30
0.000000
  70
    32
  0
VERTEX
  8
0
  5
164A3
 10
238.301
 20
163.321
 30
0.000000
  70
    32
  0
VERTEX
  8
0
  5
164A4
 10
238.161
 20
163.263
 30
0.000000
  70
    32
  0
VERTEX
  8
0
  5
164A5
 10
238.022
 20
163.205
 30
0.000000
  70
    32
  0
VERTEX
  8
0
  5
164A6
 10
237.884
 20
163.145
 30
0.000000
  70
    32
  0
VERTEX
  8
0
  5
164A7
 10
237.747
 20
163.085
 30
0.000000
  70
    32
  0
VERTEX
  8
0
  5
164A8
 10
237.611
 20
163.024
 30
0.000000
  70
    32
  0
VERTEX
  8
0
  5
164A9
 10
237.476
 20
162.963
 30
0.000000
  70
    32
  0
VERTEX
  8
0
  5
164AA
 10
237.343
 20
162.900
 30
0.000000
  70
    32
  0
SEQEND
  8
0
  5
164AB
  0
LINE
  5
1575B
  8
0
 10
231.78859695792201
 20
166.21715827286249
 30
0.0
 11
231.57046444714069
 21
165.99999992549431
 31
0.0
  0
LINE
  5
1575D
  8
0
 10
263.42953078448772
 20
165.99999992549431
 30
0.0
 11
263.21139827370638
 21
166.21715827286249
 31
0.0
  0
LINE
  5
1575E
  8
0
 10
231.57046444714069
 20
176.4999988526107
 30
0.0
 11
231.57046444714069
 21
167.0000019520522
 31
0.0
  0
LINE
  5
15760
  8
0
 10
263.42953078448772
 20
167.0000019520522
 30
0.0
 11
263.42953078448772
 21
176.4999988526107
 31
0.0
  0
LINE
  5
15761
  8
0
 10
263.42953078448772
 20
167.0000019520522
 30
0.0
 11
231.57046444714069
 21
167.0000019520522
 31
0.0
  0
LINE
  5
15762
  8
0
 10
263.21139827370638
 20
166.78284360468399
 30
0.0
 11
263.42953078448772
 21
167.0000019520522
 31
0.0
  0
LINE
  5
15764
  8
0
 10
231.57046444714069
 20
167.0000019520522
 30
0.0
 11
231.78859695792201
 21
166.78284360468399
 31
0.0
  0
LINE
  5
15766
  8
0
 10
262.92724616825581
 20
176.99999986588961
 30
0.0
 11
263.42953078448772
 21
176.4999988526107
 31
0.0
  0
LINE
  5
15767
  8
0
 10
231.57046444714069
 20
176.4999988526107
 30
0.0
 11
232.07274906337261
 21
176.99999986588961
 31
0.0
  0
ARC
  5
15768
  8
0
 10
263.49264255088281
 20
166.50000093877321
 30
0.0
 40
0.3988713039364233
 50
134.837647929074
 51
225.16235207093521
  0
ARC
  5
15769
  8
0
 10
231.50733782528309
 20
166.50000093877321
 30
0.0
 40
0.3988817786666053
 50
314.8391610608038
 51
45.160838939186888
  0
LINE
  5
1576D
  8
0
 10
234.99999742954969
 20
123.0000003278256
 30
0.0
 11
259.99999780207872
 21
123.0000003278257
 31
0.0
  0
LINE
  5
1576E
  8
0
 10
259.49999772012228
 20
133.50000041909519
 30
0.0
 11
249.99999755993491
 21
133.50000041909519
 31
0.0
  0
LINE
  5
1576F
  8
0
 10
244.99999767169359
 20
133.50000041909519
 30
0.0
 11
235.49999751150611
 21
133.50000041909519
 31
0.0
  0
LINE
  5
15772
  8
0
 10
259.44999780505901
 20
121.0000000000001
 30
0.0
 11
235.54999742656949
 21
121.0000000000001
 31
0.0
  0
POLYLINE
  5
15775
  8
0
 66
     1
 10
0.0
 20
0.0
 30
0.0
 70
   128
  0
VERTEX
  5
1626B
  8
0
 10
232.8512350842357
 20
144.2457099482418
 30
0.0
  0
VERTEX
  5
1626C
  8
0
 10
232.7722002565861
 20
144.0957753956319
 30
0.0
  0
VERTEX
  5
1626D
  8
0
 10
232.66910005360839
 20
143.8405073285104
 30
0.0
  0
VERTEX
  5
1626E
  8
0
 10
232.63708304613829
 20
143.72155601531281
 30
0.0
  0
VERTEX
  5
1626F
  8
0
 10
232.6300329342485
 20
143.5799391046167
 30
0.0
  0
VERTEX
  5
16270
  8
0
 10
232.6785296946764
 20
143.5085504353047
 30
0.0
  0
VERTEX
  5
16271
  8
0
 10
232.72118706256151
 20
143.50000089406981
 30
0.0
  0
SEQEND
  5
16272
  8
0
  0
LINE
  5
15776
  8
0
 10
232.72118706256151
 20
143.50000089406981
 30
0.0
 11
237.39655205777839
 21
143.50000089406981
 31
0.0
  0
LINE
  5
15778
  8
0
 10
257.60344317385
 20
143.50000089406981
 30
0.0
 11
262.27880816906691
 21
143.50000089406981
 31
0.0
  0
POLYLINE
  5
15779
  8
0
 66
     1
 10
0.0
 20
0.0
 30
0.0
 70
   128
  0
VERTEX
  5
16273
  8
0
 10
262.27880816906691
 20
143.50000089406981
 30
0.0
  0
VERTEX
  5
16274
  8
0
 10
262.34873652458191
 20
143.5301142781974
 30
0.0
  0
VERTEX
  5
16275
  8
0
 10
262.37382169812918
 20
143.6328000426293
 30
0.0
  0
VERTEX
  5
16276
  8
0
 10
262.34335348010057
 20
143.80012331902989
 30
0.0
  0
VERTEX
  5
16277
  8
0
 10
262.29447860270739
 20
143.94141054153451
 30
0.0
  0
VERTEX
  5
16278
  8
0
 10
262.1621553599835
 20
144.22895545512449
 30
0.0
  0
VERTEX
  5
16279
  8
0
 10
262.15195830911398
 20
144.2472168281675
 30
0.0
  0
SEQEND
  5
1627A
  8
0
  0
LINE
  5
1577A
  8
0
 10
232.37058416008949
 20
161.5205767601729
 30
0.0
 11
231.57046444714069
 21
162.8999996036292
 31
0.0
  0
LINE
  5
1577B
  8
0
 10
237.3965536629849
 20
162.50000028312209
 30
0.0
 11
232.72118706256151
 21
162.50000028312209
 31
0.0
  0
POLYLINE
  5
1577C
  8
0
 66
     1
 10
0.0
 20
0.0
 30
0.0
 70
   128
  0
VERTEX
  5
1627B
  8
0
 10
232.72118706256151
 20
162.50000028312209
 30
0.0
  0
VERTEX
  5
1627C
  8
0
 10
232.66051232814789
 20
162.47965274751189
 30
0.0
  0
VERTEX
  5
1627D
  8
0
 10
232.62608412653211
 20
162.3737650960685
 30
0.0
  0
VERTEX
  5
1627E
  8
0
 10
232.63737175613639
 20
162.27701558172711
 30
0.0
  0
VERTEX
  5
1627F
  8
0
 10
232.7087082713843
 20
162.05051234364521
 30
0.0
  0
VERTEX
  5
16280
  8
0
 10
232.82850336283451
 20
161.78920744359499
 30
0.0
  0
VERTEX
  5
16281
  8
0
 10
232.84847185015681
 20
161.75325466692459
 30
0.0
  0
SEQEND
  5
16282
  8
0
  0
LINE
  5
1577D
  8
0
 10
263.42953078448772
 20
162.8999996036292
 30
0.0
 11
262.62941107153893
 21
161.5205767601729
 31
0.0
  0
POLYLINE
  5
1577E
  8
0
 66
     1
 10
0.0
 20
0.0
 30
0.0
 70
   128
  0
VERTEX
  5
16283
  8
0
 10
262.1494148671627
 20
161.75527191162121
 30
0.0
  0
VERTEX
  5
16284
  8
0
 10
262.22569018602371
 20
161.89972749352461
 30
0.0
  0
VERTEX
  5
16285
  8
0
 10
262.3299377784133
 20
162.15656204521659
 30
0.0
  0
VERTEX
  5
16286
  8
0
 10
262.37362798303371
 20
162.36117361485969
 30
0.0
  0
VERTEX
  5
16287
  8
0
 10
262.3497349023819
 20
162.46860912442219
 30
0.0
  0
VERTEX
  5
16288
  8
0
 10
262.27880816906691
 20
162.50000028312209
 30
0.0
  0
SEQEND
  5
16289
  8
0
  0
LINE
  5
1577F
  8
0
 10
262.27880816906691
 20
162.50000028312209
 30
0.0
 11
257.60344156864358
 21
162.50000028312209
 31
0.0
  0
ARC
  5
15782
  8
0
 10
232.02604525659001
 20
161.3205526783554
 30
0.0
 40
0.3983926321251471
 50
0.0035122450547718
 51
30.13755921093782
  0
ARC
  5
15783
  8
0
 10
262.97414629252103
 20
161.32049981612411
 30
0.0
 40
0.398588956351682
 50
149.87003782150421
 51
179.98889072249921
  0
LINE
  5
15784
  8
0
 10
232.4244378879666
 20
145.00000020861631
 30
0.0
 11
232.4244378879666
 21
145.55500047653919
 31
0.0
  0
LINE
  5
15785
  8
0
 10
232.4244378879666
 20
146.64500086009511
 30
0.0
 11
232.4244378879666
 21
159.3550003170968
 31
0.0
  0
LINE
  5
15786
  8
0
 10
232.4244378879666
 20
160.44499976933011
 30
0.0
 11
232.4244378879666
 21
161.3205770999194
 31
0.0
  0
LINE
  5
15787
  8
0
 10
232.42103017866609
 20
144.6794231459499
 30
0.0
 11
232.4244378879666
 21
145.00000020861631
 31
0.0
  0
LINE
  5
15788
  8
0
 10
262.57555734366179
 20
161.3205770999194
 30
0.0
 11
262.57555734366179
 21
160.44499976933011
 31
0.0
  0
LINE
  5
15789
  8
0
 10
262.57555734366179
 20
159.3550003170968
 30
0.0
 11
262.57555734366179
 21
146.64500086009511
 31
0.0
  0
LINE
  5
1578A
  8
0
 10
262.57555734366179
 20
145.55500047653919
 30
0.0
 11
262.57555734366179
 21
145.00000020861631
 31
0.0
  0
LINE
  5
1578B
  8
0
 10
262.57555734366179
 20
145.00000020861631
 30
0.0
 11
262.5789650529623
 21
144.6794231459499
 31
0.0
  0
LINE
  5
15793
  8
0
 10
262.00248196721083
 20
160.44499976933011
 30
0.0
 11
262.07553025335068
 21
160.48534838855269
 31
0.0
  0
LINE
  5
15798
  8
0
 10
232.92174256520491
 20
146.67926852317839
 30
0.0
 11
232.9837831476656
 21
146.64500086009511
 31
0.0
  0
LINE
  5
157AF
  8
0
 10
262.5789650529623
 20
144.6794231459499
 30
0.0
 11
262.33885578984439
 21
144.6794231459499
 31
0.0
  0
LINE
  5
157B0
  8
0
 10
232.65779546992991
 20
144.6794231459499
 30
0.0
 11
232.42103017866609
 21
144.6794231459499
 31
0.0
  0
LINE
  5
157B1
  8
0
 10
232.6611393810125
 20
161.3205770999194
 30
0.0
 11
232.4244378879666
 21
161.3205770999194
 31
0.0
  0
LINE
  5
157B2
  8
0
 10
262.57555734366179
 20
161.3205770999194
 30
0.0
 11
262.33883687366011
 21
161.3205770999194
 31
0.0
  0
ARC
  5
157B7
  8
0
 10
167.9999985694885
 20
45.500000000000107
 30
0.0
 40
1.5000000000000371
 50
19.471220634494038
 51
340.5287793655142
  0
LINE
  5
157B8
  8
0
 10
169.414212629199
 20
46.000000023748832
 30
0.0
 11
170.44948830742399
 21
46.000000023748832
 31
0.0
  0
LINE
  5
157B9
  8
0
 10
170.44948830742399
 20
44.999999976251381
 30
0.0
 11
169.414212629199
 21
44.999999976251381
 31
0.0
  0
CIRCLE
  5
157BA
  8
0
 10
146.4999985694885
 20
45.500000000000107
 30
0.0
 40
12.44999999999999
  0
CIRCLE
  5
157BC
  8
0
 10
146.4999985694885
 20
45.500000000000107
 30
0.0
 40
12.5
  0
CIRCLE
  5
157BE
  8
0
 10
146.4999985694885
 20
45.499999999999993
 30
0.0
 40
25.5
  0
CIRCLE
  5
157C1
  8
0
 10
131.2972027739778
 20
30.297204204489731
 30
0.0
 40
2.25
  0
CIRCLE
  5
157C2
  8
0
 10
161.70279436499919
 20
30.29720420448928
 30
0.0
 40
2.25
  0
CIRCLE
  5
157C3
  8
0
 10
146.4999985694885
 20
45.499999999999993
 30
0.0
 40
14.00000000000003
  0
CIRCLE
  5
157C6
  8
0
 10
161.70279436499979
 20
60.702795795510731
 30
0.0
 40
2.25
  0
CIRCLE
  5
157C7
  8
0
 10
131.2972027739782
 20
60.702795795511179
 30
0.0
 40
2.25
  0
LINE
  5
15B25
  8
0
 10
232.07274906337261
 20
176.99999986588961
 30
0.0
 11
262.92724616825581
 21
176.99999986588961
 31
0.0
  0
CIRCLE
  5
15B34
  8
0
 10
167.9999985694885
 20
45.500000000000107
 30
0.0
 40
2.500000000000028
  0
POLYLINE
  5
15B5C
  8
0
 66
     1
 10
0.0
 20
0.0
 30
0.0
 70
   128
  0
VERTEX
  5
1628A
  8
0
 10
232.62702941894531
 20
161.00012017786511
 30
0.0
  0
VERTEX
  5
1628B
  8
0
 10
232.63834405690429
 20
161.20462743937981
 30
0.0
  0
VERTEX
  5
1628C
  8
0
 10
232.68015671521431
 20
161.41713289916521
 30
0.0
  0
VERTEX
  5
1628D
  8
0
 10
232.76570614427331
 20
161.63257388770589
 30
0.0
  0
VERTEX
  5
1628E
  8
0
 10
232.8682903945446
 20
161.78087396919739
 30
0.0
  0
VERTEX
  5
1628F
  8
0
 10
232.998140975833
 20
161.89524596929559
 30
0.0
  0
VERTEX
  5
16290
  8
0
 10
233.1532983854413
 20
161.9707743674517
 30
0.0
  0
VERTEX
  5
16291
  8
0
 10
233.32415323704481
 20
161.9998372197152
 30
0.0
  0
VERTEX
  5
16292
  8
0
 10
233.33807650953531
 20
162.00000113248831
 30
0.0
  0
SEQEND
  5
16293
  8
0
  0
LINE
  5
15B5D
  8
0
 10
232.62606270611289
 20
160.7687183071491
 30
0.0
 11
232.62606270611289
 21
161.00000096857559
 31
0.0
  0
POLYLINE
  5
15B5E
  8
0
 66
     1
 10
0.0
 20
0.0
 30
0.0
 70
   128
  0
VERTEX
  5
16294
  8
0
 10
232.92446497827771
 20
160.48534838855269
 30
0.0
  0
VERTEX
  5
16295
  8
0
 10
232.9212258383632
 20
160.48621265590199
 30
0.0
  0
VERTEX
  5
16296
  8
0
 10
232.66578920185569
 20
160.58624415099629
 30
0.0
  0
SEQEND
  5
16297
  8
0
  0
ARC
  5
15B5F
  8
0
 10
233.0463220092565
 20
160.76465155784999
 30
0.0
 40
0.4202789791658229
 50
179.44557967683829
 51
205.1188655996128
  0
LINE
  5
15B60
  8
0
 10
232.99751326441771
 20
160.44499976933011
 30
0.0
 11
232.92446497827771
 21
160.48534838855269
 31
0.0
  0
LINE
  5
15B61
  8
0
 10
262.01270323246717
 20
159.3550003170968
 30
0.0
 11
262.07825157791382
 21
159.32073137164119
 31
0.0
  0
ARC
  5
15B62
  8
0
 10
261.87393235895252
 20
147.13561619099411
 30
0.0
 40
0.5000000000000285
 50
294.11945147104979
 51
0.0
  0
LINE
  5
15B63
  8
0
 10
262.37393252551561
 20
158.86438517272481
 30
0.0
 11
262.37393252551561
 21
147.1356160044671
 31
0.0
  0
ARC
  5
15B64
  8
0
 10
261.87393235895252
 20
158.86438467327329
 30
0.0
 40
0.5000000000000285
 50
0.0
 51
65.8805485289502
  0
LINE
  5
15B65
  8
0
 10
262.07825266642351
 20
146.67926852317839
 30
0.0
 11
262.0162120839629
 21
146.64500086009511
 31
0.0
  0
LINE
  5
15B74
  8
0
 10
60.012674684088779
 20
159.3550003170968
 30
0.0
 11
60.078223029535359
 21
159.32073137164119
 31
0.0
  0
ARC
  5
15B75
  8
0
 10
59.873903810574227
 20
147.1356161909942
 30
0.0
 40
0.5000000000000011
 50
294.1194514710495
 51
0.0
  0
LINE
  5
15B76
  8
0
 10
60.373903977137161
 20
158.86438517272481
 30
0.0
 11
60.373903977137161
 21
147.1356160044671
 31
0.0
  0
ARC
  5
15B77
  8
0
 10
59.873903810574227
 20
158.86438467327341
 30
0.0
 40
0.5
 50
0.0
 51
65.880548528950527
  0
LINE
  5
15B78
  8
0
 10
60.078223960860782
 20
146.67926887422971
 30
0.0
 11
60.016182742832257
 21
146.64500086009511
 31
0.0
  0
LINE
  5
15B79
  8
0
 10
60.07822396085794
 20
160.47926871478569
 30
0.0
 11
60.016158761840408
 21
160.44499976933011
 31
0.0
  0
ARC
  5
15B7A
  8
0
 10
59.873903810574227
 20
160.93561619099421
 30
0.0
 40
0.5000000000000077
 50
294.1194514710495
 51
0.0
  0
LINE
  5
15C01
  8
0
 10
147.99999858252701
 20
255.66227779098401
 30
0.0
 11
147.99999858252701
 21
268.42953303456318
 31
0.0
  0
LINE
  5
15C02
  8
0
 10
144.99999855645001
 20
249.33772248301671
 30
0.0
 11
144.99999855645001
 21
236.57046754504341
 31
0.0
  0
CIRCLE
  5
15C50
  8
0
 10
167.9999985694885
 20
252.49999986588969
 30
0.0
 40
2.500000000000056
  0
ARC
  5
15C52
  8
0
 10
146.4999985694885
 20
252.49999986588969
 30
0.0
 40
15.400000000000031
 50
264.41038001201599
 51
275.58961998798401
  0
ARC
  5
15C53
  8
0
 10
145.00198144927691
 20
237.33023250305499
 30
0.0
 40
0.0964998498524374
 50
18.989843310469858
 51
70.208893435721663
  0
POLYLINE
  5
15C54
  8
0
 66
     1
 10
0.0
 20
0.0
 30
0.0
 70
   128
  0
VERTEX
  5
16298
  8
0
 10
147.90676772128791
 20
237.3616336062552
 30
0.0
  0
VERTEX
  5
16299
  8
0
 10
147.8871666407212
 20
237.33073139190691
 30
0.0
  0
VERTEX
  5
1629A
  8
0
 10
147.70823381372409
 20
237.14747018526089
 30
0.0
  0
SEQEND
  5
1629B
  8
0
  0
POLYLINE
  5
15C55
  8
0
 66
     1
 10
0.0
 20
0.0
 30
0.0
 70
   128
  0
VERTEX
  5
1629C
  8
0
 10
145.2915434345401
 20
237.14748749211779
 30
0.0
  0
VERTEX
  5
1629D
  8
0
 10
145.2144455909729
 20
237.2046684995295
 30
0.0
  0
VERTEX
  5
1629E
  8
0
 10
145.09322941768909
 20
237.3616336062552
 30
0.0
  0
SEQEND
  5
1629F
  8
0
  0
ARC
  5
15C56
  8
0
 10
147.9980156897002
 20
237.33023250305499
 30
0.0
 40
0.096499849852457
 50
109.79110656429251
 51
161.0101566895363
  0
LINE
  5
15C57
  8
0
 10
145.03465551417321
 20
237.4210324287416
 30
0.0
 11
144.99999855645001
 21
237.42444013804209
 31
0.0
  0
LINE
  5
15C58
  8
0
 10
147.99999858252701
 20
237.42444013804209
 30
0.0
 11
147.96534162480381
 21
237.4210324287416
 31
0.0
  0
LINE
  5
15C96
  8
0
 10
162.49999932944769
 20
140.99999921988081
 30
0.0
 11
157.53589726984501
 21
143.86602556705481
 31
0.0
  0
LINE
  5
15C98
  8
0
 10
130.4999978095293
 20
140.99999921988081
 30
0.0
 11
135.46409986913201
 21
143.86602556705481
 31
0.0
  0
LINE
  5
15C99
  8
0
 10
157.53589726984501
 20
162.1339756101371
 30
0.0
 11
162.49999932944769
 21
164.99999976158151
 31
0.0
  0
LINE
  5
15C9A
  8
0
 10
135.46410101223501
 20
162.1339756101371
 30
0.0
 11
130.49999895263221
 21
164.99999976158151
 31
0.0
  0
ARC
  5
15CA9
  8
0
 10
-64.551682288653637
 20
65.3226401032571
 30
0.0
 40
148.1159832414674
 50
31.67572895673668
 51
32.304878523107533
  0
ARC
  5
15CAA
  8
0
 10
60.976193025560057
 20
144.6885767536472
 30
0.0
 40
0.397331518315796
 50
181.32008025335671
 51
211.76219192037081
  0
ARC
  5
15CAB
  8
0
 10
357.55167942763069
 20
65.3226401032571
 30
0.0
 40
148.1159832414674
 50
147.69512147688829
 51
148.32427104326331
  0
ARC
  5
15CAC
  8
0
 10
232.02380411341699
 20
144.6885767536472
 30
0.0
 40
0.397331518315796
 50
328.23780807962999
 51
358.67991974664329
  0
ARC
  5
15CAD
  8
0
 10
137.4483158039977
 20
65.3226401032571
 30
0.0
 40
148.1159832414674
 50
31.67572895673668
 51
32.304878523106836
  0
ARC
  5
15CAE
  8
0
 10
262.97619111821137
 20
144.6885767536472
 30
0.0
 40
0.397331518315796
 50
181.32008025335671
 51
211.76219192037081
  0
LINE
  5
15D3E
  8
1
 10
45.499999523162842
 20
116.0000000000001
 30
0.0
 11
45.499999523162842
 21
181.99999986588961
 31
0.0
  0
LINE
  5
15D3F
  8
1
 10
146.49999914104001
 20
76.0
 30
0.0
 11
146.49999914104001
 21
15.0
 31
0.0
  0
LINE
  5
15D41
  8
1
 10
247.49999761581421
 20
181.99999986588961
 30
0.0
 11
247.49999761581421
 21
116.0000000000001
 31
0.0
  0
LINE
  5
15D4D
  8
1
 10
176.9999985694885
 20
252.49999986588969
 30
0.0
 11
115.9999985694885
 21
252.49999986588969
 31
0.0
  0
LINE
  5
15D4E
  8
1
 10
176.9999985694885
 20
45.499999999999993
 30
0.0
 11
115.9999985694885
 21
45.499999999999993
 31
0.0
  0
LINE
  5
15D53
  8
1
 10
146.49999914104001
 20
116.0000000000001
 30
0.0
 11
146.49999914104001
 21
181.99999986588961
 31
0.0
  0
LINE
  5
15D54
  8
1
 10
146.49999914104001
 20
221.99999986588961
 30
0.0
 11
146.49999914104001
 21
282.99999986588972
 31
0.0
  0
LINE
  5
15D5C
  8
1
 10
255.4999976106993
 20
153.0002865058668
 30
0.0
 11
239.49999762092909
 21
153.0002865058668
 31
0.0
  0
LINE
  5
15D61
  8
1
 10
164.99999831616881
 20
153.0002865058668
 30
0.0
 11
127.7035402500411
 21
153.0002865058668
 31
0.0
  0
LINE
  5
15D64
  8
1
 10
167.9999985694885
 20
257.99999986588972
 30
0.0
 11
167.9999985694885
 21
246.99999986588961
 31
0.0
  0
LINE
  5
15D6A
  8
1
 10
167.9999985694885
 20
143.00000032037499
 30
0.0
 11
167.9999985694885
 21
127.0000005438925
 31
0.0
  0
LINE
  5
15D6B
  8
1
 10
167.9999985694885
 20
51.000000000000142
 30
0.0
 11
167.9999985694885
 21
40.000000000000078
 31
0.0
  0
CIRCLE
  5
15D6C
  8
1
 10
146.49999914104001
 20
252.49999986588969
 30
0.0
 40
21.499999595852088
  0
LINE
  5
15D6D
  8
1
 10
127.5848921727485
 20
271.41510626262931
 30
0.0
 11
135.00951337520721
 21
263.99048506017073
 31
0.0
  0
LINE
  5
15D6E
  8
1
 10
165.41510489644619
 20
271.41510633241239
 30
0.0
 11
157.99048383355239
 21
263.99048499038861
 31
0.0
  0
LINE
  5
15D73
  8
1
 10
135.0095138769762
 20
241.00951416983921
 30
0.0
 11
127.58489281408249
 21
233.58489282781571
 31
0.0
  0
LINE
  5
15D74
  8
1
 10
157.99048376377019
 20
241.0095146716082
 30
0.0
 11
165.41510496622919
 21
233.58489346914959
 31
0.0
  0
CIRCLE
  5
15D75
  8
1
 10
146.4999985694885
 20
45.499999999999993
 30
0.0
 40
21.499999595852088
  0
LINE
  5
15D76
  8
1
 10
127.584891601197
 20
64.415106396739645
 30
0.0
 11
135.0095128036557
 21
56.990485194281071
 31
0.0
  0
LINE
  5
15D77
  8
1
 10
157.99048319221879
 20
34.009514805718482
 30
0.0
 11
165.41510439467771
 21
26.58489360325996
 31
0.0
  0
LINE
  5
15D78
  8
1
 10
165.41510432489471
 20
64.41510646652273
 30
0.0
 11
157.99048326200091
 21
56.990485124498953
 31
0.0
  0
LINE
  5
15D79
  8
1
 10
135.0095133054248
 20
34.009514303949523
 30
0.0
 11
127.584892242531
 21
26.58489296192602
 31
0.0
  0
CIRCLE
  5
160DC
  8
0
 10
146.49999914104001
 20
252.49999986588969
 30
0.0
 40
3.5
  0
CIRCLE
  5
160E3
  8
3
 10
146.49999914104001
 20
252.49999986588969
 30
0.0
 40
1.5
  0
CIRCLE
  5
160E4
  8
0
 10
146.49999914104001
 20
252.49999986588969
 30
0.0
 40
1.2295
  0
LINE
  5
160E5
  8
0
 10
147.99999858252701
 20
162.50000028312209
 30
0.0
 11
144.99999855645001
 21
162.50000028312209
 31
0.0
  0
LINE
  5
160E6
  8
0
 10
144.99999912800149
 20
165.99999992549431
 30
0.0
 11
147.99999915407849
 21
165.99999992549431
 31
0.0
  0
LINE
  5
160F6
  8
3
 10
141.1999987252056
 20
155.4585000968577
 30
0.0
 11
141.99999876320359
 21
155.4585000968577
 31
0.0
  0
LINE
  5
160F7
  8
3
 10
141.1999987252056
 20
150.54150009685759
 30
0.0
 11
141.99999876320359
 21
150.54150009685759
 31
0.0
  0
LINE
  5
160F8
  8
3
 10
144.99999855645001
 20
155.4585000968577
 30
0.0
 11
147.99999858252701
 21
155.4585000968577
 31
0.0
  0
LINE
  5
160F9
  8
3
 10
144.99999855645001
 20
150.54150009685759
 30
0.0
 11
147.99999858252701
 21
150.54150009685759
 31
0.0
  0
LINE
  5
160FA
  8
3
 10
150.9999983757734
 20
155.4585000968577
 30
0.0
 11
151.79999841377131
 21
155.4585000968577
 31
0.0
  0
LINE
  5
160FB
  8
3
 10
150.9999983757734
 20
150.54150009685759
 30
0.0
 11
151.79999841377131
 21
150.54150009685759
 31
0.0
  0
TEXT
  5
16188
  8
0
 62
     3
 10
0.0
 20
0.0
 30
0.0
 40
10.0
  1
CP123-03201
  7
STANDARD1
  0
ENDSEC
  0
EOF
