  0
SECTION
  2
HEADER
  9
$ACADVER
  1
AC1009
  9
$INSBASE
 10
0.0
 20
0.0
 30
0.0
  9
$EXTMIN
 10
0.0
 20
-2.960436562073669
 30
0.0
  9
$EXTMAX
 10
247.0
 20
277.0
 30
0.0
  9
$LIMMIN
 10
0.0
 20
0.0
  9
$LIMMAX
 10
12.0
 20
9.0
  9
$ORTHOMODE
 70
     1
  9
$REGENMODE
 70
     1
  9
$FILLMODE
 70
     1
  9
$QTEXTMODE
 70
     0
  9
$MIRRTEXT
 70
     0
  9
$DRAGMODE
 70
     2
  9
$LTSCALE
 40
5.0
  9
$OSMODE
 70
    37
  9
$ATTMODE
 70
     1
  9
$TEXTSIZE
 40
0.2
  9
$TRACEWID
 40
0.05
  9
$TEXTSTYLE
  7
STANDARD
  9
$CLAYER
  8
0
  9
$CELTYPE
  6
BYLAYER
  9
$CECOLOR
 62
   256
  9
$DIMSCALE
 40
1.0
  9
$DIMASZ
 40
0.18
  9
$DIMEXO
 40
0.0625
  9
$DIMDLI
 40
0.38
  9
$DIMRND
 40
0.0
  9
$DIMDLE
 40
0.0
  9
$DIMEXE
 40
0.18
  9
$DIMTP
 40
0.0
  9
$DIMTM
 40
0.0
  9
$DIMTXT
 40
2.6000000000000001
  9
$DIMCEN
 40
0.09
  9
$DIMTSZ
 40
0.0
  9
$DIMTOL
 70
     0
  9
$DIMLIM
 70
     0
  9
$DIMTIH
 70
     0
  9
$DIMTOH
 70
     0
  9
$DIMSE1
 70
     0
  9
$DIMSE2
 70
     0
  9
$DIMTAD
 70
     1
  9
$DIMZIN
 70
     8
  9
$DIMBLK
  1

  9
$DIMASO
 70
     1
  9
$DIMSHO
 70
     1
  9
$DIMPOST
  1

  9
$DIMAPOST
  1

  9
$DIMALT
 70
     0
  9
$DIMALTD
 70
     2
  9
$DIMALTF
 40
25.399999999999999
  9
$DIMLFAC
 40
1.0
  9
$DIMTOFL
 70
     0
  9
$DIMTVP
 40
0.0
  9
$DIMTIX
 70
     0
  9
$DIMSOXD
 70
     0
  9
$DIMSAH
 70
     0
  9
$DIMBLK1
  1

  9
$DIMBLK2
  1

  9
$DIMSTYLE
  2
STANDARD
  9
$DIMCLRD
 70
     0
  9
$DIMCLRE
 70
     0
  9
$DIMCLRT
 70
     0
  9
$DIMTFAC
 40
1.0
  9
$DIMGAP
 40
0.09
  9
$LUNITS
 70
     2
  9
$LUPREC
 70
     1
  9
$SKETCHINC
 40
0.1
  9
$FILLETRAD
 40
0.0
  9
$AUNITS
 70
     0
  9
$AUPREC
 70
     0
  9
$MENU
  1
.
  9
$ELEVATION
 40
0.0
  9
$PELEVATION
 40
0.0
  9
$THICKNESS
 40
0.0
  9
$LIMCHECK
 70
     0
  9
$BLIPMODE
 70
     0
  9
$CHAMFERA
 40
0.0
  9
$CHAMFERB
 40
0.0
  9
$SKPOLY
 70
     0
  9
$TDCREATE
 40
2453083.4120647679
  9
$TDUPDATE
 40
2458856.4033967131
  9
$TDINDWG
 40
0.7587700579
  9
$TDUSRTIMER
 40
0.7587699421
  9
$USRTIMER
 70
     1
  9
$ANGBASE
 50
0.0
  9
$ANGDIR
 70
     0
  9
$PDMODE
 70
     0
  9
$PDSIZE
 40
0.0
  9
$PLINEWID
 40
0.0
  9
$COORDS
 70
     1
  9
$SPLFRAME
 70
     0
  9
$SPLINETYPE
 70
     6
  9
$SPLINESEGS
 70
     8
  9
$ATTDIA
 70
     0
  9
$ATTREQ
 70
     1
  9
$HANDLING
 70
     1
  9
$HANDSEED
  5
65B4
  9
$SURFTAB1
 70
     6
  9
$SURFTAB2
 70
     6
  9
$SURFTYPE
 70
     6
  9
$SURFU
 70
     6
  9
$SURFV
 70
     6
  9
$UCSNAME
  2

  9
$UCSORG
 10
0.0
 20
0.0
 30
0.0
  9
$UCSXDIR
 10
1.0
 20
0.0
 30
0.0
  9
$UCSYDIR
 10
0.0
 20
1.0
 30
0.0
  9
$PUCSNAME
  2

  9
$PUCSORG
 10
0.0
 20
0.0
 30
0.0
  9
$PUCSXDIR
 10
1.0
 20
0.0
 30
0.0
  9
$PUCSYDIR
 10
0.0
 20
1.0
 30
0.0
  9
$USERI1
 70
     0
  9
$USERI2
 70
     1
  9
$USERI3
 70
     0
  9
$USERI4
 70
     0
  9
$USERI5
 70
     0
  9
$USERR1
 40
0.0
  9
$USERR2
 40
0.0
  9
$USERR3
 40
0.0
  9
$USERR4
 40
0.0
  9
$USERR5
 40
0.0
  9
$WORLDVIEW
 70
     1
  9
$SHADEDGE
 70
     3
  9
$SHADEDIF
 70
    70
  9
$TILEMODE
 70
     1
  9
$MAXACTVP
 70
    64
  9
$PLIMCHECK
 70
     0
  9
$PEXTMIN
 10
0.0
 20
0.0
 30
0.0
  9
$PEXTMAX
 10
0.0
 20
0.0
 30
0.0
  9
$PLIMMIN
 10
0.0
 20
0.0
  9
$PLIMMAX
 10
12.0
 20
9.0
  9
$UNITMODE
 70
     0
  9
$VISRETAIN
 70
     1
  9
$PLINEGEN
 70
     0
  9
$PSLTSCALE
 70
     1
  0
ENDSEC
  0
SECTION
  2
TABLES
  0
TABLE
  2
VPORT
 70
     1
  0
VPORT
  2
*ACTIVE
 70
     0
 10
0.0
 20
0.0
 11
1.0
 21
1.0
 12
362.34662576687123
 22
150.0
 13
0.0
 23
0.0
 14
0.5
 24
0.5
 15
0.5
 25
0.5
 16
0.0
 26
0.0
 36
1.0
 17
0.0
 27
0.0
 37
0.0
 40
300.0
 41
2.415644171779141
 42
50.0
 43
0.0
 44
0.0
 50
0.0
 51
0.0
 71
     0
 72
  1000
 73
     1
 74
     2
 75
     0
 76
     0
 77
     0
 78
     0
  0
ENDTAB
  0
TABLE
  2
LTYPE
 70
     4
  0
LTYPE
  2
CONTINUOUS
 70
     0
  3
Solid Line
 72
    65
 73
     0
 40
0.0
  0
LTYPE
  2
CENTER
 70
     0
  3
____ _ ____ _ ____ _ ____ _ ____ _ ____ _ ____
 72
    65
 73
     4
 40
2.0
 49
1.25
 49
-0.25
 49
0.25
 49
-0.25
  0
LTYPE
  2
PHANTOM2
 70
     0
  3
___ _ _ ___ _ _ ___ _ _ ___ _ _
 72
    65
 73
     6
 40
1.25
 49
0.625
 49
-0.125
 49
0.125
 49
-0.125
 49
0.125
 49
-0.125
  0
LTYPE
  2
HIDDEN
 70
     0
  3
Hidden __ __ __ __ __ __ __ __ __ __ __ __ __ __
 72
    65
 73
     2
 40
1.905
 49
1.27
 49
-0.635
  0
ENDTAB
  0
TABLE
  2
LAYER
 70
     5
  0
LAYER
  2
0
 70
     0
 62
     7
  6
CONTINUOUS
  0
LAYER
  2
1
 70
     0
 62
     1
  6
CENTER
  0
LAYER
  2
DEFPOINTS
 70
     0
 62
     7
  6
CONTINUOUS
  0
LAYER
  2
3
 70
     0
 62
     3
  6
CONTINUOUS
  0
LAYER
  2
2
 70
     0
 62
     2
  6
HIDDEN
  0
ENDTAB
  0
TABLE
  2
STYLE
 70
     2
  0
STYLE
  2
STANDARD
 70
     0
 40
0.0
 41
1.0
 50
0.0
 71
     0
 42
0.2
  3
simplex.shx
  4
bigfont.shx
  0
STYLE
  2
STANDARD1
 70
     0
 40
0.0
 41
1.0
 50
0.0
 71
     0
 42
3.0
  3
txt
  4

  0
ENDTAB
  0
TABLE
  2
VIEW
 70
     1
  0
VIEW
  2
OLE1
 70
     0
 40
109.6479929355487
 10
69.918131635619403
 20
572.99835434663123
 41
137.858398884986
 11
0.0
 21
0.0
 31
1.0
 12
0.0
 22
0.0
 32
0.0
 42
50.0
 43
0.0
 44
0.0
 50
0.0
 71
     0
  0
ENDTAB
  0
TABLE
  2
UCS
 70
     0
  0
ENDTAB
  0
TABLE
  2
APPID
 70
     7
  0
APPID
  2
ACAD
 70
     0
  0
APPID
  2
ACAD_MLEADERVER
 70
     0
  0
APPID
  2
ACAD_NAV_VCDISPLAY
 70
     0
  0
APPID
  2
ACAD_EXEMPT_FROM_CAD_STANDARDS
 70
     0
  0
APPID
  2
ACAD_DSTYLE_DIMRADIAL_EXTENSION
 70
     0
  0
APPID
  2
ACAD_DSTYLE_DIMJAG
 70
     0
  0
APPID
  2
ACAD_DSTYLE_DIMTALN
 70
     0
  0
ENDTAB
  0
TABLE
  2
DIMSTYLE
 70
     1
  0
DIMSTYLE
  2
STANDARD
 70
     0
  3

  4

  5

  6

  7

 40
1.0
 41
0.18
 42
0.0625
 43
0.38
 44
0.18
 45
0.0
 46
0.0
 47
0.0
 48
0.0
140
2.6000000000000001
141
0.09
142
0.0
143
25.399999999999999
144
1.0
145
0.0
146
1.0
147
0.09
 71
     0
 72
     0
 73
     0
 74
     0
 75
     0
 76
     0
 77
     1
 78
     8
170
     0
171
     2
172
     0
173
     0
174
     0
175
     0
176
     0
177
     0
178
     0
  0
ENDTAB
  0
ENDSEC
  0
SECTION
  2
BLOCKS
  0
BLOCK
  8
0
  2
$MODEL_SPACE
 70
     0
 10
0.0
 20
0.0
 30
0.0
  3
$MODEL_SPACE
  1

  0
ENDBLK
  5
21
  8
0
  0
BLOCK
 67
     1
  8
0
  2
$PAPER_SPACE
 70
     0
 10
0.0
 20
0.0
 30
0.0
  3
$PAPER_SPACE
  1

  0
ENDBLK
  5
5B
 67
     1
  8
0
  0
ENDSEC
  0
SECTION
  2
ENTITIES
  0
TEXT
  5
1F01
  8
0
 62
     3
 10
0.0
 20
0.0
 30
0.0
 40
10.0
  1
CP126-09001
  7
STANDARD1
  0
ARC
  5
53A0
  8
0
 10
165.75
 20
96.0
 30
0.0
 40
1.0
 50
270.0
 51
90.0
  0
ARC
  5
53A1
  8
0
 10
84.25
 20
96.0
 30
0.0
 40
1.0
 50
90.0
 51
270.0
  0
LINE
  5
53A2
  8
0
 10
84.25
 20
95.0
 30
0.0
 11
165.75
 21
95.0
 31
0.0
  0
LINE
  5
53A3
  8
0
 10
80.0
 20
116.0
 30
0.0
 11
80.0
 21
97.5
 31
0.0
  0
LINE
  5
53A4
  8
0
 10
170.0
 20
97.5
 30
0.0
 11
170.0
 21
116.0
 31
0.0
  0
LINE
  5
53A5
  8
0
 10
80.0
 20
97.5
 30
0.0
 11
80.5
 21
97.0
 31
0.0
  0
LINE
  5
53A6
  8
0
 10
169.5
 20
97.0
 30
0.0
 11
170.0
 21
97.5
 31
0.0
  0
LINE
  5
53A7
  8
0
 10
80.0
 20
117.0
 30
0.0
 11
80.217157287525367
 21
116.7828427124746
 31
0.0
  0
LINE
  5
53A8
  8
0
 10
80.217157287525367
 20
116.2171572875254
 30
0.0
 11
80.0
 21
116.0
 31
0.0
  0
LINE
  5
53A9
  8
0
 10
80.0
 20
131.5
 30
0.0
 11
80.0
 21
117.0
 31
0.0
  0
LINE
  5
53AA
  8
0
 10
80.500000000000057
 20
132.0
 30
0.0
 11
80.0
 21
131.5
 31
0.0
  0
LINE
  5
53AB
  8
0
 10
170.0
 20
131.5
 30
0.0
 11
169.5
 21
132.0
 31
0.0
  0
LINE
  5
53AC
  8
0
 10
170.0
 20
116.0
 30
0.0
 11
169.78284271247469
 21
116.2171572875254
 31
0.0
  0
LINE
  5
53AD
  8
0
 10
170.0
 20
117.0
 30
0.0
 11
170.0
 21
131.5
 31
0.0
  0
LINE
  5
53AE
  8
0
 10
169.78284271247469
 20
116.7828427124746
 30
0.0
 11
170.0
 21
117.0
 31
0.0
  0
ARC
  5
53AF
  8
0
 10
79.934314575050735
 20
116.5
 30
0.0
 40
0.3999999999999992
 50
314.99999999999989
 51
45.000000000000078
  0
ARC
  5
53B0
  8
0
 10
170.06568542494921
 20
116.5
 30
0.0
 40
0.3999999999999992
 50
134.99999999999989
 51
225.00000000000011
  0
LINE
  5
53B1
  8
0
 10
111.0
 20
95.0
 30
0.0
 11
111.0
 21
92.5
 31
0.0
  0
LINE
  5
53B2
  8
0
 10
139.0
 20
92.5
 30
0.0
 11
139.0
 21
95.0
 31
0.0
  0
LINE
  5
53B3
  8
0
 10
111.0
 20
92.5
 30
0.0
 11
111.5
 21
92.0
 31
0.0
  0
LINE
  5
53B4
  8
0
 10
138.5
 20
92.0
 30
0.0
 11
139.0
 21
92.5
 31
0.0
  0
LINE
  5
53B7
  8
0
 10
140.6339161106485
 20
132.0
 30
0.0
 11
140.82536541285191
 21
131.5
 31
0.0
  0
LINE
  5
53B8
  8
0
 10
140.82536541285191
 20
131.5
 30
0.0
 11
109.1746345871484
 21
131.5
 31
0.0
  0
LINE
  5
53B9
  8
0
 10
109.3660838893518
 20
132.0
 30
0.0
 11
109.1746345871484
 21
131.5
 31
0.0
  0
LINE
  5
53BB
  8
0
 10
109.1746345871484
 20
116.0
 30
0.0
 11
140.82536541285191
 21
116.0
 31
0.0
  0
LINE
  5
53BC
  8
0
 10
109.1746345871484
 20
116.0
 30
0.0
 11
109.2577835141134
 21
116.2171572875254
 31
0.0
  0
LINE
  5
53BE
  8
0
 10
140.82536541285191
 20
116.0
 30
0.0
 11
140.7422164858869
 21
116.2171572875254
 31
0.0
  0
LINE
  5
53BF
  8
0
 10
109.1746345871484
 20
117.0
 30
0.0
 11
109.1746345871484
 21
131.5
 31
0.0
  0
LINE
  5
53C0
  8
0
 10
140.82536541285191
 20
117.0
 30
0.0
 11
140.82536541285191
 21
131.5
 31
0.0
  0
LINE
  5
53C1
  8
0
 10
109.1746345871484
 20
117.0
 30
0.0
 11
140.82536541285191
 21
117.0
 31
0.0
  0
LINE
  5
53C2
  8
0
 10
80.0
 20
116.0
 30
0.0
 11
82.874499296154184
 21
116.0
 31
0.0
  0
LINE
  5
53C3
  8
0
 10
82.874499296154184
 20
104.4957690114975
 30
0.0
 11
82.874499296154184
 21
116.0
 31
0.0
  0
POLYLINE
  5
53C4
  8
0
 66
     1
 10
0.0
 20
0.0
 30
0.0
 70
   128
  0
VERTEX
  5
6591
  8
0
 10
83.425421036992134
 20
102.9878514306963
 30
0.0
  0
VERTEX
  5
6592
  8
0
 10
83.238877210408873
 20
103.0720909214434
 30
0.0
  0
VERTEX
  5
6593
  8
0
 10
83.077568723368699
 20
103.314855920794
 30
0.0
  0
VERTEX
  5
6594
  8
0
 10
82.956893263806137
 20
103.689803297453
 30
0.0
  0
VERTEX
  5
6595
  8
0
 10
82.888023968806806
 20
104.15716671246921
 30
0.0
  0
VERTEX
  5
6596
  8
0
 10
82.874499296154184
 20
104.4957690114975
 30
0.0
  0
SEQEND
  5
6597
  8
0
  0
POLYLINE
  5
53C5
  8
0
 66
     1
 10
0.0
 20
0.0
 30
0.0
 70
   128
  0
VERTEX
  5
6598
  8
0
 10
84.022549593249437
 20
104.4957690114975
 30
0.0
  0
VERTEX
  5
6599
  8
0
 10
83.987379513086978
 20
103.99518310198231
 30
0.0
  0
VERTEX
  5
659A
  8
0
 10
83.886690205214904
 20
103.5510413619338
 30
0.0
  0
VERTEX
  5
659B
  8
0
 10
83.733904331037309
 20
103.2138286849316
 30
0.0
  0
VERTEX
  5
659C
  8
0
 10
83.549540370237068
 20
103.0229587017112
 30
0.0
  0
VERTEX
  5
659D
  8
0
 10
83.425421036992134
 20
102.9878514306963
 30
0.0
  0
SEQEND
  5
659E
  8
0
  0
LINE
  5
53C6
  8
0
 10
84.022549593249437
 20
104.4957690114975
 30
0.0
 11
84.022549593249437
 21
116.0
 31
0.0
  0
LINE
  5
53C7
  8
0
 10
84.022549593249437
 20
116.0
 30
0.0
 11
106.4029959896145
 21
116.0
 31
0.0
  0
LINE
  5
53C8
  8
0
 10
106.4029959896145
 20
104.4957690114975
 30
0.0
 11
106.4029959896145
 21
116.0
 31
0.0
  0
ARC
  5
53C9
  8
0
 10
107.8566841524073
 20
104.4405263058931
 30
0.0
 40
1.4547374440655529
 50
177.82370687525761
 51
266.94858780869248
  0
ARC
  5
53CA
  8
0
 10
107.7270502848923
 20
104.4357393833253
 30
0.0
 40
1.4488284468482471
 50
272.06457521438062
 51
2.3746284093005721
  0
LINE
  5
53CB
  8
0
 10
109.1746345871484
 20
104.4957690114975
 30
0.0
 11
109.1746345871484
 21
116.0
 31
0.0
  0
LINE
  5
53CC
  8
0
 10
140.82536541285191
 20
104.4957690114975
 30
0.0
 11
140.82536541285191
 21
116.0
 31
0.0
  0
ARC
  5
53CD
  8
0
 10
142.290820851224
 20
104.4522768836835
 30
0.0
 40
1.4661006810707999
 50
178.30006149441749
 51
267.26073488190042
  0
ARC
  5
53CE
  8
0
 10
142.16465416699839
 20
104.42105120132641
 30
0.0
 40
1.4342973279653171
 50
272.2416063184105
 51
2.9860989976483019
  0
LINE
  5
53CF
  8
0
 10
143.59700401038569
 20
104.4957690114975
 30
0.0
 11
143.59700401038569
 21
116.0
 31
0.0
  0
LINE
  5
53D0
  8
0
 10
143.59700401038569
 20
116.0
 30
0.0
 11
165.97745040675059
 21
116.0
 31
0.0
  0
LINE
  5
53D1
  8
0
 10
165.97745040675059
 20
104.4957690114975
 30
0.0
 11
165.97745040675059
 21
116.0
 31
0.0
  0
POLYLINE
  5
53D2
  8
0
 66
     1
 10
0.0
 20
0.0
 30
0.0
 70
   128
  0
VERTEX
  5
659F
  8
0
 10
166.57457896300789
 20
102.9878514306963
 30
0.0
  0
VERTEX
  5
65A0
  8
0
 10
166.38302458130769
 20
103.0720909214434
 30
0.0
  0
VERTEX
  5
65A1
  8
0
 10
166.20887983505111
 20
103.314855920794
 30
0.0
  0
VERTEX
  5
65A2
  8
0
 10
166.0730651337158
 20
103.689803297453
 30
0.0
  0
VERTEX
  5
65A3
  8
0
 10
165.9933108094761
 20
104.15716671246921
 30
0.0
  0
VERTEX
  5
65A4
  8
0
 10
165.97745040675059
 20
104.4957690114975
 30
0.0
  0
SEQEND
  5
65A5
  8
0
  0
POLYLINE
  5
53D3
  8
0
 66
     1
 10
0.0
 20
0.0
 30
0.0
 70
   128
  0
VERTEX
  5
65A6
  8
0
 10
167.12550070384589
 20
104.4957690114975
 30
0.0
  0
VERTEX
  5
65A7
  8
0
 10
167.0954339956474
 20
103.99518310198231
 30
0.0
  0
VERTEX
  5
65A8
  8
0
 10
167.00780097111789
 20
103.5510413619338
 30
0.0
  0
VERTEX
  5
65A9
  8
0
 10
166.8702679003346
 20
103.2138286849316
 30
0.0
  0
VERTEX
  5
65AA
  8
0
 10
166.69657530783911
 20
103.0229587017112
 30
0.0
  0
VERTEX
  5
65AB
  8
0
 10
166.57457896300789
 20
102.9878514306963
 30
0.0
  0
SEQEND
  5
65AC
  8
0
  0
LINE
  5
53D4
  8
0
 10
167.12550070384589
 20
104.4957690114975
 30
0.0
 11
167.12550070384589
 21
116.0
 31
0.0
  0
LINE
  5
53D5
  8
0
 10
167.12550070384589
 20
116.0
 30
0.0
 11
170.0
 21
116.0
 31
0.0
  0
LINE
  5
53D7
  8
0
 10
80.0
 20
97.5
 30
0.0
 11
170.0
 21
97.5
 31
0.0
  0
LINE
  5
53D9
  8
0
 10
109.2577835141134
 20
116.7828427124746
 30
0.0
 11
109.1746345871484
 21
117.0
 31
0.0
  0
LINE
  5
53DA
  8
0
 10
140.7422164858869
 20
116.7828427124746
 30
0.0
 11
140.82536541285191
 21
117.0
 31
0.0
  0
LINE
  5
53DB
  8
0
 10
169.5
 20
97.0
 30
0.0
 11
80.5
 21
97.0
 31
0.0
  0
ARC
  5
53DD
  8
0
 10
108.4299451703581
 20
116.5
 30
0.0
 40
0.8748235955844668
 50
341.13653980448748
 51
18.86346019551857
  0
ARC
  5
53DE
  8
0
 10
141.5700548296426
 20
116.5
 30
0.0
 40
0.8748235955848972
 50
161.13653980449479
 51
198.8634601955051
  0
LINE
  5
53DF
  8
0
 10
106.4029959896145
 20
117.0
 30
0.0
 11
106.4029959896145
 21
131.5
 31
0.0
  0
LINE
  5
53E0
  8
0
 10
106.59444529181791
 20
132.0
 30
0.0
 11
106.4029959896145
 21
131.5
 31
0.0
  0
LINE
  5
53E2
  8
0
 10
106.4029959896145
 20
116.0
 30
0.0
 11
106.48614491657951
 21
116.2171572875254
 31
0.0
  0
ARC
  5
53E3
  8
0
 10
105.6583065728222
 20
116.5
 30
0.0
 40
0.874823595586484
 50
341.1365398045287
 51
18.863460195471252
  0
LINE
  5
53E4
  8
0
 10
106.48614491657951
 20
116.7828427124746
 30
0.0
 11
106.4029959896145
 21
117.0
 31
0.0
  0
LINE
  5
53E5
  8
0
 10
84.022549593249437
 20
117.0
 30
0.0
 11
84.022549593249437
 21
131.5
 31
0.0
  0
LINE
  5
53E6
  8
0
 10
106.4029959896145
 20
131.5
 30
0.0
 11
84.022549593249437
 21
131.5
 31
0.0
  0
LINE
  5
53E7
  8
0
 10
84.022549593249437
 20
117.0
 30
0.0
 11
106.4029959896145
 21
117.0
 31
0.0
  0
LINE
  5
53E8
  8
0
 10
84.484749095135726
 20
132.0
 30
0.0
 11
84.022549593249437
 21
131.5
 31
0.0
  0
LINE
  5
53EB
  8
0
 10
84.223288860424987
 20
116.7828427124746
 30
0.0
 11
84.022549593249437
 21
117.0
 31
0.0
  0
LINE
  5
53EC
  8
0
 10
84.022549593249437
 20
116.0
 30
0.0
 11
84.223288860424987
 21
116.2171572875254
 31
0.0
  0
LINE
  5
53EE
  8
0
 10
165.5152509048645
 20
132.0
 30
0.0
 11
165.97745040675059
 21
131.5
 31
0.0
  0
LINE
  5
53EF
  8
0
 10
165.97745040675059
 20
131.5
 30
0.0
 11
143.59700401038569
 21
131.5
 31
0.0
  0
LINE
  5
53F0
  8
0
 10
143.40555470818239
 20
132.0
 30
0.0
 11
143.59700401038569
 21
131.5
 31
0.0
  0
LINE
  5
53F3
  8
0
 10
143.51385508342079
 20
116.7828427124746
 30
0.0
 11
143.59700401038569
 21
117.0
 31
0.0
  0
LINE
  5
53F4
  8
0
 10
143.59700401038569
 20
117.0
 30
0.0
 11
165.97745040675059
 21
117.0
 31
0.0
  0
LINE
  5
53F5
  8
0
 10
165.7767111395751
 20
116.7828427124746
 30
0.0
 11
165.97745040675059
 21
117.0
 31
0.0
  0
LINE
  5
53F6
  8
0
 10
143.59700401038569
 20
116.0
 30
0.0
 11
143.51385508342079
 21
116.2171572875254
 31
0.0
  0
LINE
  5
53F8
  8
0
 10
143.59700401038569
 20
117.0
 30
0.0
 11
143.59700401038569
 21
131.5
 31
0.0
  0
ARC
  5
53F9
  8
0
 10
144.341693427178
 20
116.5
 30
0.0
 40
0.8748235955863764
 50
161.1365398045287
 51
198.86346019547111
  0
LINE
  5
53FA
  8
0
 10
165.97745040675059
 20
117.0
 30
0.0
 11
165.97745040675059
 21
131.5
 31
0.0
  0
LINE
  5
53FC
  8
0
 10
165.97745040675059
 20
116.0
 30
0.0
 11
165.7767111395751
 21
116.2171572875254
 31
0.0
  0
ARC
  5
53FD
  8
0
 10
83.911018836639187
 20
116.5
 30
0.0
 40
0.4213224035761705
 50
317.8308729348513
 51
42.169127065148757
  0
ARC
  5
53FE
  8
0
 10
166.0889811633609
 20
116.5
 30
0.0
 40
0.4213224035761283
 50
137.83087293484439
 51
222.16912706515549
  0
LINE
  5
53FF
  8
0
 10
80.0
 20
117.0
 30
0.0
 11
82.874499296154184
 21
117.0
 31
0.0
  0
LINE
  5
5400
  8
0
 10
83.075238563329776
 20
116.7828427124746
 30
0.0
 11
82.874499296154184
 21
117.0
 31
0.0
  0
LINE
  5
5401
  8
0
 10
82.874499296154184
 20
117.0
 30
0.0
 11
82.874499296154184
 21
131.5
 31
0.0
  0
LINE
  5
5402
  8
0
 10
83.336698798040388
 20
132.0
 30
0.0
 11
82.874499296154184
 21
131.5
 31
0.0
  0
LINE
  5
5404
  8
0
 10
82.874499296154184
 20
116.0
 30
0.0
 11
83.075238563329776
 21
116.2171572875254
 31
0.0
  0
ARC
  5
5405
  8
0
 10
82.762968539543635
 20
116.5
 30
0.0
 40
0.4213224035763601
 50
317.83087293486977
 51
42.169127065130219
  0
LINE
  5
5406
  8
0
 10
82.874499296154184
 20
131.5
 30
0.0
 11
80.0
 21
131.5
 31
0.0
  0
LINE
  5
5407
  8
0
 10
80.500000000000057
 20
132.0
 30
0.0
 11
169.49999999999989
 21
132.0
 31
0.0
  0
LINE
  5
5408
  8
0
 10
170.0
 20
131.5
 30
0.0
 11
167.12550070384589
 21
131.5
 31
0.0
  0
LINE
  5
5409
  8
0
 10
166.66330120195971
 20
132.0
 30
0.0
 11
167.12550070384589
 21
131.5
 31
0.0
  0
LINE
  5
540B
  8
0
 10
167.12550070384589
 20
116.0
 30
0.0
 11
166.92476143667031
 21
116.2171572875254
 31
0.0
  0
LINE
  5
540D
  8
0
 10
167.12550070384589
 20
117.0
 30
0.0
 11
167.12550070384589
 21
131.5
 31
0.0
  0
LINE
  5
540E
  8
0
 10
166.92476143667031
 20
116.7828427124746
 30
0.0
 11
167.12550070384589
 21
117.0
 31
0.0
  0
ARC
  5
540F
  8
0
 10
167.23703146045611
 20
116.5
 30
0.0
 40
0.4213224035761494
 50
137.8308729348467
 51
222.16912706515311
  0
LINE
  5
5410
  8
0
 10
167.12550070384589
 20
117.0
 30
0.0
 11
170.0
 21
117.0
 31
0.0
  0
LINE
  5
5412
  8
0
 10
111.0
 20
92.5
 30
0.0
 11
139.0
 21
92.5
 31
0.0
  0
LINE
  5
5413
  8
0
 10
138.5
 20
92.0
 30
0.0
 11
111.5
 21
92.0
 31
0.0
  0
LINE
  5
541F
  8
2
 10
120.75
 20
110.5
 30
0.0
 11
129.25
 21
110.5
 31
0.0
  0
POLYLINE
  5
543C
  8
2
 66
     1
 10
0.0
 20
0.0
 30
0.0
 70
   128
  0
VERTEX
  5
65AD
  8
2
 10
159.82421875
 20
102.0
 30
0.0
  0
VERTEX
  5
65AE
  8
2
 10
160.39758819151069
 20
101.9345405174036
 30
0.0
  0
VERTEX
  5
65AF
  8
2
 10
160.83450434335859
 20
101.7927828795749
 30
0.0
  0
VERTEX
  5
65B0
  8
2
 10
161.1121780255024
 20
101.6536602129739
 30
0.0
  0
VERTEX
  5
65B1
  8
2
 10
161.1999981351307
 20
101.6000011910136
 30
0.0
  0
VERTEX
  5
65B2
  8
2
 10
161.19959250398171
 20
101.6002495577318
 30
0.0
  0
SEQEND
  5
65B3
  8
2
  0
LINE
  5
543D
  8
2
 10
90.17578125
 20
102.0
 30
0.0
 11
108.0
 21
102.0
 31
0.0
  0
ARC
  5
543E
  8
2
 10
90.173456672886644
 20
99.442083238705337
 30
0.0
 40
2.557917817556123
 50
89.947930900999694
 51
122.46437180892841
  0
LINE
  5
545D
  8
2
 10
115.5
 20
105.0
 30
0.0
 11
134.5
 21
105.0
 31
0.0
  0
LINE
  5
547A
  8
2
 10
100.0
 20
107.5
 30
0.0
 11
89.0
 21
107.5
 31
0.0
  0
LINE
  5
5481
  8
2
 10
161.0
 20
107.5
 30
0.0
 11
150.0
 21
107.5
 31
0.0
  0
LINE
  5
5486
  8
2
 10
113.0
 20
111.0
 30
0.0
 11
137.0
 21
111.0
 31
0.0
  0
ARC
  5
549D
  8
2
 10
123.0778118556947
 20
104.00451757261349
 30
0.0
 40
6.900000000000011
 50
109.71635809937879
 51
171.7048281756249
  0
ARC
  5
549E
  8
2
 10
126.9221881443053
 20
104.00451757261349
 30
0.0
 40
6.899999999999987
 50
8.2951718243750783
 51
70.283641900621134
  0
LINE
  5
54AF
  8
2
 10
88.0
 20
100.0
 30
0.0
 11
87.999999999999943
 21
97.0
 31
0.0
  0
LINE
  5
54B0
  8
2
 10
162.0
 20
97.0
 30
0.0
 11
162.0
 21
100.0
 31
0.0
  0
ARC
  5
54B1
  8
2
 10
90.0
 20
100.0
 30
0.0
 40
2.0
 50
126.8709942576812
 51
180.0
  0
ARC
  5
54B2
  8
2
 10
160.0
 20
100.0
 30
0.0
 40
2.0000000000000022
 50
0.0
 51
53.114494273746821
  0
ARC
  5
54C1
  8
2
 10
108.0
 20
99.0
 30
0.0
 40
3.0
 50
0.0
 51
90.0
  0
ARC
  5
54C2
  8
2
 10
142.0
 20
99.0
 30
0.0
 40
3.0
 50
90.0
 51
180.0
  0
LINE
  5
54C3
  8
2
 10
111.0
 20
99.0
 30
0.0
 11
111.0
 21
95.0
 31
0.0
  0
LINE
  5
54C4
  8
2
 10
139.0
 20
95.0
 30
0.0
 11
139.0
 21
99.0
 31
0.0
  0
ARC
  5
54C5
  8
2
 10
115.5
 20
106.0
 30
0.0
 40
1.0
 50
180.0
 51
270.0
  0
ARC
  5
54C6
  8
2
 10
134.5
 20
106.0
 30
0.0
 40
1.0
 50
270.0
 51
0.0
  0
LINE
  5
54C7
  8
2
 10
114.5
 20
111.0
 30
0.0
 11
114.5
 21
106.0
 31
0.0
  0
LINE
  5
54C8
  8
2
 10
135.5
 20
106.0
 30
0.0
 11
135.5
 21
111.0
 31
0.0
  0
LINE
  5
54D1
  8
2
 10
161.0
 20
101.70986469703389
 30
0.0
 11
161.0
 21
107.5
 31
0.0
  0
LINE
  5
54D2
  8
2
 10
89.0
 20
107.5
 30
0.0
 11
89.0
 21
101.7149543301288
 31
0.0
  0
LINE
  5
54D3
  8
2
 10
100.0
 20
102.0
 30
0.0
 11
100.0
 21
107.5
 31
0.0
  0
LINE
  5
54D4
  8
2
 10
150.0
 20
107.5
 30
0.0
 11
150.0
 21
102.0
 31
0.0
  0
LINE
  5
54D7
  8
2
 10
112.5
 20
132.0
 30
0.0
 11
112.5
 21
116.0
 31
0.0
  0
LINE
  5
54D8
  8
2
 10
137.5
 20
116.0
 30
0.0
 11
137.5
 21
132.0
 31
0.0
  0
LINE
  5
54D9
  8
2
 10
113.0
 20
116.0
 30
0.0
 11
113.0
 21
111.0
 31
0.0
  0
LINE
  5
54DA
  8
2
 10
137.0
 20
111.0
 30
0.0
 11
137.0
 21
116.0
 31
0.0
  0
LINE
  5
54EA
  8
0
 10
124.9999999999862
 20
230.46410161514439
 30
0.0
 11
127.9999999999862
 21
228.73205080757549
 31
0.0
  0
LINE
  5
54EC
  8
0
 10
121.9999999999862
 20
228.73205080757549
 30
0.0
 11
124.9999999999862
 21
230.46410161514439
 31
0.0
  0
LINE
  5
54EE
  8
0
 10
124.9999999999862
 20
223.53589838486889
 30
0.0
 11
121.9999999999862
 21
225.26794919243781
 31
0.0
  0
LINE
  5
54F0
  8
0
 10
127.9999999999862
 20
225.26794919243781
 30
0.0
 11
124.9999999999862
 21
223.53589838486889
 31
0.0
  0
LINE
  5
54F1
  8
0
 10
121.9999999999862
 20
225.26794919243781
 30
0.0
 11
121.9999999999862
 21
228.73205080757549
 31
0.0
  0
LINE
  5
54F4
  8
0
 10
127.9999999999862
 20
228.73205080757549
 30
0.0
 11
127.9999999999862
 21
225.26794919243781
 31
0.0
  0
CIRCLE
  5
54F5
  8
0
 10
124.9999999999862
 20
227.00000000000659
 30
0.0
 40
8.75
  0
ARC
  5
54FA
  8
0
 10
124.9999999999862
 20
227.00000000000659
 30
0.0
 40
44.499999999999957
 50
69.431684331506588
 51
110.5683156685008
  0
ARC
  5
54FB
  8
0
 10
124.9999999999862
 20
227.00000000000659
 30
0.0
 40
12.50000000000002
 50
74.392102579346499
 51
105.6078974206535
  0
LINE
  5
54FC
  8
0
 10
109.1746345871383
 20
269.12550070384208
 30
0.0
 11
122.4088564103259
 21
237.17526289084941
 31
0.0
  0
LINE
  5
54FD
  8
0
 10
140.8253654128371
 20
269.12550070385129
 30
0.0
 11
127.59114358964629
 21
237.1752628908495
 31
0.0
  0
ARC
  5
54FE
  8
0
 10
124.9999999999862
 20
227.00000000000659
 30
0.0
 40
44.499999999999972
 50
114.4316843315011
 51
155.5683156684988
  0
ARC
  5
5504
  8
0
 10
124.9999999999862
 20
227.00000000000659
 30
0.0
 40
44.499999999999979
 50
24.431684331501149
 51
65.568315668498883
  0
LINE
  5
5506
  8
0
 10
84.022549593249764
 20
245.59700401038631
 30
0.0
 11
115.97278740623869
 21
232.36278218720079
 31
0.0
  0
ARC
  5
5507
  8
0
 10
124.9999999999862
 20
227.00000000000659
 30
0.0
 40
12.5
 50
119.39210257934531
 51
150.60789742065469
  0
LINE
  5
5508
  8
0
 10
119.6372178127921
 20
236.027212593754
 30
0.0
 11
106.4029959896048
 21
267.97745040674619
 31
0.0
  0
ARC
  5
5509
  8
0
 10
124.9999999999862
 20
227.00000000000659
 30
0.0
 40
12.49999999999998
 50
29.392102579345242
 51
60.60789742065468
  0
LINE
  5
550A
  8
0
 10
165.97745040674559
 20
245.59700401039629
 30
0.0
 11
134.02721259373379
 21
232.36278218720071
 31
0.0
  0
LINE
  5
550B
  8
0
 10
143.59700401037119
 20
267.97745040675699
 30
0.0
 11
130.3627821871803
 21
236.02721259375409
 31
0.0
  0
ARC
  5
550F
  8
0
 10
124.9999999999862
 20
227.00000000000659
 30
0.0
 40
44.499999999999957
 50
339.43168433150657
 51
20.56831566849338
  0
ARC
  5
5510
  8
0
 10
124.9999999999862
 20
227.00000000000659
 30
0.0
 40
12.500000000000011
 50
344.39210257934661
 51
15.60789742065338
  0
LINE
  5
5511
  8
0
 10
167.1255007038462
 20
211.1746345871494
 30
0.0
 11
135.17526289082909
 21
224.40885641034649
 31
0.0
  0
LINE
  5
5512
  8
0
 10
167.12550070384171
 20
242.82536541286279
 30
0.0
 11
135.17526289082909
 21
229.59114358966681
 31
0.0
  0
LINE
  5
5513
  8
0
 10
82.874499296154454
 20
242.82536541285251
 30
0.0
 11
114.8247371091435
 21
229.5911435896669
 31
0.0
  0
ARC
  5
5514
  8
0
 10
124.9999999999862
 20
227.00000000000659
 30
0.0
 40
12.499999999999989
 50
164.39210257934661
 51
195.6078974206533
  0
LINE
  5
5515
  8
0
 10
82.874499296150205
 20
211.17463458715881
 30
0.0
 11
114.8247371091435
 21
224.40885641034629
 31
0.0
  0
ARC
  5
5516
  8
0
 10
124.9999999999862
 20
227.00000000000659
 30
0.0
 40
44.499999999999957
 50
159.4316843315066
 51
200.56831566850059
  0
ARC
  5
551A
  8
0
 10
124.9999999999862
 20
227.00000000000659
 30
0.0
 40
12.5
 50
209.39210257934531
 51
240.60789742065469
  0
LINE
  5
551B
  8
0
 10
106.4029959896006
 20
186.02254959325569
 30
0.0
 11
119.6372178127923
 21
217.97278740625899
 31
0.0
  0
ARC
  5
551C
  8
0
 10
124.9999999999862
 20
227.00000000000659
 30
0.0
 40
44.499999999999979
 50
204.43168433150109
 51
245.56831566849891
  0
LINE
  5
551D
  8
0
 10
84.022549593244776
 20
208.40299598962471
 30
0.0
 11
115.97278740623879
 21
221.63721781281239
 31
0.0
  0
LINE
  5
551E
  8
0
 10
165.97745040675099
 20
208.40299598961539
 30
0.0
 11
134.02721259373379
 21
221.63721781281251
 31
0.0
  0
ARC
  5
551F
  8
0
 10
124.9999999999862
 20
227.00000000000659
 30
0.0
 40
44.499999999999972
 50
294.43168433150112
 51
335.56831566849883
  0
LINE
  5
5520
  8
0
 10
143.59700401037651
 20
186.02254959324529
 30
0.0
 11
130.36278218718019
 21
217.97278740625899
 31
0.0
  0
ARC
  5
5521
  8
0
 10
124.9999999999862
 20
227.00000000000659
 30
0.0
 40
12.500000000000011
 50
299.39210257934531
 51
330.60789742065458
  0
ARC
  5
5522
  8
0
 10
124.9999999999862
 20
227.00000000000659
 30
0.0
 40
12.49999999999998
 50
254.39210257934661
 51
285.6078974206535
  0
ARC
  5
5523
  8
0
 10
124.9999999999862
 20
227.00000000000659
 30
0.0
 40
44.499999999999972
 50
249.4316843315066
 51
290.5683156685007
  0
LINE
  5
5524
  8
0
 10
109.17463458713409
 20
184.8744992961594
 30
0.0
 11
122.40885641032609
 21
216.82473710916369
 31
0.0
  0
LINE
  5
5525
  8
0
 10
140.82536541284239
 20
184.8744992961507
 30
0.0
 11
127.59114358964641
 21
216.82473710916381
 31
0.0
  0
ARC
  5
552F
  8
0
 10
124.9999999999862
 20
227.00000000000659
 30
0.0
 40
12.000000000000011
 50
74.680755781458714
 51
105.3192442185413
  0
ARC
  5
5532
  8
0
 10
124.9999999999862
 20
227.00000000000659
 30
0.0
 40
12.000000000000011
 50
29.680755781459439
 51
60.319244218540462
  0
ARC
  5
5535
  8
0
 10
124.9999999999862
 20
227.00000000000659
 30
0.0
 40
11.999999999999989
 50
119.6807557814595
 51
150.31924421854049
  0
ARC
  5
5538
  8
0
 10
124.9999999999862
 20
227.00000000000659
 30
0.0
 40
11.999999999999989
 50
164.68075578145849
 51
195.31924421854129
  0
ARC
  5
553B
  8
0
 10
124.9999999999862
 20
227.00000000000659
 30
0.0
 40
12.00000000000002
 50
344.68075578145852
 51
15.319244218541471
  0
ARC
  5
553E
  8
0
 10
124.9999999999862
 20
227.00000000000659
 30
0.0
 40
12.0
 50
209.6807557814594
 51
240.3192442185404
  0
ARC
  5
5541
  8
0
 10
124.9999999999862
 20
227.00000000000659
 30
0.0
 40
11.999999999999989
 50
299.68075578145948
 51
330.31924421854052
  0
ARC
  5
5544
  8
0
 10
124.9999999999862
 20
227.00000000000659
 30
0.0
 40
12.0
 50
254.68075578145871
 51
285.31924421854131
  0
LINE
  5
55A1
  8
2
 10
92.999999999986244
 20
231.00000000000659
 30
0.0
 11
95.999999999986244
 21
231.00000000000659
 31
0.0
  0
ARC
  5
55A2
  8
2
 10
92.999999999986244
 20
227.00000000000659
 30
0.0
 40
4.0
 50
90.0
 51
270.0
  0
ARC
  5
55A3
  8
2
 10
156.99999999998619
 20
227.00000000000659
 30
0.0
 40
4.0
 50
270.0
 51
90.0
  0
LINE
  5
55A4
  8
2
 10
153.99999999998619
 20
231.00000000000659
 30
0.0
 11
156.99999999998619
 21
231.00000000000659
 31
0.0
  0
ARC
  5
55A5
  8
2
 10
95.999999999986244
 20
227.00000000000659
 30
0.0
 40
4.0
 50
270.0
 51
90.0
  0
ARC
  5
55A6
  8
2
 10
153.99999999998619
 20
227.00000000000659
 30
0.0
 40
4.0
 50
90.0
 51
270.0
  0
LINE
  5
55A7
  8
2
 10
156.99999999998619
 20
223.00000000000659
 30
0.0
 11
153.99999999998619
 21
223.00000000000659
 31
0.0
  0
LINE
  5
55A8
  8
2
 10
95.999999999986244
 20
223.00000000000659
 30
0.0
 11
92.999999999986244
 21
223.00000000000659
 31
0.0
  0
LINE
  5
5AFF
  8
0
 10
244.0
 20
185.5
 30
0.0
 11
244.0
 21
189.5
 31
0.0
  0
LINE
  5
5B00
  8
0
 10
220.0
 20
189.5
 30
0.0
 11
220.0
 21
185.5
 31
0.0
  0
LINE
  5
5B01
  8
0
 10
220.0
 20
185.5
 30
0.0
 11
220.5
 21
185.0
 31
0.0
  0
LINE
  5
5B02
  8
0
 10
243.5
 20
185.0
 30
0.0
 11
244.0
 21
185.5
 31
0.0
  0
LINE
  5
5B03
  8
0
 10
244.0
 20
189.5
 30
0.0
 11
243.5
 21
190.0
 31
0.0
  0
LINE
  5
5B04
  8
0
 10
220.5
 20
190.0
 30
0.0
 11
220.0
 21
189.5
 31
0.0
  0
LINE
  5
5B05
  8
0
 10
244.0
 20
189.5
 30
0.0
 11
220.0
 21
189.5
 31
0.0
  0
LINE
  5
5B08
  8
0
 10
220.0
 20
185.5
 30
0.0
 11
244.0
 21
185.5
 31
0.0
  0
LINE
  5
5B09
  8
0
 10
243.5
 20
185.0
 30
0.0
 11
220.5
 21
185.0
 31
0.0
  0
LINE
  5
5B0C
  8
0
 10
220.5
 20
190.0
 30
0.0
 11
243.5
 21
190.0
 31
0.0
  0
CIRCLE
  5
5B17
  8
0
 10
232.0
 20
227.0
 30
0.0
 40
11.5
  0
CIRCLE
  5
5B18
  8
0
 10
232.0
 20
227.0
 30
0.0
 40
12.0
  0
CIRCLE
  5
5B19
  8
3
 10
232.0
 20
227.0
 30
0.0
 40
3.0
  0
CIRCLE
  5
5B1A
  8
0
 10
232.0
 20
227.0
 30
0.0
 40
2.458500000000071
  0
LINE
  5
5F9A
  8
2
 10
229.0
 20
185.4585000000001
 30
0.0
 11
228.99999999999989
 21
189.54150000000001
 31
0.0
  0
LINE
  5
5F9B
  8
2
 10
229.5414999999999
 20
186.0
 30
0.0
 11
229.5414999999999
 21
189.0
 31
0.0
  0
LINE
  5
5F9C
  8
2
 10
234.4585000000001
 20
186.0
 30
0.0
 11
234.4585000000001
 21
189.0
 31
0.0
  0
LINE
  5
5F9D
  8
2
 10
235.0
 20
185.4585000000001
 30
0.0
 11
234.99999999999989
 21
189.54149999999979
 31
0.0
  0
LINE
  5
5FA4
  8
2
 10
228.5414999999999
 20
185.0
 30
0.0
 11
229.5414999999999
 21
186.0
 31
0.0
  0
LINE
  5
5FA5
  8
2
 10
234.4585000000001
 20
186.0
 30
0.0
 11
235.45850000000021
 21
185.0
 31
0.0
  0
LINE
  5
5FA6
  8
2
 10
229.5414999999999
 20
186.0
 30
0.0
 11
234.4585000000001
 21
186.0
 31
0.0
  0
LINE
  5
5FA7
  8
2
 10
228.5414999999999
 20
190.0
 30
0.0
 11
229.5414999999999
 21
189.0
 31
0.0
  0
LINE
  5
5FA8
  8
2
 10
234.4585000000001
 20
189.0
 30
0.0
 11
235.45850000000021
 21
190.0
 31
0.0
  0
LINE
  5
5FA9
  8
2
 10
229.5414999999999
 20
189.0
 30
0.0
 11
234.4585000000001
 21
189.0
 31
0.0
  0
LINE
  5
6049
  8
1
 10
232.0
 20
242.0
 30
0.0
 11
232.0
 21
212.0
 31
0.0
  0
LINE
  5
604A
  8
1
 10
247.0
 20
227.0
 30
0.0
 11
217.0
 21
227.0
 31
0.0
  0
LINE
  5
604E
  8
1
 10
232.0
 20
193.0
 30
0.0
 11
232.0
 21
182.0
 31
0.0
  0
LINE
  5
61C4
  8
2
 10
142.0
 20
102.0
 30
0.0
 11
159.82421875
 21
102.0
 31
0.0
  0
LINE
  5
61D1
  8
0
 10
130.0
 20
92.0
 30
0.0
 11
130.0
 21
81.5
 31
0.0
  0
LINE
  5
61D2
  8
3
 10
129.1880000000001
 20
92.0
 30
0.0
 11
129.1880000000001
 21
80.688000000000102
 31
0.0
  0
LINE
  5
61D3
  8
3
 10
120.8119999999999
 20
92.0
 30
0.0
 11
120.8119999999999
 21
80.688000000000102
 31
0.0
  0
LINE
  5
61D4
  8
0
 10
120.0
 20
92.0
 30
0.0
 11
120.0
 21
81.5
 31
0.0
  0
LINE
  5
61D7
  8
0
 10
130.0
 20
81.5
 30
0.0
 11
120.0
 21
81.5
 31
0.0
  0
LINE
  5
61D8
  8
2
 10
120.8119999999999
 20
102.0
 30
0.0
 11
120.0
 21
103.4064252557457
 31
0.0
  0
LINE
  5
61D9
  8
2
 10
129.1880000000001
 20
101.9999999999999
 30
0.0
 11
130.0
 21
103.4064252557457
 31
0.0
  0
LINE
  5
61DA
  8
2
 10
130.0
 20
101.9999999999999
 30
0.0
 11
120.0
 21
102.0
 31
0.0
  0
LINE
  5
61DB
  8
0
 10
121.5
 20
80.0
 30
0.0
 11
120.0
 21
81.5
 31
0.0
  0
LINE
  5
61DC
  8
0
 10
130.0
 20
81.5
 30
0.0
 11
128.5
 21
80.0
 31
0.0
  0
LINE
  5
61DD
  8
2
 10
130.0
 20
105.0
 30
0.0
 11
129.99999999999989
 21
92.0
 31
0.0
  0
LINE
  5
61DE
  8
2
 10
129.1880000000001
 20
101.9999999999999
 30
0.0
 11
129.1880000000001
 21
92.0
 31
0.0
  0
LINE
  5
61DF
  8
2
 10
120.8119999999999
 20
102.0
 30
0.0
 11
120.8119999999999
 21
92.0
 31
0.0
  0
LINE
  5
61E0
  8
2
 10
120.0
 20
105.0
 30
0.0
 11
119.9999999999999
 21
92.0
 31
0.0
  0
LINE
  5
61E1
  8
0
 10
128.5
 20
80.0
 30
0.0
 11
121.5
 21
80.0
 31
0.0
  0
LINE
  5
622E
  8
2
 10
112.5
 20
116.0
 30
0.0
 11
137.5
 21
116.0
 31
0.0
  0
LINE
  5
622F
  8
1
 10
125.0
 20
137.0
 30
0.0
 11
125.0
 21
75.0
 31
0.0
  0
LINE
  5
6230
  8
1
 10
96.0
 20
100.0
 30
0.0
 11
96.0
 21
109.5
 31
0.0
  0
LINE
  5
6232
  8
1
 10
157.0
 20
109.5
 30
0.0
 11
157.0
 21
100.0
 31
0.0
  0
LINE
  5
6233
  8
1
 10
154.0
 20
109.5
 30
0.0
 11
154.0
 21
100.0
 31
0.0
  0
LINE
  5
6234
  8
1
 10
93.0
 20
100.0
 30
0.0
 11
93.0
 21
109.5
 31
0.0
  0
CIRCLE
  5
62D1
  8
0
 10
125.0
 20
227.0
 30
0.0
 40
45.0
  0
CIRCLE
  5
6374
  8
0
 10
124.9999999999862
 20
227.00000000000659
 30
0.0
 40
10.5
  0
LINE
  5
6376
  8
1
 10
124.9999999999862
 20
277.0
 30
0.0
 11
124.9999999999862
 21
177.0
 31
0.0
  0
LINE
  5
6377
  8
1
 10
92.999999999986244
 20
233.00000000000659
 30
0.0
 11
92.999999999986244
 21
221.00000000000659
 31
0.0
  0
LINE
  5
6378
  8
1
 10
95.999999999986244
 20
233.00000000000659
 30
0.0
 11
95.999999999986244
 21
221.00000000000659
 31
0.0
  0
LINE
  5
6379
  8
1
 10
153.99999999998619
 20
233.00000000000659
 30
0.0
 11
153.99999999998619
 21
221.00000000000659
 31
0.0
  0
LINE
  5
637A
  8
1
 10
156.99999999998619
 20
233.00000000000659
 30
0.0
 11
156.99999999998619
 21
221.00000000000659
 31
0.0
  0
LINE
  5
637B
  8
1
 10
175.0
 20
227.00000000000659
 30
0.0
 11
75.0
 21
227.00000000000659
 31
0.0
  0
ENDSEC
  0
EOF
