  0
SECTION
  2
HEADER
  9
$ACADVER
  1
AC1009
  9
$INSBASE
 10
0.0
 20
0.0
 30
0.0
  9
$EXTMIN
 10
0.0
 20
-2.960436562073669
 30
0.0
  9
$EXTMAX
 10
194.99999999999989
 20
279.5
 30
0.0
  9
$LIMMIN
 10
0.0
 20
0.0
  9
$LIMMAX
 10
12.0
 20
9.0
  9
$ORTHOMODE
 70
     1
  9
$REGENMODE
 70
     1
  9
$FILLMODE
 70
     1
  9
$QTEXTMODE
 70
     0
  9
$MIRRTEXT
 70
     0
  9
$DRAGMODE
 70
     2
  9
$LTSCALE
 40
5.0
  9
$OSMODE
 70
    37
  9
$ATTMODE
 70
     1
  9
$TEXTSIZE
 40
0.2
  9
$TRACEWID
 40
0.05
  9
$TEXTSTYLE
  7
STANDARD
  9
$CLAYER
  8
0
  9
$CELTYPE
  6
BYLAYER
  9
$CECOLOR
 62
   256
  9
$DIMSCALE
 40
1.0
  9
$DIMASZ
 40
0.18
  9
$DIMEXO
 40
0.0625
  9
$DIMDLI
 40
0.38
  9
$DIMRND
 40
0.0
  9
$DIMDLE
 40
0.0
  9
$DIMEXE
 40
0.18
  9
$DIMTP
 40
0.0
  9
$DIMTM
 40
0.0
  9
$DIMTXT
 40
2.6000000000000001
  9
$DIMCEN
 40
0.09
  9
$DIMTSZ
 40
0.0
  9
$DIMTOL
 70
     0
  9
$DIMLIM
 70
     0
  9
$DIMTIH
 70
     0
  9
$DIMTOH
 70
     0
  9
$DIMSE1
 70
     0
  9
$DIMSE2
 70
     0
  9
$DIMTAD
 70
     1
  9
$DIMZIN
 70
     8
  9
$DIMBLK
  1

  9
$DIMASO
 70
     1
  9
$DIMSHO
 70
     1
  9
$DIMPOST
  1

  9
$DIMAPOST
  1

  9
$DIMALT
 70
     0
  9
$DIMALTD
 70
     2
  9
$DIMALTF
 40
25.399999999999999
  9
$DIMLFAC
 40
1.0
  9
$DIMTOFL
 70
     0
  9
$DIMTVP
 40
0.0
  9
$DIMTIX
 70
     0
  9
$DIMSOXD
 70
     0
  9
$DIMSAH
 70
     0
  9
$DIMBLK1
  1

  9
$DIMBLK2
  1

  9
$DIMSTYLE
  2
STANDARD
  9
$DIMCLRD
 70
     0
  9
$DIMCLRE
 70
     0
  9
$DIMCLRT
 70
     0
  9
$DIMTFAC
 40
1.0
  9
$DIMGAP
 40
0.09
  9
$LUNITS
 70
     2
  9
$LUPREC
 70
     1
  9
$SKETCHINC
 40
0.1
  9
$FILLETRAD
 40
0.0
  9
$AUNITS
 70
     0
  9
$AUPREC
 70
     0
  9
$MENU
  1
.
  9
$ELEVATION
 40
0.0
  9
$PELEVATION
 40
0.0
  9
$THICKNESS
 40
0.0
  9
$LIMCHECK
 70
     0
  9
$BLIPMODE
 70
     0
  9
$CHAMFERA
 40
0.0
  9
$CHAMFERB
 40
0.0
  9
$SKPOLY
 70
     0
  9
$TDCREATE
 40
2453083.4120647679
  9
$TDUPDATE
 40
2456927.694685718
  9
$TDINDWG
 40
0.6781296412
  9
$TDUSRTIMER
 40
0.6781295255000001
  9
$USRTIMER
 70
     1
  9
$ANGBASE
 50
0.0
  9
$ANGDIR
 70
     0
  9
$PDMODE
 70
     0
  9
$PDSIZE
 40
0.0
  9
$PLINEWID
 40
0.0
  9
$COORDS
 70
     1
  9
$SPLFRAME
 70
     0
  9
$SPLINETYPE
 70
     6
  9
$SPLINESEGS
 70
     8
  9
$ATTDIA
 70
     0
  9
$ATTREQ
 70
     1
  9
$HANDLING
 70
     1
  9
$HANDSEED
  5
6D4A
  9
$SURFTAB1
 70
     6
  9
$SURFTAB2
 70
     6
  9
$SURFTYPE
 70
     6
  9
$SURFU
 70
     6
  9
$SURFV
 70
     6
  9
$UCSNAME
  2

  9
$UCSORG
 10
0.0
 20
0.0
 30
0.0
  9
$UCSXDIR
 10
1.0
 20
0.0
 30
0.0
  9
$UCSYDIR
 10
0.0
 20
1.0
 30
0.0
  9
$PUCSNAME
  2

  9
$PUCSORG
 10
0.0
 20
0.0
 30
0.0
  9
$PUCSXDIR
 10
1.0
 20
0.0
 30
0.0
  9
$PUCSYDIR
 10
0.0
 20
1.0
 30
0.0
  9
$USERI1
 70
     0
  9
$USERI2
 70
     1
  9
$USERI3
 70
     0
  9
$USERI4
 70
     0
  9
$USERI5
 70
     0
  9
$USERR1
 40
0.0
  9
$USERR2
 40
0.0
  9
$USERR3
 40
0.0
  9
$USERR4
 40
0.0
  9
$USERR5
 40
0.0
  9
$WORLDVIEW
 70
     1
  9
$SHADEDGE
 70
     3
  9
$SHADEDIF
 70
    70
  9
$TILEMODE
 70
     1
  9
$MAXACTVP
 70
    64
  9
$PLIMCHECK
 70
     0
  9
$PEXTMIN
 10
0.0
 20
0.0
 30
0.0
  9
$PEXTMAX
 10
0.0
 20
0.0
 30
0.0
  9
$PLIMMIN
 10
0.0
 20
0.0
  9
$PLIMMAX
 10
12.0
 20
9.0
  9
$UNITMODE
 70
     0
  9
$VISRETAIN
 70
     1
  9
$PLINEGEN
 70
     0
  9
$PSLTSCALE
 70
     1
  0
ENDSEC
  0
SECTION
  2
TABLES
  0
TABLE
  2
VPORT
 70
     1
  0
VPORT
  2
*ACTIVE
 70
     0
 10
0.0
 20
0.0
 11
1.0
 21
1.0
 12
314.18636995827541
 22
180.0
 13
0.0
 23
0.0
 14
0.5
 24
0.5
 15
0.5
 25
0.5
 16
0.0
 26
0.0
 36
1.0
 17
0.0
 27
0.0
 37
0.0
 40
360.0
 41
1.7454798331015291
 42
50.0
 43
0.0
 44
0.0
 50
0.0
 51
0.0
 71
     0
 72
  1000
 73
     1
 74
     2
 75
     0
 76
     0
 77
     0
 78
     0
  0
ENDTAB
  0
TABLE
  2
LTYPE
 70
     4
  0
LTYPE
  2
CONTINUOUS
 70
     0
  3
Solid Line
 72
    65
 73
     0
 40
0.0
  0
LTYPE
  2
CENTER
 70
     0
  3
____ _ ____ _ ____ _ ____ _ ____ _ ____ _ ____
 72
    65
 73
     4
 40
2.0
 49
1.25
 49
-0.25
 49
0.25
 49
-0.25
  0
LTYPE
  2
PHANTOM2
 70
     0
  3
___ _ _ ___ _ _ ___ _ _ ___ _ _
 72
    65
 73
     6
 40
1.25
 49
0.625
 49
-0.125
 49
0.125
 49
-0.125
 49
0.125
 49
-0.125
  0
LTYPE
  2
HIDDEN
 70
     0
  3
Hidden __ __ __ __ __ __ __ __ __ __ __ __ __ __
 72
    65
 73
     2
 40
1.905
 49
1.27
 49
-0.635
  0
ENDTAB
  0
TABLE
  2
LAYER
 70
     4
  0
LAYER
  2
0
 70
     0
 62
     7
  6
CONTINUOUS
  0
LAYER
  2
1
 70
     0
 62
     1
  6
CENTER
  0
LAYER
  2
DEFPOINTS
 70
     0
 62
     7
  6
CONTINUOUS
  0
LAYER
  2
2
 70
     0
 62
     2
  6
HIDDEN
  0
ENDTAB
  0
TABLE
  2
STYLE
 70
     2
  0
STYLE
  2
STANDARD
 70
     0
 40
0.0
 41
1.0
 50
0.0
 71
     0
 42
0.2
  3
simplex.shx
  4
bigfont.shx
  0
STYLE
  2
STANDARD1
 70
     0
 40
0.0
 41
1.0
 50
0.0
 71
     0
 42
3.0
  3
txt
  4

  0
ENDTAB
  0
TABLE
  2
VIEW
 70
     0
  0
ENDTAB
  0
TABLE
  2
UCS
 70
     0
  0
ENDTAB
  0
TABLE
  2
APPID
 70
     5
  0
APPID
  2
ACAD
 70
     0
  0
APPID
  2
ACAD_MLEADERVER
 70
     0
  0
APPID
  2
ACAD_NAV_VCDISPLAY
 70
     0
  0
APPID
  2
ACAD_EXEMPT_FROM_CAD_STANDARDS
 70
     0
  0
APPID
  2
ACAD_DSTYLE_DIMRADIAL_EXTENSION
 70
     0
  0
ENDTAB
  0
TABLE
  2
DIMSTYLE
 70
     1
  0
DIMSTYLE
  2
STANDARD
 70
     0
  3

  4

  5

  6

  7

 40
1.0
 41
0.18
 42
0.0625
 43
0.38
 44
0.18
 45
0.0
 46
0.0
 47
0.0
 48
0.0
140
2.6000000000000001
141
0.09
142
0.0
143
25.399999999999999
144
1.0
145
0.0
146
1.0
147
0.09
 71
     0
 72
     0
 73
     0
 74
     0
 75
     0
 76
     0
 77
     1
 78
     8
170
     0
171
     2
172
     0
173
     0
174
     0
175
     0
176
     0
177
     0
178
     0
  0
ENDTAB
  0
ENDSEC
  0
SECTION
  2
BLOCKS
  0
BLOCK
  8
0
  2
$MODEL_SPACE
 70
     0
 10
0.0
 20
0.0
 30
0.0
  3
$MODEL_SPACE
  1

  0
ENDBLK
  5
21
  8
0
  0
BLOCK
 67
     1
  8
0
  2
$PAPER_SPACE
 70
     0
 10
0.0
 20
0.0
 30
0.0
  3
$PAPER_SPACE
  1

  0
ENDBLK
  5
5B
 67
     1
  8
0
  0
ENDSEC
  0
SECTION
  2
ENTITIES
  0
TEXT
  5
1F01
  8
0
 62
     3
 10
0.0
 20
0.0
 30
0.0
 40
10.0
  1
CP127-09001
  7
STANDARD1
  0
ARC
  5
6055
  8
0
 10
186.25
 20
104.4499999999999
 30
0.0
 40
1.5499999999999969
 50
270.0
 51
90.0
  0
ARC
  5
6056
  8
0
 10
103.75
 20
104.4499999999999
 30
0.0
 40
1.5499999999999969
 50
90.0
 51
270.0
  0
LINE
  5
6057
  8
0
 10
103.75
 20
102.89999999999991
 30
0.0
 11
186.25
 21
102.89999999999991
 31
0.0
  0
LINE
  5
6058
  8
0
 10
100.0
 20
118.5
 30
0.0
 11
100.0
 21
106.5
 31
0.0
  0
LINE
  5
6059
  8
0
 10
190.0
 20
106.5
 30
0.0
 11
190.0
 21
118.5
 31
0.0
  0
LINE
  5
605A
  8
0
 10
100.0
 20
106.5
 30
0.0
 11
100.5
 21
106.0
 31
0.0
  0
LINE
  5
605B
  8
0
 10
189.5
 20
106.0
 30
0.0
 11
190.0
 21
106.5
 31
0.0
  0
LINE
  5
605C
  8
0
 10
100.2171572875253
 20
118.7171572875254
 30
0.0
 11
100.0
 21
118.5
 31
0.0
  0
LINE
  5
605D
  8
0
 10
100.0
 20
134.0
 30
0.0
 11
100.0
 21
119.5
 31
0.0
  0
LINE
  5
605E
  8
0
 10
100.5
 20
134.5
 30
0.0
 11
100.0
 21
134.0
 31
0.0
  0
LINE
  5
605F
  8
0
 10
100.0
 20
119.5
 30
0.0
 11
100.2171572875253
 21
119.2828427124746
 31
0.0
  0
LINE
  5
6060
  8
0
 10
190.0
 20
118.5
 30
0.0
 11
189.7828427124746
 21
118.7171572875254
 31
0.0
  0
LINE
  5
6061
  8
0
 10
190.0
 20
119.5
 30
0.0
 11
190.0
 21
134.0
 31
0.0
  0
LINE
  5
6062
  8
0
 10
189.7828427124746
 20
119.2828427124746
 30
0.0
 11
190.0
 21
119.5
 31
0.0
  0
LINE
  5
6063
  8
0
 10
190.0
 20
134.0
 30
0.0
 11
189.5
 21
134.5
 31
0.0
  0
ARC
  5
6064
  8
0
 10
99.934314575050735
 20
119.0
 30
0.0
 40
0.3999999999999791
 50
315.00000000000023
 51
44.999999999999758
  0
ARC
  5
6065
  8
0
 10
190.06568542494909
 20
119.0
 30
0.0
 40
0.3999999999999992
 50
135.0000000000025
 51
224.9999999999998
  0
LINE
  5
6066
  8
0
 10
131.0
 20
100.5
 30
0.0
 11
131.5
 21
100.0
 31
0.0
  0
LINE
  5
6067
  8
0
 10
158.5
 20
100.0
 30
0.0
 11
159.0
 21
100.5
 31
0.0
  0
LINE
  5
6068
  8
0
 10
131.0
 20
102.89999999999991
 30
0.0
 11
131.0
 21
100.5
 31
0.0
  0
LINE
  5
6069
  8
0
 10
159.0
 20
100.5
 30
0.0
 11
159.0
 21
102.89999999999991
 31
0.0
  0
LINE
  5
606A
  8
0
 10
160.6339161106485
 20
134.5
 30
0.0
 11
160.8253654128518
 21
134.0
 31
0.0
  0
LINE
  5
606B
  8
0
 10
160.8253654128518
 20
134.0
 30
0.0
 11
129.17463458714829
 21
134.0
 31
0.0
  0
LINE
  5
606C
  8
0
 10
129.36608388935181
 20
134.5
 30
0.0
 11
129.17463458714829
 21
134.0
 31
0.0
  0
LINE
  5
606E
  8
0
 10
100.0
 20
118.5
 30
0.0
 11
102.8744992961541
 21
118.5
 31
0.0
  0
LINE
  5
606F
  8
0
 10
102.8744992961541
 20
110.5
 30
0.0
 11
102.8744992961541
 21
118.5
 31
0.0
  0
POLYLINE
  5
6070
  8
0
 66
     1
 10
0.0
 20
0.0
 30
0.0
 70
   128
  0
VERTEX
  5
6D2E
  8
0
 10
103.42542103699211
 20
109.0
 30
0.0
  0
VERTEX
  5
6D2F
  8
0
 10
103.2380043651299
 20
109.0845020408898
 30
0.0
  0
VERTEX
  5
6D30
  8
0
 10
103.075953837412
 20
109.3284568521686
 30
0.0
  0
VERTEX
  5
6D31
  8
0
 10
102.95536870747451
 20
109.7045188083962
 30
0.0
  0
VERTEX
  5
6D32
  8
0
 10
102.8874132807789
 20
110.17039262462259
 30
0.0
  0
VERTEX
  5
6D33
  8
0
 10
102.8744992961541
 20
110.5
 30
0.0
  0
SEQEND
  5
6D34
  8
0
  0
POLYLINE
  5
6071
  8
0
 66
     1
 10
0.0
 20
0.0
 30
0.0
 70
   128
  0
VERTEX
  5
6D35
  8
0
 10
104.02254959324939
 20
110.5
 30
0.0
  0
VERTEX
  5
6D36
  8
0
 10
103.9876817232027
 20
110.0036478694491
 30
0.0
  0
VERTEX
  5
6D37
  8
0
 10
103.887842934692
 20
109.5632575986893
 30
0.0
  0
VERTEX
  5
6D38
  8
0
 10
103.7363348518827
 20
109.2283044635725
 30
0.0
  0
VERTEX
  5
6D39
  8
0
 10
103.5526716143129
 20
109.036661726692
 30
0.0
  0
VERTEX
  5
6D3A
  8
0
 10
103.42542103699211
 20
109.0
 30
0.0
  0
SEQEND
  5
6D3B
  8
0
  0
LINE
  5
6072
  8
0
 10
104.02254959324939
 20
110.5
 30
0.0
 11
104.02254959324939
 21
118.5
 31
0.0
  0
LINE
  5
6073
  8
0
 10
104.02254959324939
 20
118.5
 30
0.0
 11
126.4029959896145
 21
118.5
 31
0.0
  0
LINE
  5
6074
  8
0
 10
126.4029959896145
 20
110.5
 30
0.0
 11
126.4029959896145
 21
118.5
 31
0.0
  0
ARC
  5
6075
  8
0
 10
127.8515323399867
 20
110.44767739247121
 30
0.0
 40
1.4494810152631781
 50
177.93131749559711
 51
267.14142714265631
  0
ARC
  5
6076
  8
0
 10
127.73086909986451
 20
110.44403950065541
 30
0.0
 40
1.4448495976256359
 50
271.91873548414242
 51
2.2196791991425431
  0
LINE
  5
6077
  8
0
 10
129.17463458714829
 20
110.5
 30
0.0
 11
129.17463458714829
 21
118.5
 31
0.0
  0
LINE
  5
6078
  8
0
 10
129.17463458714829
 20
118.5
 30
0.0
 11
160.8253654128518
 21
118.5
 31
0.0
  0
LINE
  5
6079
  8
0
 10
160.8253654128518
 20
110.5
 30
0.0
 11
160.8253654128518
 21
118.5
 31
0.0
  0
ARC
  5
607A
  8
0
 10
162.28563201663599
 20
110.45938981876959
 30
0.0
 40
1.4608311815356401
 50
178.40700840993591
 51
267.45457690678251
  0
ARC
  5
607B
  8
0
 10
162.16847586542221
 20
110.42931986995831
 30
0.0
 40
1.4302756174022899
 50
272.09470814868888
 51
2.8325472130624241
  0
LINE
  5
607C
  8
0
 10
163.59700401038569
 20
110.5
 30
0.0
 11
163.59700401038569
 21
118.5
 31
0.0
  0
LINE
  5
607D
  8
0
 10
163.59700401038569
 20
118.5
 30
0.0
 11
185.97745040675071
 21
118.5
 31
0.0
  0
LINE
  5
607E
  8
0
 10
185.97745040675071
 20
110.5
 30
0.0
 11
185.97745040675071
 21
118.5
 31
0.0
  0
POLYLINE
  5
607F
  8
0
 66
     1
 10
0.0
 20
0.0
 30
0.0
 70
   128
  0
VERTEX
  5
6D3C
  8
0
 10
186.57457896300789
 20
109.0
 30
0.0
  0
VERTEX
  5
6D3D
  8
0
 10
186.38210409132429
 20
109.0845020408898
 30
0.0
  0
VERTEX
  5
6D3E
  8
0
 10
186.20709443451219
 20
109.3284568521686
 30
0.0
  0
VERTEX
  5
6D3F
  8
0
 10
186.07131762586221
 20
109.7045188083962
 30
0.0
  0
VERTEX
  5
6D40
  8
0
 10
185.99259607307289
 20
110.17039262462259
 30
0.0
  0
VERTEX
  5
6D41
  8
0
 10
185.97745040675071
 20
110.5
 30
0.0
  0
SEQEND
  5
6D42
  8
0
  0
POLYLINE
  5
6080
  8
0
 66
     1
 10
0.0
 20
0.0
 30
0.0
 70
   128
  0
VERTEX
  5
6D43
  8
0
 10
187.125500703846
 20
110.5
 30
0.0
  0
VERTEX
  5
6D44
  8
0
 10
187.09569353619349
 20
110.0036478694491
 30
0.0
  0
VERTEX
  5
6D45
  8
0
 10
187.00881747786389
 20
109.5632575986893
 30
0.0
  0
VERTEX
  5
6D46
  8
0
 10
186.87250015932199
 20
109.2283044635725
 30
0.0
  0
VERTEX
  5
6D47
  8
0
 10
186.69959903737379
 20
109.036661726692
 30
0.0
  0
VERTEX
  5
6D48
  8
0
 10
186.57457896300789
 20
109.0
 30
0.0
  0
SEQEND
  5
6D49
  8
0
  0
LINE
  5
6081
  8
0
 10
187.125500703846
 20
110.5
 30
0.0
 11
187.125500703846
 21
118.5
 31
0.0
  0
LINE
  5
6082
  8
0
 10
187.125500703846
 20
118.5
 30
0.0
 11
190.0
 21
118.5
 31
0.0
  0
LINE
  5
6084
  8
0
 10
100.0000000000001
 20
106.5
 30
0.0
 11
190.0
 21
106.5
 31
0.0
  0
LINE
  5
6085
  8
0
 10
129.17463458714829
 20
119.5
 30
0.0
 11
129.17463458714829
 21
134.0
 31
0.0
  0
LINE
  5
6086
  8
0
 10
160.8253654128518
 20
119.5
 30
0.0
 11
160.8253654128518
 21
134.0
 31
0.0
  0
LINE
  5
6087
  8
0
 10
129.17463458714829
 20
119.5
 30
0.0
 11
160.8253654128518
 21
119.5
 31
0.0
  0
LINE
  5
6088
  8
0
 10
189.5
 20
106.0
 30
0.0
 11
100.5
 21
106.0
 31
0.0
  0
LINE
  5
608A
  8
0
 10
129.17463458714829
 20
118.5
 30
0.0
 11
129.25778351411321
 21
118.7171572875254
 31
0.0
  0
LINE
  5
608C
  8
0
 10
160.8253654128518
 20
118.5
 30
0.0
 11
160.7422164858869
 21
118.7171572875254
 31
0.0
  0
LINE
  5
608E
  8
0
 10
129.25778351411321
 20
119.2828427124746
 30
0.0
 11
129.17463458714829
 21
119.5
 31
0.0
  0
LINE
  5
608F
  8
0
 10
160.7422164858869
 20
119.2828427124746
 30
0.0
 11
160.8253654128518
 21
119.5
 31
0.0
  0
ARC
  5
6090
  8
0
 10
128.42994517035501
 20
119.0
 30
0.0
 40
0.8748235955874207
 50
341.13653980455359
 51
18.863460195449449
  0
ARC
  5
6091
  8
0
 10
161.57005482964661
 20
119.0
 30
0.0
 40
0.8748235955887924
 50
161.1365398045844
 51
198.8634601954156
  0
LINE
  5
6092
  8
0
 10
126.4029959896145
 20
119.5
 30
0.0
 11
126.4029959896145
 21
134.0
 31
0.0
  0
LINE
  5
6093
  8
0
 10
126.59444529181791
 20
134.5
 30
0.0
 11
126.4029959896145
 21
134.0
 31
0.0
  0
LINE
  5
6095
  8
0
 10
126.4029959896145
 20
118.5
 30
0.0
 11
126.48614491657951
 21
118.7171572875254
 31
0.0
  0
ARC
  5
6096
  8
0
 10
125.6583065728197
 20
119.0
 30
0.0
 40
0.8748235955888194
 50
341.13653980458741
 51
18.863460195415598
  0
LINE
  5
6097
  8
0
 10
126.48614491657951
 20
119.2828427124746
 30
0.0
 11
126.4029959896145
 21
119.5
 31
0.0
  0
LINE
  5
6099
  8
0
 10
104.223288860425
 20
119.2828427124746
 30
0.0
 11
104.02254959324939
 21
119.5
 31
0.0
  0
LINE
  5
609A
  8
0
 10
104.02254959324939
 20
119.5
 30
0.0
 11
126.4029959896145
 21
119.5
 31
0.0
  0
LINE
  5
609B
  8
0
 10
104.02254959324939
 20
119.5
 30
0.0
 11
104.02254959324939
 21
134.0
 31
0.0
  0
LINE
  5
609C
  8
0
 10
126.4029959896145
 20
134.0
 30
0.0
 11
104.02254959324939
 21
134.0
 31
0.0
  0
LINE
  5
609D
  8
0
 10
104.02254959324939
 20
118.5
 30
0.0
 11
104.223288860425
 21
118.7171572875254
 31
0.0
  0
LINE
  5
609F
  8
0
 10
104.4847490951356
 20
134.5
 30
0.0
 11
104.02254959324939
 21
134.0
 31
0.0
  0
LINE
  5
60A1
  8
0
 10
163.59700401038569
 20
118.5
 30
0.0
 11
163.51385508342079
 21
118.7171572875254
 31
0.0
  0
LINE
  5
60A3
  8
0
 10
163.40555470818239
 20
134.5
 30
0.0
 11
163.59700401038569
 21
134.0
 31
0.0
  0
LINE
  5
60A4
  8
0
 10
163.59700401038569
 20
119.5
 30
0.0
 11
163.59700401038569
 21
134.0
 31
0.0
  0
LINE
  5
60A5
  8
0
 10
163.51385508342079
 20
119.2828427124746
 30
0.0
 11
163.59700401038569
 21
119.5
 31
0.0
  0
ARC
  5
60A6
  8
0
 10
164.34169342717991
 20
119.0
 30
0.0
 40
0.8748235955882275
 50
161.1365398045711
 51
198.8634601954289
  0
LINE
  5
60A7
  8
0
 10
185.97745040675071
 20
134.0
 30
0.0
 11
163.59700401038569
 21
134.0
 31
0.0
  0
LINE
  5
60A8
  8
0
 10
185.97745040675071
 20
119.5
 30
0.0
 11
185.97745040675071
 21
134.0
 31
0.0
  0
LINE
  5
60A9
  8
0
 10
163.59700401038569
 20
119.5
 30
0.0
 11
185.97745040675071
 21
119.5
 31
0.0
  0
LINE
  5
60AB
  8
0
 10
185.7767111395751
 20
119.2828427124746
 30
0.0
 11
185.97745040675071
 21
119.5
 31
0.0
  0
LINE
  5
60AD
  8
0
 10
185.97745040675071
 20
118.5
 30
0.0
 11
185.7767111395751
 21
118.7171572875254
 31
0.0
  0
LINE
  5
60AE
  8
0
 10
185.5152509048645
 20
134.5
 30
0.0
 11
185.97745040675071
 21
134.0
 31
0.0
  0
ARC
  5
60B0
  8
0
 10
103.9110188366393
 20
119.0
 30
0.0
 40
0.4213224035760767
 50
317.83087293484442
 51
42.169127065157873
  0
ARC
  5
60B1
  8
0
 10
186.08898116336101
 20
119.0
 30
0.0
 40
0.4213224035762241
 50
137.83087293486039
 51
222.16912706513961
  0
LINE
  5
60B2
  8
0
 10
102.8744992961541
 20
118.5
 30
0.0
 11
103.0752385633298
 21
118.7171572875254
 31
0.0
  0
LINE
  5
60B3
  8
0
 10
102.8744992961541
 20
119.5
 30
0.0
 11
102.8744992961541
 21
134.0
 31
0.0
  0
LINE
  5
60B4
  8
0
 10
103.3366987980404
 20
134.5
 30
0.0
 11
102.8744992961541
 21
134.0
 31
0.0
  0
ARC
  5
60B6
  8
0
 10
102.76296853954371
 20
119.0
 30
0.0
 40
0.4213224035762872
 50
317.83087293486977
 51
42.169127065132557
  0
LINE
  5
60B7
  8
0
 10
103.0752385633298
 20
119.2828427124746
 30
0.0
 11
102.8744992961541
 21
119.5
 31
0.0
  0
LINE
  5
60B8
  8
0
 10
102.8744992961541
 20
134.0
 30
0.0
 11
100.0
 21
134.0
 31
0.0
  0
LINE
  5
60B9
  8
0
 10
100.0
 20
119.5
 30
0.0
 11
102.8744992961541
 21
119.5
 31
0.0
  0
LINE
  5
60BB
  8
0
 10
187.125500703846
 20
118.5
 30
0.0
 11
186.92476143667031
 21
118.7171572875254
 31
0.0
  0
LINE
  5
60BD
  8
0
 10
186.66330120195971
 20
134.5
 30
0.0
 11
187.125500703846
 21
134.0
 31
0.0
  0
LINE
  5
60BE
  8
0
 10
187.125500703846
 20
119.5
 30
0.0
 11
187.125500703846
 21
134.0
 31
0.0
  0
LINE
  5
60BF
  8
0
 10
186.92476143667031
 20
119.2828427124746
 30
0.0
 11
187.125500703846
 21
119.5
 31
0.0
  0
ARC
  5
60C0
  8
0
 10
187.23703146045619
 20
119.0
 30
0.0
 40
0.4213224035762241
 50
137.83087293486039
 51
222.16912706513961
  0
LINE
  5
60C1
  8
0
 10
190.0
 20
134.0
 30
0.0
 11
187.125500703846
 21
134.0
 31
0.0
  0
LINE
  5
60C2
  8
0
 10
187.125500703846
 20
119.5
 30
0.0
 11
190.0
 21
119.5
 31
0.0
  0
LINE
  5
60C3
  8
0
 10
100.5
 20
134.5
 30
0.0
 11
189.5
 21
134.5
 31
0.0
  0
LINE
  5
60C5
  8
0
 10
131.0
 20
100.5
 30
0.0
 11
159.0
 21
100.5
 31
0.0
  0
LINE
  5
60C6
  8
0
 10
158.5
 20
100.0
 30
0.0
 11
131.5
 21
100.0
 31
0.0
  0
LINE
  5
60DD
  8
2
 10
123.5
 20
108.0
 30
0.0
 11
108.5
 21
108.0
 31
0.0
  0
LINE
  5
60DE
  8
2
 10
181.50000000000011
 20
108.0
 30
0.0
 11
166.5
 21
108.0
 31
0.0
  0
LINE
  5
60E5
  8
2
 10
164.5
 20
104.5
 30
0.0
 11
125.5
 21
104.5
 31
0.0
  0
LINE
  5
60F9
  8
2
 10
136.5
 20
119.38887419299959
 30
0.0
 11
153.5
 21
119.38887419299959
 31
0.0
  0
LINE
  5
610D
  8
2
 10
180.0
 20
115.0
 30
0.0
 11
169.0
 21
115.0
 31
0.0
  0
LINE
  5
611C
  8
2
 10
121.0
 20
115.0
 30
0.0
 11
110.0
 21
115.0
 31
0.0
  0
LINE
  5
6133
  8
2
 10
107.5
 20
107.0
 30
0.0
 11
107.5
 21
106.0
 31
0.0
  0
LINE
  5
6134
  8
2
 10
182.5
 20
106.0
 30
0.0
 11
182.5
 21
107.0
 31
0.0
  0
ARC
  5
6135
  8
2
 10
108.5
 20
107.0
 30
0.0
 40
1.0
 50
90.0
 51
180.0
  0
ARC
  5
6136
  8
2
 10
181.5
 20
107.0
 30
0.0
 40
1.0
 50
0.0
 51
90.0
  0
ARC
  5
6143
  8
2
 10
123.5
 20
106.5
 30
0.0
 40
1.5
 50
0.0
 51
90.0
  0
ARC
  5
6144
  8
2
 10
166.5
 20
106.5
 30
0.0
 40
1.500000000000028
 50
90.0
 51
180.0
  0
LINE
  5
6145
  8
2
 10
125.0
 20
106.5
 30
0.0
 11
125.0
 21
105.0
 31
0.0
  0
LINE
  5
6146
  8
2
 10
165.0
 20
105.0
 30
0.0
 11
165.0
 21
106.5
 31
0.0
  0
LINE
  5
6147
  8
2
 10
125.0
 20
105.0
 30
0.0
 11
125.5
 21
104.5
 31
0.0
  0
LINE
  5
6148
  8
2
 10
164.5
 20
104.5
 30
0.0
 11
165.0
 21
105.0
 31
0.0
  0
ARC
  5
6149
  8
2
 10
130.0
 20
103.5
 30
0.0
 40
1.0
 50
0.0
 51
90.0
  0
ARC
  5
614A
  8
2
 10
160.0
 20
103.5
 30
0.0
 40
1.0
 50
90.0
 51
180.0
  0
LINE
  5
614B
  8
2
 10
131.0
 20
103.5
 30
0.0
 11
131.0
 21
102.89999999999991
 31
0.0
  0
LINE
  5
614C
  8
2
 10
159.0
 20
102.89999999999991
 30
0.0
 11
159.0
 21
103.5
 31
0.0
  0
LINE
  5
6151
  8
2
 10
136.5
 20
119.38887419299959
 30
0.0
 11
136.5
 21
100.0
 31
0.0
  0
LINE
  5
6152
  8
2
 10
153.5
 20
100.0
 30
0.0
 11
153.5
 21
119.38887419299959
 31
0.0
  0
LINE
  5
6159
  8
2
 10
180.0
 20
108.0
 30
0.0
 11
180.0
 21
115.0
 31
0.0
  0
LINE
  5
615A
  8
2
 10
121.0
 20
108.0
 30
0.0
 11
121.0
 21
115.0
 31
0.0
  0
LINE
  5
615B
  8
2
 10
169.0
 20
115.0
 30
0.0
 11
169.0
 21
108.0
 31
0.0
  0
LINE
  5
615C
  8
2
 10
110.0
 20
115.0
 30
0.0
 11
110.0
 21
108.0
 31
0.0
  0
LINE
  5
615D
  8
2
 10
131.0
 20
134.5
 30
0.0
 11
136.5
 21
119.38887419299959
 31
0.0
  0
LINE
  5
615E
  8
2
 10
153.5
 20
119.38887419299959
 30
0.0
 11
159.0
 21
134.5
 31
0.0
  0
ARC
  5
616D
  8
0
 10
144.99999999999989
 20
229.5
 30
0.0
 40
44.499999999999972
 50
69.431684331502638
 51
110.56831566849731
  0
ARC
  5
616E
  8
0
 10
144.99999999999989
 20
229.5
 30
0.0
 40
13.999999999999989
 50
73.650639827941546
 51
106.3493601720584
  0
ARC
  5
6173
  8
0
 10
144.99999999999989
 20
229.5
 30
0.0
 40
44.500000000000007
 50
24.43168433150133
 51
65.568315668498855
  0
ARC
  5
6175
  8
0
 10
144.99999999999989
 20
229.5
 30
0.0
 40
13.999999999999989
 50
28.650639827942271
 51
61.349360172061679
  0
ARC
  5
617B
  8
0
 10
144.99999999999989
 20
229.5
 30
0.0
 40
44.5
 50
114.4316843315039
 51
155.56831566849871
  0
ARC
  5
617C
  8
0
 10
144.99999999999989
 20
229.5
 30
0.0
 40
14.0
 50
118.6506398279422
 51
151.34936017205769
  0
ARC
  5
6182
  8
0
 10
144.99999999999989
 20
229.5
 30
0.0
 40
44.500000000000007
 50
339.43168433150231
 51
20.568315668500642
  0
ARC
  5
6183
  8
0
 10
144.99999999999989
 20
229.5
 30
0.0
 40
14.0
 50
343.65063982794169
 51
16.349360172061381
  0
ARC
  5
6187
  8
0
 10
144.99999999999989
 20
229.5
 30
0.0
 40
14.0
 50
163.65063982793771
 51
196.34936017205831
  0
ARC
  5
6189
  8
0
 10
144.99999999999989
 20
229.5
 30
0.0
 40
44.5
 50
159.4316843314993
 51
200.5683156684976
  0
LINE
  5
618E
  8
0
 10
129.17463458714789
 20
271.62550070384577
 30
0.0
 11
143.18405999199931
 21
237.80375589039949
 31
0.0
  0
LINE
  5
618F
  8
0
 10
160.82536541285171
 20
271.62550070384577
 30
0.0
 11
146.8159400080001
 21
237.80375589039949
 31
0.0
  0
LINE
  5
6191
  8
0
 10
185.97745040675019
 20
248.09700401038589
 30
0.0
 11
152.15570559330411
 21
234.0875786055343
 31
0.0
  0
LINE
  5
6192
  8
0
 10
163.59700401038501
 20
270.47745040675079
 30
0.0
 11
149.58757860553411
 21
236.6557055933043
 31
0.0
  0
LINE
  5
6194
  8
0
 10
104.0225495932492
 20
248.0970040103854
 30
0.0
 11
137.84429440669561
 21
234.0875786055343
 31
0.0
  0
LINE
  5
6195
  8
0
 10
126.4029959896139
 20
270.47745040675028
 30
0.0
 11
140.41242139446561
 21
236.65570559330419
 31
0.0
  0
LINE
  5
6197
  8
0
 10
102.8744992961541
 20
213.67463458714801
 30
0.0
 11
136.69624410960029
 21
227.6840599919997
 31
0.0
  0
LINE
  5
6198
  8
0
 10
102.874499296154
 20
245.32536541285151
 30
0.0
 11
136.69624410960029
 21
231.31594000800041
 31
0.0
  0
LINE
  5
619A
  8
0
 10
187.1255007038458
 20
213.67463458714829
 30
0.0
 11
153.30375589039929
 21
227.68405999199979
 31
0.0
  0
LINE
  5
619B
  8
0
 10
187.1255007038456
 20
245.32536541285191
 30
0.0
 11
153.30375589039929
 21
231.31594000800041
 31
0.0
  0
LINE
  5
619D
  8
0
 10
185.97745040675051
 20
210.90299598961451
 30
0.0
 11
152.15570559330411
 21
224.91242139446589
 31
0.0
  0
ARC
  5
619E
  8
0
 10
144.99999999999989
 20
229.5
 30
0.0
 40
14.00000000000003
 50
298.65063982794209
 51
331.34936017206189
  0
LINE
  5
619F
  8
0
 10
163.59700401038549
 20
188.52254959324941
 30
0.0
 11
149.58757860553411
 21
222.34429440669589
 31
0.0
  0
LINE
  5
61A1
  8
0
 10
126.4029959896145
 20
188.52254959324929
 30
0.0
 11
140.4124213944657
 21
222.34429440669589
 31
0.0
  0
ARC
  5
61A2
  8
0
 10
144.99999999999989
 20
229.5
 30
0.0
 40
14.00000000000002
 50
208.65063982794231
 51
241.34936017206169
  0
LINE
  5
61A3
  8
0
 10
104.02254959324939
 20
210.9029959896142
 30
0.0
 11
137.84429440669561
 21
224.91242139446581
 31
0.0
  0
ARC
  5
61A5
  8
0
 10
144.99999999999989
 20
229.5
 30
0.0
 40
44.500000000000007
 50
204.4316843315041
 51
245.56831566849891
  0
ARC
  5
61A7
  8
0
 10
144.99999999999989
 20
229.5
 30
0.0
 40
44.500000000000007
 50
294.43168433150379
 51
335.56831566849871
  0
ARC
  5
61AB
  8
0
 10
144.99999999999989
 20
229.5
 30
0.0
 40
13.999999999999989
 50
253.65063982794149
 51
286.34936017206098
  0
LINE
  5
61AC
  8
0
 10
129.17463458714809
 20
187.37449929615411
 30
0.0
 11
143.1840599919995
 21
221.1962441096006
 31
0.0
  0
LINE
  5
61AD
  8
0
 10
160.8253654128516
 20
187.37449929615411
 30
0.0
 11
146.81594000800021
 21
221.1962441096006
 31
0.0
  0
ARC
  5
61AE
  8
0
 10
144.99999999999989
 20
229.5
 30
0.0
 40
44.500000000000007
 50
249.43168433150271
 51
290.56831566849741
  0
LINE
  5
61F6
  8
2
 10
172.99999999999989
 20
233.50000000000011
 30
0.0
 11
175.99999999999989
 21
233.50000000000011
 31
0.0
  0
ARC
  5
61F7
  8
2
 10
113.9999999999999
 20
229.50000000000011
 30
0.0
 40
4.0
 50
90.0
 51
270.0
  0
LINE
  5
61F8
  8
2
 10
113.9999999999999
 20
233.50000000000011
 30
0.0
 11
116.9999999999999
 21
233.50000000000011
 31
0.0
  0
ARC
  5
61F9
  8
2
 10
172.99999999999989
 20
229.50000000000011
 30
0.0
 40
4.0
 50
90.0
 51
270.0
  0
ARC
  5
61FA
  8
2
 10
175.99999999999989
 20
229.50000000000011
 30
0.0
 40
4.0
 50
270.0
 51
90.0
  0
ARC
  5
61FB
  8
2
 10
116.9999999999999
 20
229.50000000000011
 30
0.0
 40
4.0
 50
270.0
 51
90.0
  0
LINE
  5
61FC
  8
2
 10
116.9999999999999
 20
225.50000000000011
 30
0.0
 11
113.9999999999999
 21
225.50000000000011
 31
0.0
  0
LINE
  5
61FD
  8
2
 10
175.99999999999989
 20
225.50000000000011
 30
0.0
 11
172.99999999999989
 21
225.50000000000011
 31
0.0
  0
CIRCLE
  5
6903
  8
0
 10
144.99999999999989
 20
229.5
 30
0.0
 40
45.0
  0
CIRCLE
  5
69D8
  8
0
 10
144.99999999999989
 20
229.50000000000011
 30
0.0
 40
8.5
  0
LINE
  5
6A23
  8
1
 10
144.99999999999989
 20
279.5
 30
0.0
 11
144.99999999999989
 21
179.5
 31
0.0
  0
LINE
  5
6A24
  8
1
 10
113.9999999999999
 20
235.50000000000011
 30
0.0
 11
113.9999999999999
 21
223.50000000000011
 31
0.0
  0
LINE
  5
6A25
  8
1
 10
116.9999999999999
 20
235.50000000000011
 30
0.0
 11
116.9999999999999
 21
223.50000000000011
 31
0.0
  0
LINE
  5
6A26
  8
1
 10
172.99999999999989
 20
235.50000000000011
 30
0.0
 11
172.99999999999989
 21
223.50000000000011
 31
0.0
  0
LINE
  5
6A27
  8
1
 10
175.99999999999989
 20
235.50000000000011
 30
0.0
 11
175.99999999999989
 21
223.50000000000011
 31
0.0
  0
LINE
  5
6A28
  8
1
 10
194.99999999999989
 20
229.50000000000011
 30
0.0
 11
94.999999999999886
 21
229.50000000000011
 31
0.0
  0
LINE
  5
6AC2
  8
1
 10
145.00000000000011
 20
139.5
 30
0.0
 11
145.00000000000011
 21
95.0
 31
0.0
  0
LINE
  5
6AC5
  8
1
 10
114.0
 20
117.0
 30
0.0
 11
114.0
 21
104.0
 31
0.0
  0
LINE
  5
6AC6
  8
1
 10
117.0
 20
117.0
 30
0.0
 11
117.0
 21
104.0
 31
0.0
  0
LINE
  5
6AC7
  8
1
 10
173.0
 20
117.0
 30
0.0
 11
173.0
 21
104.0
 31
0.0
  0
LINE
  5
6AC8
  8
1
 10
176.0
 20
117.0
 30
0.0
 11
176.0
 21
104.0
 31
0.0
  0
ENDSEC
  0
EOF
