  0
SECTION
  2
HEADER
  9
$ACADVER
  1
AC1009
  9
$INSBASE
 10
0.0
 20
0.0
 30
0.0
  9
$EXTMIN
 10
0.0
 20
-2.960436562073669
 30
0.0
  9
$EXTMAX
 10
329.96353635357337
 20
346.19937868495418
 30
0.0
  9
$LIMMIN
 10
0.0
 20
0.0
  9
$LIMMAX
 10
375.0
 20
270.0
  9
$ORTHOMODE
 70
     1
  9
$REGENMODE
 70
     1
  9
$FILLMODE
 70
     1
  9
$QTEXTMODE
 70
     0
  9
$MIRRTEXT
 70
     0
  9
$DRAGMODE
 70
     2
  9
$LTSCALE
 40
10.0
  9
$OSMODE
 70
    37
  9
$ATTMODE
 70
     1
  9
$TEXTSIZE
 40
6.0
  9
$TRACEWID
 40
0.05
  9
$TEXTSTYLE
  7
STANDARD
  9
$CLAYER
  8
0
  9
$CELTYPE
  6
BYLAYER
  9
$CECOLOR
 62
   256
  9
$DIMSCALE
 40
1.0
  9
$DIMASZ
 40
3.0
  9
$DIMEXO
 40
2.0
  9
$DIMDLI
 40
0.3799999999999999
  9
$DIMRND
 40
0.0
  9
$DIMDLE
 40
0.0
  9
$DIMEXE
 40
2.0
  9
$DIMTP
 40
0.0
  9
$DIMTM
 40
0.0
  9
$DIMTXT
 40
3.2000000000000002
  9
$DIMCEN
 40
0.09
  9
$DIMTSZ
 40
0.0
  9
$DIMTOL
 70
     0
  9
$DIMLIM
 70
     0
  9
$DIMTIH
 70
     0
  9
$DIMTOH
 70
     0
  9
$DIMSE1
 70
     0
  9
$DIMSE2
 70
     0
  9
$DIMTAD
 70
     1
  9
$DIMZIN
 70
     9
  9
$DIMBLK
  1

  9
$DIMASO
 70
     0
  9
$DIMSHO
 70
     0
  9
$DIMPOST
  1

  9
$DIMAPOST
  1

  9
$DIMALT
 70
     0
  9
$DIMALTD
 70
     2
  9
$DIMALTF
 40
25.399999999999999
  9
$DIMLFAC
 40
1.0
  9
$DIMTOFL
 70
     0
  9
$DIMTVP
 40
0.0
  9
$DIMTIX
 70
     0
  9
$DIMSOXD
 70
     0
  9
$DIMSAH
 70
     0
  9
$DIMBLK1
  1

  9
$DIMBLK2
  1

  9
$DIMSTYLE
  2
STANDARD
  9
$DIMCLRD
 70
     0
  9
$DIMCLRE
 70
     0
  9
$DIMCLRT
 70
     0
  9
$DIMTFAC
 40
1.0
  9
$DIMGAP
 40
0.09
  9
$LUNITS
 70
     2
  9
$LUPREC
 70
     2
  9
$SKETCHINC
 40
0.1
  9
$FILLETRAD
 40
20.0
  9
$AUNITS
 70
     0
  9
$AUPREC
 70
     2
  9
$MENU
  1
E:\r13\win\SUPPORT\ACAD
  9
$ELEVATION
 40
0.0
  9
$PELEVATION
 40
0.0
  9
$THICKNESS
 40
0.0
  9
$LIMCHECK
 70
     0
  9
$BLIPMODE
 70
     0
  9
$CHAMFERA
 40
0.0
  9
$CHAMFERB
 40
0.0
  9
$SKPOLY
 70
     0
  9
$TDCREATE
 40
2449840.6320370371
  9
$TDUPDATE
 40
2456931.6995798028
  9
$TDINDWG
 40
2.3013105208
  9
$TDUSRTIMER
 40
2.3013105208
  9
$USRTIMER
 70
     1
  9
$ANGBASE
 50
0.0
  9
$ANGDIR
 70
     0
  9
$PDMODE
 70
     0
  9
$PDSIZE
 40
0.0
  9
$PLINEWID
 40
0.0
  9
$COORDS
 70
     1
  9
$SPLFRAME
 70
     0
  9
$SPLINETYPE
 70
     6
  9
$SPLINESEGS
 70
     8
  9
$ATTDIA
 70
     0
  9
$ATTREQ
 70
     1
  9
$HANDLING
 70
     1
  9
$HANDSEED
  5
1E578
  9
$SURFTAB1
 70
     6
  9
$SURFTAB2
 70
     6
  9
$SURFTYPE
 70
     6
  9
$SURFU
 70
     6
  9
$SURFV
 70
     6
  9
$UCSNAME
  2

  9
$UCSORG
 10
0.0
 20
0.0
 30
0.0
  9
$UCSXDIR
 10
1.0
 20
0.0
 30
0.0
  9
$UCSYDIR
 10
0.0
 20
1.0
 30
0.0
  9
$PUCSNAME
  2

  9
$PUCSORG
 10
0.0
 20
0.0
 30
0.0
  9
$PUCSXDIR
 10
1.0
 20
0.0
 30
0.0
  9
$PUCSYDIR
 10
0.0
 20
1.0
 30
0.0
  9
$USERI1
 70
     0
  9
$USERI2
 70
     1
  9
$USERI3
 70
     0
  9
$USERI4
 70
     0
  9
$USERI5
 70
     0
  9
$USERR1
 40
0.0
  9
$USERR2
 40
0.0
  9
$USERR3
 40
0.0
  9
$USERR4
 40
0.0
  9
$USERR5
 40
0.0
  9
$WORLDVIEW
 70
     1
  9
$SHADEDGE
 70
     3
  9
$SHADEDIF
 70
    70
  9
$TILEMODE
 70
     1
  9
$MAXACTVP
 70
    16
  9
$PLIMCHECK
 70
     0
  9
$PEXTMIN
 10
1.0000000000000000E+020
 20
1.0000000000000000E+020
 30
1.0000000000000000E+020
  9
$PEXTMAX
 10
-1.0000000000000000E+020
 20
-1.0000000000000000E+020
 30
-1.0000000000000000E+020
  9
$PLIMMIN
 10
0.0
 20
0.0
  9
$PLIMMAX
 10
12.0
 20
9.0
  9
$UNITMODE
 70
     0
  9
$VISRETAIN
 70
     0
  9
$PLINEGEN
 70
     0
  9
$PSLTSCALE
 70
     0
  0
ENDSEC
  0
SECTION
  2
TABLES
  0
TABLE
  2
VPORT
 70
     1
  0
VPORT
  2
*ACTIVE
 70
     0
 10
0.0
 20
0.0
 11
1.0
 21
1.0
 12
314.18636995827541
 22
180.0
 13
0.0
 23
0.0
 14
10.0
 24
10.0
 15
10.0
 25
10.0
 16
0.0
 26
0.0
 36
1.0
 17
0.0
 27
0.0
 37
0.0
 40
360.0
 41
1.7454798331015291
 42
50.0
 43
0.0
 44
0.0
 50
0.0
 51
0.0
 71
     0
 72
   500
 73
     1
 74
     0
 75
     0
 76
     0
 77
     0
 78
     0
  0
ENDTAB
  0
TABLE
  2
LTYPE
 70
     4
  0
LTYPE
  2
CONTINUOUS
 70
     0
  3
Solid Line
 72
    65
 73
     0
 40
0.0
  0
LTYPE
  2
CENTER
 70
     0
  3
____ _ ____ _ ____ _ ____ _ ____ _ ____ _ ____
 72
    65
 73
     4
 40
2.0
 49
1.25
 49
-0.25
 49
0.25
 49
-0.25
  0
LTYPE
  2
PHANTOM
 70
     0
  3
_____ _ _ _____ _ _ _____ _ _ _____ _ _ ____
 72
    65
 73
     6
 40
2.5
 49
1.25
 49
-0.25
 49
0.25
 49
-0.25
 49
0.25
 49
-0.25
  0
LTYPE
  2
PHANTOM2
 70
     0
  3
___ _ _ ___ _ _ ___ _ _ ___ _ _
 72
    65
 73
     6
 40
1.25
 49
0.625
 49
-0.125
 49
0.125
 49
-0.125
 49
0.125
 49
-0.125
  0
ENDTAB
  0
TABLE
  2
LAYER
 70
     4
  0
LAYER
  2
0
 70
     0
 62
     7
  6
CONTINUOUS
  0
LAYER
  2
1
 70
     0
 62
     1
  6
CENTER
  0
LAYER
  2
DEFPOINTS
 70
     0
 62
     7
  6
CONTINUOUS
  0
LAYER
  2
5
 70
     0
 62
     3
  6
PHANTOM
  0
ENDTAB
  0
TABLE
  2
STYLE
 70
     2
  0
STYLE
  2
STANDARD
 70
     0
 40
0.0
 41
1.0
 50
0.0
 71
     0
 42
6.0
  3
TXT
  4
BIGFONT
  0
STYLE
  2
STANDARD1
 70
     0
 40
0.0
 41
1.0
 50
0.0
 71
     0
 42
3.0
  3
txt
  4

  0
ENDTAB
  0
TABLE
  2
VIEW
 70
     2
  0
VIEW
  2
ALL
 70
     0
 40
270.0
 10
213.25689075630251
 20
135.0
 41
0.0
 11
0.0
 21
0.0
 31
1.0
 12
0.0
 22
0.0
 32
0.0
 42
0.0
 43
0.0
 44
0.0
 50
0.0
 71
     0
  0
VIEW
  2
OLE1
 70
     0
 40
15.6789342459856
 10
-163.26597565361169
 20
683.38318995238819
 41
19.906097890736621
 11
0.0
 21
0.0
 31
1.0
 12
0.0
 22
0.0
 32
0.0
 42
50.0
 43
0.0
 44
0.0
 50
0.0
 71
     0
  0
ENDTAB
  0
TABLE
  2
UCS
 70
     0
  0
ENDTAB
  0
TABLE
  2
APPID
 70
    13
  0
APPID
  2
ACAD
 70
     0
  0
APPID
  2
ACAD_EXEMPT_FROM_CAD_STANDARDS
 70
     0
  0
APPID
  2
ACAD_MLEADERVER
 70
     0
  0
APPID
  2
ACAD_DSTYLE_DIMJAG
 70
     0
  0
APPID
  2
ACAD_DSTYLE_DIMTALN
 70
     0
  0
APPID
  2
ACAD_PSEXT
 70
     0
  0
APPID
  2
ACAD_DSTYLE_DIMBREAK
 70
     0
  0
APPID
  2
ACAECLAYERSTANDARD
 70
     0
  0
APPID
  2
ACCMTRANSPARENCY
 70
     0
  0
APPID
  2
GRADIENTCOLOR1ACI
 70
     0
  0
APPID
  2
GRADIENTCOLOR2ACI
 70
     0
  0
APPID
  2
ACAD_DSTYLE_DIMRADIAL_EXTENSION
 70
     0
  0
APPID
  2
ACAD_NAV_VCDISPLAY
 70
     0
  0
ENDTAB
  0
TABLE
  2
DIMSTYLE
 70
     1
  0
DIMSTYLE
  2
STANDARD
 70
     0
  3

  4

  5

  6

  7

 40
1.0
 41
0.18
 42
0.0625
 43
0.38
 44
0.18
 45
0.0
 46
0.0
 47
0.0
 48
0.0
140
0.18
141
0.09
142
0.0
143
25.399999999999999
144
1.0
145
0.0
146
1.0
147
0.09
 71
     0
 72
     0
 73
     1
 74
     1
 75
     0
 76
     0
 77
     0
 78
     0
170
     0
171
     2
172
     0
173
     0
174
     0
175
     0
176
     0
177
     0
178
     0
  0
ENDTAB
  0
ENDSEC
  0
SECTION
  2
BLOCKS
  0
BLOCK
  8
0
  2
$MODEL_SPACE
 70
     0
 10
0.0
 20
0.0
 30
0.0
  3
$MODEL_SPACE
  1

  0
ENDBLK
  5
126
  8
0
  0
BLOCK
 67
     1
  8
0
  2
$PAPER_SPACE
 70
     0
 10
0.0
 20
0.0
 30
0.0
  3
$PAPER_SPACE
  1

  0
ENDBLK
  5
124
 67
     1
  8
0
  0
ENDSEC
  0
SECTION
  2
ENTITIES
  0
TEXT
  5
1B133
  8
0
 62
     3
 10
0.0
 20
0.0
 30
0.0
 40
10.0
  1
CP150-16080
  7
STANDARD1
  0
ARC
  5
1CDD6
  8
0
 10
149.99999999999989
 20
295.59968844840768
 30
0.0
 40
8.5
 50
270.0
 51
90.0
  0
ARC
  5
1CDD7
  8
0
 10
49.999999999999893
 20
295.59968844840768
 30
0.0
 40
8.5
 50
90.0
 51
270.0
  0
LINE
  5
1CDE6
  8
0
 10
108.0000003799795
 20
335.02233833859191
 30
0.0
 11
107.0000002160667
 21
335.59968755433778
 31
0.0
  0
LINE
  5
1CDE7
  8
0
 10
92.999999783933049
 20
335.59968755433778
 30
0.0
 11
91.999999620020276
 21
335.02233833859191
 31
0.0
  0
LINE
  5
1CDE8
  8
0
 10
108.0000003799795
 20
334.79141051810751
 30
0.0
 11
108.0000003799795
 21
335.02233833859191
 31
0.0
  0
LINE
  5
1CDE9
  8
0
 10
91.999999620020276
 20
335.02233833859191
 30
0.0
 11
91.999999620020276
 21
334.7791960913919
 31
0.0
  0
LINE
  5
1CDEE
  8
0
 10
106.00000005215389
 20
291.14314415345422
 30
0.0
 11
106.00000005215389
 21
300.05623274336091
 31
0.0
  0
LINE
  5
1CDEF
  8
0
 10
93.999999947845822
 20
300.05623274336091
 30
0.0
 11
93.999999947845822
 21
291.14314415345422
 31
0.0
  0
ARC
  5
1CDF4
  8
0
 10
149.99999999999989
 20
295.59968844840768
 30
0.0
 40
12.499999999999989
 50
211.6366047154284
 51
148.3633952845716
  0
CIRCLE
  5
1CDF9
  8
0
 10
149.99999999999989
 20
295.59968844840768
 30
0.0
 40
8.5
  0
ARC
  5
1CDFA
  8
0
 10
49.999999999999893
 20
295.5996884484079
 30
0.0
 40
12.50000000000005
 50
31.636604715428401
 51
328.3633952845716
  0
CIRCLE
  5
1CDFF
  8
0
 10
49.999999999999893
 20
295.5996884484079
 30
0.0
 40
8.5000000000000568
  0
LINE
  5
1CE04
  8
0
 10
108.0000003799795
 20
335.02233833859191
 30
0.0
 11
106.7711475096406
 21
335.02233833859191
 31
0.0
  0
LINE
  5
1CE05
  8
0
 10
93.393140746742674
 20
335.02233833859191
 30
0.0
 11
91.999999620020276
 21
335.02233833859191
 31
0.0
  0
LINE
  5
1CE06
  8
0
 10
92.999999783933049
 20
335.59968755433778
 30
0.0
 11
107.0000002160667
 21
335.59968755433778
 31
0.0
  0
ARC
  5
1CE0B
  8
0
 10
99.997677938195807
 20
295.59313044355599
 30
0.0
 40
40.006778491466321
 50
69.990914459082902
 51
83.483663966983727
  0
ARC
  5
1CE0E
  8
0
 10
99.999999999999886
 20
295.59758178909078
 30
0.0
 40
7.501404687690866
 50
41.822306461077041
 51
138.17769353892291
  0
ARC
  5
1CE11
  8
0
 10
99.999999999999886
 20
295.55194282016919
 30
0.0
 40
40.047437109678512
 50
83.493652096311365
 51
96.506347903688621
  0
LINE
  5
1CE12
  8
0
 10
93.655711412429696
 20
299.59968863839731
 30
0.0
 11
87.630682997405415
 21
299.59968863839731
 31
0.0
  0
LINE
  5
1CE13
  8
0
 10
94.409829843789225
 20
300.5996883366488
 30
0.0
 11
93.655711412429696
 21
299.59968863839731
 31
0.0
  0
LINE
  5
1CE14
  8
0
 10
112.39485666155799
 20
299.59968863839731
 30
0.0
 11
106.34428858757011
 21
299.59968863839731
 31
0.0
  0
LINE
  5
1CE15
  8
0
 10
106.34428858757011
 20
299.59968863839731
 30
0.0
 11
105.5901701562105
 21
300.5996883366488
 31
0.0
  0
ARC
  5
1CE18
  8
0
 10
99.999999999999886
 20
295.60179510772417
 30
0.0
 40
7.501404687690866
 50
221.82230646107709
 51
318.17769353892299
  0
LINE
  5
1CE1E
  8
0
 10
87.630682997405415
 20
291.5996882584177
 30
0.0
 11
93.655711412429696
 21
291.5996882584177
 31
0.0
  0
LINE
  5
1CE1F
  8
0
 10
93.655711412429696
 20
291.5996882584177
 30
0.0
 11
94.409829843789225
 21
290.59968856016621
 31
0.0
  0
LINE
  5
1CE20
  8
0
 10
106.34428858757011
 20
291.5996882584177
 30
0.0
 11
112.3693170025943
 21
291.5996882584177
 31
0.0
  0
LINE
  5
1CE21
  8
0
 10
105.5901701562105
 20
290.59968856016621
 30
0.0
 11
106.34428858757011
 21
291.5996882584177
 31
0.0
  0
CIRCLE
  5
1CE22
  8
0
 10
99.999999999999886
 20
295.59968844840751
 30
0.0
 40
39.899999999999977
  0
CIRCLE
  5
1CE23
  8
0
 10
99.999999999999886
 20
295.59968844840751
 30
0.0
 40
36.899999999999977
  0
CIRCLE
  5
1CE24
  8
0
 10
99.999999999999886
 20
295.59968844840751
 30
0.0
 40
30.0
  0
CIRCLE
  5
1CE26
  8
0
 10
99.999999999999886
 20
295.59968844840751
 30
0.0
 40
22.0
  0
CIRCLE
  5
1CE27
  8
0
 10
99.999999999999886
 20
295.59968844840751
 30
0.0
 40
17.509973100205571
  0
CIRCLE
  5
1CE29
  8
0
 10
99.999999999999886
 20
295.59968844840751
 30
0.0
 40
15.587449708328959
  0
CIRCLE
  5
1CE2A
  8
0
 10
99.999999999999886
 20
295.59968844840751
 30
0.0
 40
13.0
  0
ARC
  5
1CE4F
  8
0
 10
149.99999999999989
 20
295.59968844840768
 30
0.0
 40
13.0
 50
214.0597633216027
 51
270.0
  0
ARC
  5
1CE52
  8
0
 10
49.999999999999893
 20
295.59968844840768
 30
0.0
 40
13.0
 50
270.0
 51
325.9402366783973
  0
ARC
  5
1CE55
  8
0
 10
149.99999999999989
 20
295.59968844840768
 30
0.0
 40
13.0
 50
90.0
 51
145.94023667839721
  0
ARC
  5
1CE58
  8
0
 10
49.999999999999893
 20
295.59968844840768
 30
0.0
 40
13.0
 50
34.059763321602723
 51
90.0
  0
POLYLINE
  5
1CE59
  8
0
 66
     1
 10
0.0
 20
0.0
 30
0.0
 70
   128
  0
VERTEX
  5
1E3FE
  8
0
 10
113.68676327006639
 20
333.1850347321394
 30
0.0
  0
VERTEX
  5
1E3FF
  8
0
 10
113.7285273522137
 20
333.17002341935881
 30
0.0
  0
VERTEX
  5
1E400
  8
0
 10
115.740731731057
 20
332.4376425225521
 30
0.0
  0
VERTEX
  5
1E401
  8
0
 10
117.7523009479044
 20
331.70548886845359
 30
0.0
  0
VERTEX
  5
1E402
  8
0
 10
120.7112878561019
 20
330.62850744316819
 30
0.0
  0
VERTEX
  5
1E403
  8
0
 10
123.70307967066751
 20
329.53958273718598
 30
0.0
  0
SEQEND
  5
1E404
  8
0
  0
POLYLINE
  5
1CE5B
  8
0
 66
     1
 10
0.0
 20
0.0
 30
0.0
 70
   128
  0
VERTEX
  5
1E405
  8
0
 10
76.296920329332238
 20
329.53958273718598
 30
0.0
  0
VERTEX
  5
1E406
  8
0
 10
79.272309690713769
 20
330.62253580281981
 30
0.0
  0
VERTEX
  5
1E407
  8
0
 10
82.2476990520953
 20
331.70548886845359
 30
0.0
  0
VERTEX
  5
1E408
  8
0
 10
84.273500740527993
 20
332.44282067606702
 30
0.0
  0
VERTEX
  5
1E409
  8
0
 10
86.711205914616471
 20
333.326947547891
 30
0.0
  0
SEQEND
  5
1E40A
  8
0
  0
LINE
  5
1CE63
  8
0
 10
123.70307967066751
 20
329.53958273718598
 30
0.0
 11
159.73616242408741
 21
316.42461442241921
 31
0.0
  0
LINE
  5
1CE66
  8
0
 10
40.263837575912362
 20
316.42461442241921
 30
0.0
 11
76.296920329332238
 21
329.53958273718598
 31
0.0
  0
ARC
  5
1CE6D
  8
0
 10
156.99999999999989
 20
308.90707381446327
 30
0.0
 40
8.0000000000000302
 50
16.385724994550419
 51
69.999999999996291
  0
ARC
  5
1CE6F
  8
0
 10
42.999999999999893
 20
308.90707381446327
 30
0.0
 40
8.0000000000000302
 50
110.00000000000369
 51
163.6142750054496
  0
ARC
  5
1CE71
  8
0
 10
162.756305733798
 20
310.59968844840768
 30
0.0
 40
2.000000000000012
 50
270.0
 51
16.385724994550419
  0
ARC
  5
1CE73
  8
0
 10
37.243694266201707
 20
310.59968844840768
 30
0.0
 40
1.999999999999998
 50
163.6142750054496
 51
270.0
  0
LINE
  5
1CE75
  8
0
 10
162.75630742311461
 20
308.59968871662858
 30
0.0
 11
150.00000074505789
 21
308.59968871662858
 31
0.0
  0
LINE
  5
1CE76
  8
0
 10
49.999999254941827
 20
308.59968871662858
 30
0.0
 11
37.24369257688511
 21
308.59968871662858
 31
0.0
  0
LINE
  5
1CE7F
  8
0
 10
37.24369257688511
 20
282.59968818018677
 30
0.0
 11
49.999999254941827
 21
282.59968818018677
 31
0.0
  0
ARC
  5
1CE81
  8
0
 10
162.756305733798
 20
280.59968844840768
 30
0.0
 40
2.000000000000056
 50
343.6142750054496
 51
90.0
  0
LINE
  5
1CE84
  8
0
 10
150.00000074505789
 20
282.59968818018677
 30
0.0
 11
162.75630742311461
 21
282.59968818018677
 31
0.0
  0
ARC
  5
1CE85
  8
0
 10
37.243694266201707
 20
280.59968844840768
 30
0.0
 40
2.000000000000056
 50
90.0
 51
196.3857249945504
  0
ARC
  5
1CE87
  8
0
 10
42.999999999999893
 20
282.29230308235202
 30
0.0
 40
8.0000000000000089
 50
196.3857249945504
 51
249.99999999999631
  0
ARC
  5
1CE89
  8
0
 10
156.99999999999989
 20
282.29230308235202
 30
0.0
 40
8.0000000000000213
 50
290.00000000000369
 51
343.6142750054496
  0
LINE
  5
1CE8B
  8
0
 10
159.73616242408741
 20
274.77476247439631
 30
0.0
 11
123.70307967066751
 21
261.65979415962943
 31
0.0
  0
LINE
  5
1CE8C
  8
0
 10
76.296920329332238
 20
261.65979415962943
 30
0.0
 11
40.263837575912362
 21
274.77476247439631
 31
0.0
  0
ARC
  5
1CE8F
  8
0
 10
156.99999999999989
 20
308.90707381446327
 30
0.0
 40
8.0000000000000053
 50
0.0
 51
16.385724994550419
  0
ARC
  5
1CE92
  8
0
 10
42.999999999999893
 20
282.29230308235202
 30
0.0
 40
8.0
 50
180.0
 51
196.3857249945504
  0
ARC
  5
1CE95
  8
0
 10
42.999999999999893
 20
308.90707381446327
 30
0.0
 40
8.0
 50
163.6142750054496
 51
180.0
  0
ARC
  5
1CE98
  8
0
 10
156.99999999999989
 20
282.29230308235202
 30
0.0
 40
8.0000000000000053
 50
343.6142750054496
 51
0.0
  0
LINE
  5
1CEA5
  8
0
 10
35.000002384185677
 20
306.0996883068467
 30
0.0
 11
35.000002384185677
 21
308.90707359502562
 31
0.0
  0
LINE
  5
1CEA7
  8
0
 10
164.9999976158141
 20
308.90707359502562
 30
0.0
 11
164.9999976158141
 21
306.0996883068467
 31
0.0
  0
ARC
  5
1CEA9
  8
0
 10
162.99999999999989
 20
306.09968844840768
 30
0.0
 40
2.0
 50
270.0
 51
0.0
  0
ARC
  5
1CEAB
  8
0
 10
36.999999999999893
 20
306.09968844840768
 30
0.0
 40
2.0
 50
180.0
 51
270.0
  0
LINE
  5
1CEAD
  8
0
 10
40.834850072860597
 20
304.09968891034367
 30
0.0
 11
36.999998986720932
 21
304.09968891034367
 31
0.0
  0
LINE
  5
1CEAE
  8
0
 10
163.00000101327879
 20
304.09968891034367
 30
0.0
 11
159.16514992713911
 21
304.09968891034367
 31
0.0
  0
ARC
  5
1CEB0
  8
0
 10
162.99999999999989
 20
285.09968844840768
 30
0.0
 40
2.0
 50
0.0
 51
90.0
  0
LINE
  5
1CEB2
  8
0
 10
159.16514992713911
 20
287.09968798647168
 30
0.0
 11
163.00000101327879
 21
287.09968798647168
 31
0.0
  0
ARC
  5
1CEB3
  8
0
 10
36.999999999999893
 20
285.09968844840768
 30
0.0
 40
2.0
 50
90.0
 51
180.0
  0
LINE
  5
1CEB6
  8
0
 10
36.999998986720932
 20
287.09968798647168
 30
0.0
 11
40.834850072860597
 21
287.09968798647168
 31
0.0
  0
LINE
  5
1CEB7
  8
0
 10
35.000002384185677
 20
282.29230330178979
 30
0.0
 11
35.000002384185677
 21
285.09968858996882
 31
0.0
  0
LINE
  5
1CEB8
  8
0
 10
164.9999976158141
 20
285.09968858996882
 30
0.0
 11
164.9999976158141
 21
282.29230330178979
 31
0.0
  0
LINE
  5
1CEC3
  8
0
 10
293.0999985709787
 20
119.5000004023313
 30
0.0
 11
293.0999985709787
 21
116.499999910593
 31
0.0
  0
LINE
  5
1CEC4
  8
0
 10
268.0999981984495
 20
116.499999910593
 30
0.0
 11
268.0999981984495
 21
119.5000004023313
 31
0.0
  0
LINE
  5
1CEC5
  8
0
 10
268.0999981984495
 20
119.5000004023313
 30
0.0
 11
268.59999828040588
 21
119.99999955296509
 31
0.0
  0
LINE
  5
1CEC6
  8
0
 10
292.59999848902231
 20
119.99999955296509
 30
0.0
 11
293.0999985709787
 21
119.5000004023313
 31
0.0
  0
LINE
  5
1CEC7
  8
0
 10
293.0999985709787
 20
116.499999910593
 30
0.0
 11
292.59999848902231
 21
116.00000075995921
 31
0.0
  0
LINE
  5
1CEC8
  8
0
 10
268.59999828040588
 20
116.00000075995921
 30
0.0
 11
268.0999981984495
 21
116.499999910593
 31
0.0
  0
LINE
  5
1CEC9
  8
0
 10
241.0303522646426
 20
132.25460648536679
 30
0.0
 11
240.59999927878371
 21
132.99999982118601
 31
0.0
  0
LINE
  5
1CECA
  8
0
 10
240.59999927878371
 20
146.99999839067459
 30
0.0
 11
241.0302293300627
 21
147.74518311023709
 31
0.0
  0
LINE
  5
1CECB
  8
0
 10
240.59999927878371
 20
149.72747713327399
 30
0.0
 11
240.59999927878371
 21
159.01230126619339
 31
0.0
  0
LINE
  5
1CECC
  8
0
 10
240.59999927878371
 20
119.0044604241848
 30
0.0
 11
240.59999927878371
 21
130.2499998360872
 31
0.0
  0
ARC
  5
1CECD
  8
0
 10
241.4945169203157
 20
118.9997878703939
 30
0.0
 40
0.8945298450979629
 50
179.7007155986125
 51
221.3205820900348
  0
POLYLINE
  5
1CECE
  8
0
 66
     1
 10
0.0
 20
0.0
 30
0.0
 70
   128
  0
VERTEX
  5
1E40B
  8
0
 10
240.59999927878371
 20
130.2499998360872
 30
0.0
  0
VERTEX
  5
1E40C
  8
0
 10
240.60369104146949
 20
130.33400326967239
 30
0.0
  0
VERTEX
  5
1E40D
  8
0
 10
240.61487808823571
 20
130.4211862385273
 30
0.0
  0
VERTEX
  5
1E40E
  8
0
 10
240.6198289990424
 20
130.4476451128721
 30
0.0
  0
VERTEX
  5
1E40F
  8
0
 10
240.62244042754159
 20
130.46021051704881
 30
0.0
  0
VERTEX
  5
1E410
  8
0
 10
240.62431797385199
 20
130.4687824100256
 30
0.0
  0
VERTEX
  5
1E411
  8
0
 10
240.6261135637759
 20
130.47668002545831
 30
0.0
  0
VERTEX
  5
1E412
  8
0
 10
240.62808424234379
 20
130.48503212630749
 30
0.0
  0
VERTEX
  5
1E413
  8
0
 10
240.6317983567713
 20
130.50024621188641
 30
0.0
  0
VERTEX
  5
1E414
  8
0
 10
240.655297487974
 20
130.59444017708299
 30
0.0
  0
VERTEX
  5
1E415
  8
0
 10
240.72091847658149
 20
130.86298517882821
 30
0.0
  0
VERTEX
  5
1E416
  8
0
 10
240.81771641969669
 20
131.27416968345639
 30
0.0
  0
VERTEX
  5
1E417
  8
0
 10
240.94160839915261
 20
131.82779252529139
 30
0.0
  0
VERTEX
  5
1E418
  8
0
 10
241.0858181118964
 20
132.52137452363971
 30
0.0
  0
VERTEX
  5
1E419
  8
0
 10
241.24023884534819
 20
133.3403274416923
 30
0.0
  0
VERTEX
  5
1E41A
  8
0
 10
241.39465957880009
 20
134.27096828818321
 30
0.0
  0
VERTEX
  5
1E41B
  8
0
 10
241.53927534818641
 20
135.30026599764821
 30
0.0
  0
VERTEX
  5
1E41C
  8
0
 10
241.66211679577819
 20
136.39895468950269
 30
0.0
  0
VERTEX
  5
1E41D
  8
0
 10
241.75680994987479
 20
137.5532545149326
 30
0.0
  0
VERTEX
  5
1E41E
  8
0
 10
241.8168690800666
 20
138.7436933815479
 30
0.0
  0
VERTEX
  5
1E41F
  8
0
 10
241.83783501386631
 20
139.93980959057811
 30
0.0
  0
VERTEX
  5
1E420
  8
0
 10
241.82057946920381
 20
141.1416664719581
 30
0.0
  0
VERTEX
  5
1E421
  8
0
 10
241.76505401730529
 20
142.32009127736089
 30
0.0
  0
VERTEX
  5
1E422
  8
0
 10
241.67560234665859
 20
143.46051067113871
 30
0.0
  0
VERTEX
  5
1E423
  8
0
 10
241.5569779276847
 20
144.55796256661409
 30
0.0
  0
VERTEX
  5
1E424
  8
0
 10
241.4172236621379
 20
145.58047652244559
 30
0.0
  0
VERTEX
  5
1E425
  8
0
 10
241.2644010782241
 20
146.52267694473261
 30
0.0
  0
VERTEX
  5
1E426
  8
0
 10
241.10929489135731
 20
147.359824180603
 30
0.0
  0
VERTEX
  5
1E427
  8
0
 10
240.9627084434031
 20
148.07426780462259
 30
0.0
  0
VERTEX
  5
1E428
  8
0
 10
240.83336263895021
 20
148.65774512290949
 30
0.0
  0
VERTEX
  5
1E429
  8
0
 10
240.7314200699328
 20
149.0930899977684
 30
0.0
  0
VERTEX
  5
1E42A
  8
0
 10
240.66303491592399
 20
149.3739731609821
 30
0.0
  0
VERTEX
  5
1E42B
  8
0
 10
240.63076272606841
 20
149.50439184904101
 30
0.0
  0
VERTEX
  5
1E42C
  8
0
 10
240.6275813281535
 20
149.5175346732139
 30
0.0
  0
VERTEX
  5
1E42D
  8
0
 10
240.62615826725951
 20
149.5235994458198
 30
0.0
  0
VERTEX
  5
1E42E
  8
0
 10
240.62347605824459
 20
149.5355278253555
 30
0.0
  0
VERTEX
  5
1E42F
  8
0
 10
240.62099128961549
 20
149.5472364127636
 30
0.0
  0
VERTEX
  5
1E430
  8
0
 10
240.61583548784239
 20
149.57409575581551
 30
0.0
  0
VERTEX
  5
1E431
  8
0
 10
240.59999927878371
 20
149.72747713327399
 30
0.0
  0
SEQEND
  5
1E432
  8
0
  0
ARC
  5
1CECF
  8
0
 10
203.1947344980866
 20
139.85642673304031
 30
0.0
 40
38.588651348031092
 50
345.97518359947509
 51
346.59357748743912
  0
POLYLINE
  5
1CED0
  8
0
 66
     1
 10
0.0
 20
0.0
 30
0.0
 70
   128
  0
VERTEX
  5
1E433
  8
0
 10
240.655833929777
 20
149.40306022763249
 30
0.0
  0
VERTEX
  5
1E434
  8
0
 10
240.64406573772419
 20
149.45102706551549
 30
0.0
  0
VERTEX
  5
1E435
  8
0
 10
240.6327222287654
 20
149.49681088328359
 30
0.0
  0
VERTEX
  5
1E436
  8
0
 10
240.63183933496461
 20
149.5003536343574
 30
0.0
  0
SEQEND
  5
1E437
  8
0
  0
ARC
  5
1CED1
  8
0
 10
319.72001822912142
 20
118.99483246813089
 30
0.0
 40
0.880128697441269
 50
318.31406602255021
 51
1.055840173211642
  0
LINE
  5
1CED3
  8
0
 10
320.59999749064463
 20
159.01230126619339
 30
0.0
 11
320.59999749064463
 21
119.01105046272269
 31
0.0
  0
ARC
  5
1CED4
  8
0
 10
317.4999983847141
 20
177.0
 30
0.0
 40
3.0
 50
0.0
 51
90.0
  0
ARC
  5
1CED5
  8
0
 10
243.69999838471441
 20
177.0
 30
0.0
 40
3.0
 50
90.0
 51
180.0
  0
LINE
  5
1CED6
  8
0
 10
240.6999972462653
 20
173.99025559425351
 30
0.0
 11
240.6999972462653
 21
176.99999958276749
 31
0.0
  0
LINE
  5
1CED7
  8
0
 10
320.4999995231629
 20
176.99999958276749
 30
0.0
 11
320.4999995231629
 21
173.99025559425351
 31
0.0
  0
LINE
  5
1CED8
  8
0
 10
320.59999749064463
 20
117.99999922513889
 30
0.0
 11
320.59999749064463
 21
101.00000004749739
 31
0.0
  0
LINE
  5
1CED9
  8
0
 10
320.59999749064463
 20
101.00000004749739
 30
0.0
 11
319.59999918937689
 21
100.0
 31
0.0
  0
LINE
  5
1CEDA
  8
0
 10
241.59999758005131
 20
100.0
 30
0.0
 11
240.59999927878371
 21
101.00000004749739
 31
0.0
  0
LINE
  5
1CEDB
  8
0
 10
240.59999927878371
 20
101.00000004749739
 30
0.0
 11
240.59999927878371
 21
117.9999992251396
 31
0.0
  0
LINE
  5
1CEE0
  8
0
 10
241.2999999523162
 20
169.43620211891189
 30
0.0
 11
241.2999999523162
 21
163.56237828731531
 31
0.0
  0
LINE
  5
1CEE2
  8
0
 10
319.89999681711208
 20
163.573942677188
 30
0.0
 11
319.89999681711208
 21
169.43650321092741
 31
0.0
  0
LINE
  5
1CEE3
  8
0
 10
241.17734849452961
 20
133.00679556958571
 30
0.0
 11
241.17734849452961
 21
146.99252170906681
 31
0.0
  0
LINE
  5
1CEE6
  8
0
 10
240.59999927878371
 20
146.99999839067459
 30
0.0
 11
240.59999927878371
 21
133.00000000000011
 31
0.0
  0
LINE
  5
1CEE7
  8
0
 10
320.02264827489859
 20
144.25973072648051
 30
0.0
 11
320.02264827489859
 21
135.74026748538009
 31
0.0
  0
POLYLINE
  5
1CEE9
  8
0
 66
     1
 10
0.0
 20
0.0
 30
0.0
 70
   128
  0
VERTEX
  5
1E438
  8
0
 10
240.60229405760751
 20
159.01230126619339
 30
0.0
  0
VERTEX
  5
1E439
  8
0
 10
240.6003755331038
 20
159.00200456380841
 30
0.0
  0
VERTEX
  5
1E43A
  8
0
 10
240.62584534287441
 20
159.13909152150151
 30
0.0
  0
VERTEX
  5
1E43B
  8
0
 10
240.6856213510035
 20
159.4709515571594
 30
0.0
  0
VERTEX
  5
1E43C
  8
0
 10
240.7764513790606
 20
160.00654399394989
 30
0.0
  0
VERTEX
  5
1E43D
  8
0
 10
240.85824012756339
 20
160.52861735224721
 30
0.0
  0
SEQEND
  5
1E43E
  8
0
  0
ARC
  5
1CEEA
  8
0
 10
241.62735653480181
 20
160.40938634822939
 30
0.0
 40
0.7783033343127316
 50
122.71428535870839
 51
171.1879604025826
  0
POLYLINE
  5
1CEEC
  8
0
 66
     1
 10
0.0
 20
0.0
 30
0.0
 70
   128
  0
VERTEX
  5
1E43F
  8
0
 10
320.34175664186489
 20
160.52861735224721
 30
0.0
  0
VERTEX
  5
1E440
  8
0
 10
320.2184420824052
 20
160.8384124934673
 30
0.0
  0
VERTEX
  5
1E441
  8
0
 10
319.99648928642279
 20
161.07139587402341
 30
0.0
  0
SEQEND
  5
1E442
  8
0
  0
ARC
  5
1CEED
  8
0
 10
244.86972902837459
 20
160.31576225567781
 30
0.0
 40
76.848925950472207
 50
347.94035621956039
 51
350.1925747027089
  0
ARC
  5
1CEEF
  8
0
 10
362.63960665268007
 20
166.88850968259271
 30
0.0
 40
42.773313479212689
 50
188.55092071917889
 51
190.61090190799791
  0
LINE
  5
1CEFA
  8
0
 10
272.09999792277853
 20
100.0
 30
0.0
 11
272.09999792277819
 21
116.00000075995909
 31
0.0
  0
LINE
  5
1CF0B
  8
0
 10
293.59999865293508
 20
116.00000075995921
 30
0.0
 11
267.59999811649311
 21
116.00000075995921
 31
0.0
  0
LINE
  5
1CF16
  8
0
 10
289.09999884665001
 20
116.00000075995909
 30
0.0
 11
289.09999884665001
 21
100.0
 31
0.0
  0
LINE
  5
1CF23
  8
0
 10
293.59999865293508
 20
118.50000023841859
 30
0.0
 11
293.59999865293508
 21
116.00000075995921
 31
0.0
  0
LINE
  5
1CF24
  8
0
 10
267.59999811649311
 20
116.00000075995921
 30
0.0
 11
267.59999811649311
 21
118.50000023841859
 31
0.0
  0
ARC
  5
1CF28
  8
0
 10
295.09999838471418
 20
118.5
 30
0.0
 40
1.5
 50
90.0
 51
180.0
  0
ARC
  5
1CF29
  8
0
 10
266.09999838471401
 20
118.5
 30
0.0
 40
1.5
 50
0.0
 51
90.0
  0
LINE
  5
1CF45
  8
0
 10
317.50327387440791
 20
179.9999982118606
 30
0.0
 11
243.69999960064879
 21
179.9999982118606
 31
0.0
  0
POLYLINE
  5
1CF47
  8
0
 66
     1
 10
0.0
 20
0.0
 30
0.0
 70
   128
  0
VERTEX
  5
1E443
  8
0
 10
240.70181891322119
 20
173.99025559425351
 30
0.0
  0
VERTEX
  5
1E444
  8
0
 10
240.70019841194139
 20
173.9989429712295
 30
0.0
  0
VERTEX
  5
1E445
  8
0
 10
240.7227662205695
 20
173.8779082894325
 30
0.0
  0
VERTEX
  5
1E446
  8
0
 10
240.7825906574725
 20
173.54740053415301
 30
0.0
  0
VERTEX
  5
1E447
  8
0
 10
240.87003067135799
 20
173.03530722856519
 30
0.0
  0
VERTEX
  5
1E448
  8
0
 10
240.98025083541859
 20
172.32790440320969
 30
0.0
  0
VERTEX
  5
1E449
  8
0
 10
241.0974410176276
 20
171.46910578012461
 30
0.0
  0
VERTEX
  5
1E44A
  8
0
 10
241.21331244707099
 20
170.44348120689389
 30
0.0
  0
VERTEX
  5
1E44B
  8
0
 10
241.30935788154591
 20
169.3274661898613
 30
0.0
  0
VERTEX
  5
1E44C
  8
0
 10
241.37880474328981
 20
168.09438019990921
 30
0.0
  0
VERTEX
  5
1E44D
  8
0
 10
241.4095197618006
 20
166.86548143625259
 30
0.0
  0
VERTEX
  5
1E44E
  8
0
 10
241.40064984559999
 20
165.58949500322339
 30
0.0
  0
VERTEX
  5
1E44F
  8
0
 10
241.3545009493827
 20
164.39071893692011
 30
0.0
  0
VERTEX
  5
1E450
  8
0
 10
241.27403095364559
 20
163.21797519922251
 30
0.0
  0
VERTEX
  5
1E451
  8
0
 10
241.17920368909819
 20
162.22928315401069
 30
0.0
  0
VERTEX
  5
1E452
  8
0
 10
241.07045873999579
 20
161.32075563073161
 30
0.0
  0
SEQEND
  5
1E453
  8
0
  0
POLYLINE
  5
1CF48
  8
0
 66
     1
 10
0.0
 20
0.0
 30
0.0
 70
   128
  0
VERTEX
  5
1E454
  8
0
 10
243.22340086102469
 20
123.0000000447035
 30
0.0
  0
VERTEX
  5
1E455
  8
0
 10
244.34648275375349
 20
125.6363321095705
 30
0.0
  0
VERTEX
  5
1E456
  8
0
 10
245.44706761836991
 20
128.6987423896789
 30
0.0
  0
VERTEX
  5
1E457
  8
0
 10
246.10592618584619
 20
130.9603326022625
 30
0.0
  0
VERTEX
  5
1E458
  8
0
 10
246.65856555104239
 20
133.37521106004709
 30
0.0
  0
VERTEX
  5
1E459
  8
0
 10
247.06119120120991
 20
135.89616343379021
 30
0.0
  0
VERTEX
  5
1E45A
  8
0
 10
247.3044452071189
 20
139.4363328814506
 30
0.0
  0
VERTEX
  5
1E45B
  8
0
 10
247.17859745025621
 20
142.99669340252871
 30
0.0
  0
VERTEX
  5
1E45C
  8
0
 10
246.7708867788314
 20
146.0257679224014
 30
0.0
  0
VERTEX
  5
1E45D
  8
0
 10
246.14289596676809
 20
148.9040352404117
 30
0.0
  0
VERTEX
  5
1E45E
  8
0
 10
245.2910599112509
 20
151.77692323923111
 30
0.0
  0
VERTEX
  5
1E45F
  8
0
 10
244.34267178177819
 20
154.37302216887471
 30
0.0
  0
VERTEX
  5
1E460
  8
0
 10
243.23297858238209
 20
156.9796450436115
 30
0.0
  0
VERTEX
  5
1E461
  8
0
 10
242.2164139151572
 20
159.1125525534153
 30
0.0
  0
VERTEX
  5
1E462
  8
0
 10
241.56260311603529
 20
160.39426848292351
 30
0.0
  0
VERTEX
  5
1E463
  8
0
 10
241.07045873999579
 20
161.32075563073161
 30
0.0
  0
SEQEND
  5
1E464
  8
0
  0
LINE
  5
1CF49
  8
0
 10
271.97564307600271
 20
122.8955280035735
 30
0.0
 11
271.97564307600271
 21
165.9999996423721
 31
0.0
  0
LINE
  5
1CF4A
  8
0
 10
289.22435369342571
 20
165.9999996423721
 30
0.0
 11
271.97564307600271
 21
165.9999996423721
 31
0.0
  0
LINE
  5
1CF4B
  8
0
 10
289.22435369342571
 20
165.9999996423721
 30
0.0
 11
289.22435369342571
 21
122.8955280035735
 31
0.0
  0
POLYLINE
  5
1CF4C
  8
0
 66
     1
 10
0.0
 20
0.0
 30
0.0
 70
   128
  0
VERTEX
  5
1E465
  8
0
 10
320.12953802943241
 20
161.32075563073161
 30
0.0
  0
VERTEX
  5
1E466
  8
0
 10
319.78117868304258
 20
160.66786870360369
 30
0.0
  0
VERTEX
  5
1E467
  8
0
 10
319.33759346604359
 20
159.81391668319699
 30
0.0
  0
VERTEX
  5
1E468
  8
0
 10
318.50821718573582
 20
158.13949927687639
 30
0.0
  0
VERTEX
  5
1E469
  8
0
 10
317.56285399198538
 20
156.0699328780174
 30
0.0
  0
VERTEX
  5
1E46A
  8
0
 10
316.45833522081392
 20
153.33442986011499
 30
0.0
  0
VERTEX
  5
1E46B
  8
0
 10
315.41754126548778
 20
150.21035298705101
 30
0.0
  0
VERTEX
  5
1E46C
  8
0
 10
314.80068162083637
 20
147.84296080470079
 30
0.0
  0
VERTEX
  5
1E46D
  8
0
 10
314.3135328590871
 20
145.3309528529644
 30
0.0
  0
VERTEX
  5
1E46E
  8
0
 10
313.99858191609388
 20
142.73044690489769
 30
0.0
  0
VERTEX
  5
1E46F
  8
0
 10
313.89804378151899
 20
139.28151354193679
 30
0.0
  0
VERTEX
  5
1E470
  8
0
 10
314.14364844560629
 20
135.85675731301299
 30
0.0
  0
VERTEX
  5
1E471
  8
0
 10
314.6403823792935
 20
132.88185596466059
 30
0.0
  0
VERTEX
  5
1E472
  8
0
 10
315.33402770757692
 20
130.0781615078449
 30
0.0
  0
VERTEX
  5
1E473
  8
0
 10
316.25509455800068
 20
127.2223148494959
 30
0.0
  0
VERTEX
  5
1E474
  8
0
 10
317.24580943584448
 20
124.67337250709529
 30
0.0
  0
VERTEX
  5
1E475
  8
0
 10
317.97659590840351
 20
123.0000000447035
 30
0.0
  0
SEQEND
  5
1E476
  8
0
  0
ARC
  5
1CF4D
  8
0
 10
359.84704227963749
 20
166.50522294405781
 30
0.0
 40
40.054448506851507
 50
169.22973871488961
 51
187.43697287874829
  0
POLYLINE
  5
1CF4E
  8
0
 66
     1
 10
0.0
 20
0.0
 30
0.0
 70
   128
  0
VERTEX
  5
1E477
  8
0
 10
271.97564307600271
 20
165.9999996423721
 30
0.0
  0
VERTEX
  5
1E478
  8
0
 10
271.98565293103468
 20
165.9483447670936
 30
0.0
  0
VERTEX
  5
1E479
  8
0
 10
272.0221076905728
 20
165.8875480294227
 30
0.0
  0
VERTEX
  5
1E47A
  8
0
 10
272.16916818171751
 20
165.76145440340039
 30
0.0
  0
VERTEX
  5
1E47B
  8
0
 10
272.92666032910358
 20
165.3949156403541
 30
0.0
  0
VERTEX
  5
1E47C
  8
0
 10
274.27417187020188
 20
165.0259256362915
 30
0.0
  0
VERTEX
  5
1E47D
  8
0
 10
274.6486739069224
 20
164.99999761581421
 30
0.0
  0
SEQEND
  5
1E47E
  8
0
  0
LINE
  5
1CF4F
  8
0
 10
274.6486739069224
 20
164.99999761581421
 30
0.0
 11
286.55132286250603
 21
164.99999761581421
 31
0.0
  0
POLYLINE
  5
1CF50
  8
0
 66
     1
 10
0.0
 20
0.0
 30
0.0
 70
   128
  0
VERTEX
  5
1E47F
  8
0
 10
286.55132286250603
 20
164.99999761581421
 30
0.0
  0
VERTEX
  5
1E480
  8
0
 10
287.44852410629397
 20
165.1280134916305
 30
0.0
  0
VERTEX
  5
1E481
  8
0
 10
288.7880020588637
 20
165.62201678752899
 30
0.0
  0
VERTEX
  5
1E482
  8
0
 10
288.96995641291147
 20
165.72248041629791
 30
0.0
  0
VERTEX
  5
1E483
  8
0
 10
289.08615007996571
 20
165.80121070146561
 30
0.0
  0
VERTEX
  5
1E484
  8
0
 10
289.18717343360191
 20
165.8996701240539
 30
0.0
  0
VERTEX
  5
1E485
  8
0
 10
289.21527981758129
 20
165.950833261013
 30
0.0
  0
VERTEX
  5
1E486
  8
0
 10
289.22435369342571
 20
165.9999996423721
 30
0.0
  0
SEQEND
  5
1E487
  8
0
  0
POLYLINE
  5
1CF52
  8
0
 66
     1
 10
0.0
 20
0.0
 30
0.0
 70
   128
  0
VERTEX
  5
1E488
  8
0
 10
271.229670457542
 20
122.8955280035734
 30
0.0
  0
VERTEX
  5
1E489
  8
0
 10
272.74164006114017
 20
122.7979179471731
 30
0.0
  0
VERTEX
  5
1E48A
  8
0
 10
273.55229442939168
 20
122.59537950158121
 30
0.0
  0
VERTEX
  5
1E48B
  8
0
 10
274.0592184290291
 20
122.3161950707435
 30
0.0
  0
VERTEX
  5
1E48C
  8
0
 10
274.32367539033299
 20
122.0338627696037
 30
0.0
  0
VERTEX
  5
1E48D
  8
0
 10
274.4557797722519
 20
121.74843102693551
 30
0.0
  0
VERTEX
  5
1E48E
  8
0
 10
274.48717884719377
 20
121.4288625866174
 30
0.0
  0
VERTEX
  5
1E48F
  8
0
 10
274.422701522708
 20
121.1537629365921
 30
0.0
  0
VERTEX
  5
1E490
  8
0
 10
274.28013047203427
 20
120.9054052829742
 30
0.0
  0
VERTEX
  5
1E491
  8
0
 10
273.95213775336748
 20
120.6064116209745
 30
0.0
  0
VERTEX
  5
1E492
  8
0
 10
273.30911958590161
 20
120.3233994543552
 30
0.0
  0
VERTEX
  5
1E493
  8
0
 10
272.1140404045583
 20
120.134124904871
 30
0.0
  0
VERTEX
  5
1E494
  8
0
 10
271.229670457542
 20
119.99999955296521
 30
0.0
  0
SEQEND
  5
1E495
  8
0
  0
LINE
  5
1CF53
  8
0
 10
271.229670457542
 20
122.8955280035734
 30
0.0
 11
243.12246412038789
 21
122.8955280035734
 31
0.0
  0
POLYLINE
  5
1CF54
  8
0
 66
     1
 10
0.0
 20
0.0
 30
0.0
 70
   128
  0
VERTEX
  5
1E496
  8
0
 10
241.7691518366336
 20
120.1044715940952
 30
0.0
  0
VERTEX
  5
1E497
  8
0
 10
241.92477956414211
 20
120.1597772538662
 30
0.0
  0
VERTEX
  5
1E498
  8
0
 10
242.77274504303921
 20
120.6629149615764
 30
0.0
  0
VERTEX
  5
1E499
  8
0
 10
243.2595287263392
 20
121.172285079956
 30
0.0
  0
VERTEX
  5
1E49A
  8
0
 10
243.57261329889289
 20
121.77991718053811
 30
0.0
  0
VERTEX
  5
1E49B
  8
0
 10
243.5883750021456
 20
122.3829541355371
 30
0.0
  0
VERTEX
  5
1E49C
  8
0
 10
243.47305864095679
 20
122.61853776872159
 30
0.0
  0
VERTEX
  5
1E49D
  8
0
 10
243.24665039777739
 20
122.829283028841
 30
0.0
  0
VERTEX
  5
1E49E
  8
0
 10
243.12246412038789
 20
122.8955280035734
 30
0.0
  0
SEQEND
  5
1E49F
  8
0
  0
LINE
  5
1CF55
  8
0
 10
318.07753264904028
 20
122.8955280035734
 30
0.0
 11
289.97032631188642
 21
122.8955280035734
 31
0.0
  0
POLYLINE
  5
1CF56
  8
0
 66
     1
 10
0.0
 20
0.0
 30
0.0
 70
   128
  0
VERTEX
  5
1E4A0
  8
0
 10
289.97032631188642
 20
119.99999955296521
 30
0.0
  0
VERTEX
  5
1E4A1
  8
0
 10
288.45835670828831
 20
120.2020816504955
 30
0.0
  0
VERTEX
  5
1E4A2
  8
0
 10
287.64770234003669
 20
120.4046200960874
 30
0.0
  0
VERTEX
  5
1E4A3
  8
0
 10
287.14077834039938
 20
120.6838045269251
 30
0.0
  0
VERTEX
  5
1E4A4
  8
0
 10
286.87632137909537
 20
120.9661368280649
 30
0.0
  0
VERTEX
  5
1E4A5
  8
0
 10
286.74421699717652
 20
121.251568570733
 30
0.0
  0
VERTEX
  5
1E4A6
  8
0
 10
286.71281792223459
 20
121.57113701105121
 30
0.0
  0
VERTEX
  5
1E4A7
  8
0
 10
286.77729524672043
 20
121.8462366610765
 30
0.0
  0
VERTEX
  5
1E4A8
  8
0
 10
286.91986629739409
 20
122.0945943146944
 30
0.0
  0
VERTEX
  5
1E4A9
  8
0
 10
287.24785901606089
 20
122.39358797669411
 30
0.0
  0
VERTEX
  5
1E4AA
  8
0
 10
287.89087718352681
 20
122.67660014331339
 30
0.0
  0
VERTEX
  5
1E4AB
  8
0
 10
289.08595636487019
 20
122.8658746927976
 30
0.0
  0
VERTEX
  5
1E4AC
  8
0
 10
289.97032631188642
 20
122.8955280035734
 30
0.0
  0
SEQEND
  5
1E4AD
  8
0
  0
POLYLINE
  5
1CF58
  8
0
 66
     1
 10
0.0
 20
0.0
 30
0.0
 70
   128
  0
VERTEX
  5
1E4AE
  8
0
 10
318.07753264904028
 20
122.8955280035734
 30
0.0
  0
VERTEX
  5
1E4AF
  8
0
 10
317.91549742221838
 20
122.80393242836
 30
0.0
  0
VERTEX
  5
1E4B0
  8
0
 10
317.71556481719028
 20
122.6023625582456
 30
0.0
  0
VERTEX
  5
1E4B1
  8
0
 10
317.58540689945232
 20
122.26378582417961
 30
0.0
  0
VERTEX
  5
1E4B2
  8
0
 10
317.66541868448269
 20
121.6663144528866
 30
0.0
  0
VERTEX
  5
1E4B3
  8
0
 10
317.95401319861418
 20
121.1541075259447
 30
0.0
  0
VERTEX
  5
1E4B4
  8
0
 10
318.39278534054768
 20
120.69183439016339
 30
0.0
  0
VERTEX
  5
1E4B5
  8
0
 10
318.83167669177072
 20
120.3777141869068
 30
0.0
  0
VERTEX
  5
1E4B6
  8
0
 10
319.43084493279468
 20
120.1044715940952
 30
0.0
  0
SEQEND
  5
1E4B7
  8
0
  0
LINE
  5
1CF61
  8
0
 10
241.71552255749691
 20
119.99999955296509
 30
0.0
 11
241.7691518366336
 21
120.1044715940952
 31
0.0
  0
LINE
  5
1CF62
  8
0
 10
243.12246412038789
 20
122.8955280035734
 30
0.0
 11
243.22340086102469
 21
123.0000000447035
 31
0.0
  0
LINE
  5
1CF64
  8
0
 10
317.97659590840351
 20
123.0000000447035
 30
0.0
 11
318.07753264904028
 21
122.8955280035734
 31
0.0
  0
LINE
  5
1CF67
  8
0
 10
241.71552255749691
 20
119.99999955296521
 30
0.0
 11
319.48447421193129
 21
119.99999955296509
 31
0.0
  0
LINE
  5
1CF68
  8
0
 10
319.43084493279468
 20
120.1044715940952
 30
0.0
 11
319.48447421193129
 21
119.99999955296509
 31
0.0
  0
LINE
  5
1CF6B
  8
0
 10
319.73450824618351
 20
119.6159426122904
 30
0.0
 11
319.48447421193129
 21
119.99999955296509
 31
0.0
  0
POLYLINE
  5
1CF6C
  8
0
 66
     1
 10
0.0
 20
0.0
 30
0.0
 70
   128
  0
VERTEX
  5
1E4B8
  8
0
 10
319.73450824618351
 20
119.6159426122904
 30
0.0
  0
VERTEX
  5
1E4B9
  8
0
 10
320.1134373247624
 20
118.8975892961025
 30
0.0
  0
VERTEX
  5
1E4BA
  8
0
 10
320.50906315445911
 20
118.165772780776
 30
0.0
  0
VERTEX
  5
1E4BB
  8
0
 10
320.5913026630879
 20
118.0157124996185
 30
0.0
  0
VERTEX
  5
1E4BC
  8
0
 10
320.59999749064463
 20
117.99999922513889
 30
0.0
  0
SEQEND
  5
1E4BD
  8
0
  0
ARC
  5
1CF6D
  8
0
 10
169.39428419863029
 20
157.17708511862079
 30
0.0
 40
81.27175351363627
 50
331.18059358544508
 51
332.47295541046469
  0
LINE
  5
1CF6E
  8
0
 10
241.71552255749691
 20
119.99999955296509
 30
0.0
 11
241.46548852324469
 21
119.6159426122904
 31
0.0
  0
LINE
  5
1CF73
  8
0
 10
241.59999758005131
 20
100.0
 30
0.0
 11
319.59999918937717
 21
100.0
 31
0.0
  0
LINE
  5
1CF7C
  8
0
 10
286.5204667486251
 20
164.99999761581421
 30
0.0
 11
286.5204667486251
 21
119.99999955296509
 31
0.0
  0
LINE
  5
1CF7D
  8
0
 10
274.67953002080333
 20
164.99999761581421
 30
0.0
 11
274.67953002080333
 21
119.99999955296509
 31
0.0
  0
LINE
  5
1CF7F
  8
0
 10
240.6999972462653
 20
176.99999958276749
 30
0.0
 11
320.49999952316318
 21
176.99999958276749
 31
0.0
  0
LINE
  5
1D04C
  8
5
 10
78.000000119209176
 20
262.3129046041754
 30
0.0
 11
78.000000119209176
 21
257.13633433769019
 31
0.0
  0
LINE
  5
1D04D
  8
5
 10
121.9999998807963
 20
257.13633433768803
 30
0.0
 11
121.9999998807906
 21
262.3129046041754
 31
0.0
  0
ARC
  5
1D04E
  8
5
 10
78.959600394709582
 20
257.11356020845369
 30
0.0
 40
0.959870485902379
 50
178.64045830874639
 51
239.78662725304221
  0
ARC
  5
1D04F
  8
5
 10
121.0344739351663
 20
257.11687379190101
 30
0.0
 40
0.9657220430988482
 50
300.41825236508163
 51
1.1546620738832529
  0
LINE
  5
1D072
  8
5
 10
94.575479999184495
 20
251.34494961092719
 30
0.0
 11
94.575479999184495
 21
256.07014880368962
 31
0.0
  0
LINE
  5
1D074
  8
5
 10
105.42452000081531
 20
256.07014880368962
 30
0.0
 11
105.42452000081531
 21
251.34494961092719
 31
0.0
  0
ARC
  5
1D075
  8
5
 10
95.604021297981816
 20
251.27877736070971
 30
0.0
 40
1.0306677301781391
 50
176.31889103067741
 51
262.08492476014402
  0
ARC
  5
1D076
  8
5
 10
100.00227754577359
 20
290.00610970362482
 30
0.0
 40
40.006639225565799
 50
237.4487825228145
 51
263.48370535334988
  0
ARC
  5
1D078
  8
5
 10
104.3685198882816
 20
251.30117374532441
 30
0.0
 40
1.0569070744771569
 50
279.22238040454317
 51
2.3738038046390511
  0
ARC
  5
1D079
  8
5
 10
99.999999999999886
 20
290.04788390170887
 30
0.0
 40
40.047885689848172
 50
263.4937252894178
 51
276.50627471059551
  0
ARC
  5
1D0FA
  8
5
 10
99.836506476942645
 20
293.01846727022257
 30
0.0
 40
42.00429113435041
 50
238.6768905483078
 51
262.80482191529433
  0
LINE
  5
1D12A
  8
5
 10
326.1999991536141
 20
149.72747713327399
 30
0.0
 11
326.1999991536141
 21
159.01230126619339
 31
0.0
  0
LINE
  5
1D12B
  8
5
 10
326.1999991536141
 20
119.0110504627274
 30
0.0
 11
326.1999991536141
 21
130.2499998360872
 31
0.0
  0
ARC
  5
1D12C
  8
5
 10
325.19105201073228
 20
119.0089464343949
 30
0.0
 40
1.008949336718463
 50
270.11766141014198
 51
0.119482739534524
  0
LINE
  5
1D12D
  8
5
 10
320.59999749064463
 20
117.9999992251396
 30
0.0
 11
325.19312396645557
 21
117.9999992251396
 31
0.0
  0
POLYLINE
  5
1D12E
  8
5
 66
     1
 10
0.0
 20
0.0
 30
0.0
 70
   128
  0
VERTEX
  5
1E4BE
  8
5
 10
326.1999991536141
 20
130.2499998360872
 30
0.0
  0
VERTEX
  5
1E4BF
  8
5
 10
326.19136765599262
 20
130.38005530834201
 30
0.0
  0
VERTEX
  5
1E4C0
  8
5
 10
326.18252754211443
 20
130.4355155676603
 30
0.0
  0
VERTEX
  5
1E4C1
  8
5
 10
326.17854520678532
 20
130.45553527772421
 30
0.0
  0
VERTEX
  5
1E4C2
  8
5
 10
326.1764962971211
 20
130.46509623527521
 30
0.0
  0
VERTEX
  5
1E4C3
  8
5
 10
326.17469325661671
 20
130.47314845025539
 30
0.0
  0
VERTEX
  5
1E4C4
  8
5
 10
326.17284551262873
 20
130.4811205714941
 30
0.0
  0
VERTEX
  5
1E4C5
  8
5
 10
326.1704501509667
 20
130.49107827246189
 30
0.0
  0
VERTEX
  5
1E4C6
  8
5
 10
326.16181120276462
 20
130.52588738501069
 30
0.0
  0
VERTEX
  5
1E4C7
  8
5
 10
326.11662343144428
 20
130.7082328945398
 30
0.0
  0
VERTEX
  5
1E4C8
  8
5
 10
326.02979809045797
 20
131.0702249407768
 30
0.0
  0
VERTEX
  5
1E4C9
  8
5
 10
325.9099704027177
 20
131.5930731594562
 30
0.0
  0
VERTEX
  5
1E4CA
  8
5
 10
325.76418861746799
 20
132.27408975362769
 30
0.0
  0
VERTEX
  5
1E4CB
  8
5
 10
325.60233592987072
 20
133.1050381064415
 30
0.0
  0
VERTEX
  5
1E4CC
  8
5
 10
325.43782338500029
 20
134.06358137726781
 30
0.0
  0
VERTEX
  5
1E4CD
  8
5
 10
325.28191626071941
 20
135.13599187135691
 30
0.0
  0
VERTEX
  5
1E4CE
  8
5
 10
325.14817833900457
 20
136.29443421959871
 30
0.0
  0
VERTEX
  5
1E4CF
  8
5
 10
325.04560619592678
 20
137.51729801297191
 30
0.0
  0
VERTEX
  5
1E4D0
  8
5
 10
324.98190000653278
 20
138.78069296479219
 30
0.0
  0
VERTEX
  5
1E4D1
  8
5
 10
324.96214479207998
 20
140.050558745861
 30
0.0
  0
VERTEX
  5
1E4D2
  8
5
 10
324.98544648289692
 20
141.32373631000519
 30
0.0
  0
VERTEX
  5
1E4D3
  8
5
 10
325.05133941769611
 20
142.56617277860639
 30
0.0
  0
VERTEX
  5
1E4D4
  8
5
 10
325.15403077006351
 20
143.76469179987899
 30
0.0
  0
VERTEX
  5
1E4D5
  8
5
 10
325.28764203190809
 20
144.9072085320949
 30
0.0
  0
VERTEX
  5
1E4D6
  8
5
 10
325.44176846742641
 20
145.9611676633358
 30
0.0
  0
VERTEX
  5
1E4D7
  8
5
 10
325.60639649629599
 20
146.91709578037259
 30
0.0
  0
VERTEX
  5
1E4D8
  8
5
 10
325.7671763002873
 20
147.74044826626769
 30
0.0
  0
VERTEX
  5
1E4D9
  8
5
 10
325.91413900256168
 20
148.4255850315094
 30
0.0
  0
VERTEX
  5
1E4DA
  8
5
 10
326.0349576175214
 20
148.95168915390971
 30
0.0
  0
VERTEX
  5
1E4DB
  8
5
 10
326.1198309063912
 20
149.30445179343221
 30
0.0
  0
VERTEX
  5
1E4DC
  8
5
 10
326.1647765338422
 20
149.48625341057769
 30
0.0
  0
VERTEX
  5
1E4DD
  8
5
 10
326.16954490542417
 20
149.50565844774241
 30
0.0
  0
VERTEX
  5
1E4DE
  8
5
 10
326.17148205637938
 20
149.51363056898111
 30
0.0
  0
VERTEX
  5
1E4DF
  8
5
 10
326.1730019748212
 20
149.52001571655271
 30
0.0
  0
VERTEX
  5
1E4E0
  8
5
 10
326.17536380887037
 20
149.53029379248619
 30
0.0
  0
VERTEX
  5
1E4E1
  8
5
 10
326.17733448743832
 20
149.53928291797629
 30
0.0
  0
VERTEX
  5
1E4E2
  8
5
 10
326.18044510483747
 20
149.5543517172336
 30
0.0
  0
VERTEX
  5
1E4E3
  8
5
 10
326.18845820426952
 20
149.60029199719429
 30
0.0
  0
VERTEX
  5
1E4E4
  8
5
 10
326.19905292987829
 20
149.71617460250849
 30
0.0
  0
VERTEX
  5
1E4E5
  8
5
 10
326.1999991536141
 20
149.72747713327399
 30
0.0
  0
SEQEND
  5
1E4E6
  8
5
  0
ARC
  5
1D131
  8
5
 10
235.98414956808949
 20
118.9842536579512
 30
0.0
 40
0.9845167006775417
 50
178.44031751615989
 51
271.32253833442371
  0
LINE
  5
1D132
  8
5
 10
234.99999761581429
 20
132.75810927152631
 30
0.0
 11
234.99999761581429
 21
119.01105046272269
 31
0.0
  0
LINE
  5
1D133
  8
5
 10
234.99999761581429
 20
159.01230126619339
 30
0.0
 11
234.99999761581429
 21
147.22553119063369
 31
0.0
  0
LINE
  5
1D134
  8
5
 10
236.00687280297291
 20
117.9999992251396
 30
0.0
 11
240.59999927878391
 21
117.9999992251396
 31
0.0
  0
POLYLINE
  5
1D154
  8
5
 66
     1
 10
0.0
 20
0.0
 30
0.0
 70
   128
  0
VERTEX
  5
1E4E7
  8
5
 10
326.1999991536141
 20
159.01230126619339
 30
0.0
  0
VERTEX
  5
1E4E8
  8
5
 10
326.1999991536141
 20
159.01230126619339
 30
0.0
  0
VERTEX
  5
1E4E9
  8
5
 10
326.17415308952337
 20
159.13909152150151
 30
0.0
  0
VERTEX
  5
1E4EA
  8
5
 10
326.11437708139431
 20
159.4709515571594
 30
0.0
  0
VERTEX
  5
1E4EB
  8
5
 10
326.02354705333721
 20
160.00654399394989
 30
0.0
  0
VERTEX
  5
1E4EC
  8
5
 10
325.94175830483448
 20
160.52861735224721
 30
0.0
  0
SEQEND
  5
1E4ED
  8
5
  0
ARC
  5
1D155
  8
5
 10
324.9207095400908
 20
160.26937903983929
 30
0.0
 40
1.0534443898965531
 50
14.24604426574871
 51
93.590517509299175
  0
LINE
  5
1D156
  8
5
 10
324.85473722219479
 20
161.32075563073161
 30
0.0
 11
320.12953802943241
 21
161.32075563073161
 31
0.0
  0
ARC
  5
1D158
  8
5
 10
236.3039942214387
 20
160.23547457892411
 30
0.0
 40
1.0860652782062641
 50
87.822508187424262
 51
164.34093003753429
  0
POLYLINE
  5
1D15A
  8
5
 66
     1
 10
0.0
 20
0.0
 30
0.0
 70
   128
  0
VERTEX
  5
1E4EE
  8
5
 10
234.99999761581429
 20
147.22553119063369
 30
0.0
  0
VERTEX
  5
1E4EF
  8
5
 10
235.0076568126679
 20
147.20763489603991
 30
0.0
  0
VERTEX
  5
1E4F0
  8
5
 10
235.04740193486219
 20
146.98373004794121
 30
0.0
  0
VERTEX
  5
1E4F1
  8
5
 10
235.11941552162179
 20
146.5592145919799
 30
0.0
  0
VERTEX
  5
1E4F2
  8
5
 10
235.21267071366319
 20
145.96606269478789
 30
0.0
  0
VERTEX
  5
1E4F3
  8
5
 10
235.32165780663499
 20
145.18971219658849
 30
0.0
  0
VERTEX
  5
1E4F4
  8
5
 10
235.43039530515679
 20
144.2797243595123
 30
0.0
  0
VERTEX
  5
1E4F5
  8
5
 10
235.53099304437649
 20
143.21944713592529
 30
0.0
  0
VERTEX
  5
1E4F6
  8
5
 10
235.60673192143449
 20
142.09569841623301
 30
0.0
  0
VERTEX
  5
1E4F7
  8
5
 10
235.65275788307201
 20
140.87626934051511
 30
0.0
  0
VERTEX
  5
1E4F8
  8
5
 10
235.66124036908161
 20
139.68331217765811
 30
0.0
  0
VERTEX
  5
1E4F9
  8
5
 10
235.63256680965429
 20
138.46471756696701
 30
0.0
  0
VERTEX
  5
1E4FA
  8
5
 10
235.5721463263036
 20
137.33205050230021
 30
0.0
  0
VERTEX
  5
1E4FB
  8
5
 10
235.48351794481289
 20
136.24302521348
 30
0.0
  0
VERTEX
  5
1E4FC
  8
5
 10
235.3799213469029
 20
135.27634218335149
 30
0.0
  0
VERTEX
  5
1E4FD
  8
5
 10
235.26821851730361
 20
134.41637381911269
 30
0.0
  0
VERTEX
  5
1E4FE
  8
5
 10
235.1653110980989
 20
133.72585400938979
 30
0.0
  0
VERTEX
  5
1E4FF
  8
5
 10
235.07855653762829
 20
133.1967547535896
 30
0.0
  0
VERTEX
  5
1E500
  8
5
 10
235.02259522676479
 20
132.87571668624881
 30
0.0
  0
VERTEX
  5
1E501
  8
5
 10
234.99999761581429
 20
132.75810927152631
 30
0.0
  0
VERTEX
  5
1E502
  8
5
 10
234.99999761581429
 20
132.75810927152631
 30
0.0
  0
SEQEND
  5
1E503
  8
5
  0
ARC
  5
1D15C
  8
5
 10
198.8567906193237
 20
165.94792897174
 30
0.0
 40
36.802640444146263
 50
349.13738855284629
 51
351.53221319227981
  0
LINE
  5
1D15D
  8
5
 10
241.0704587399961
 20
161.32075563073161
 30
0.0
 11
236.3452595472337
 21
161.32075563073161
 31
0.0
  0
POLYLINE
  5
1D1E5
  8
5
 66
     1
 10
0.0
 20
0.0
 30
0.0
 70
   128
  0
VERTEX
  5
1E504
  8
5
 10
325.94175830483448
 20
160.52861735224721
 30
0.0
  0
VERTEX
  5
1E505
  8
5
 10
325.59042245149618
 20
159.87447872757909
 30
0.0
  0
VERTEX
  5
1E506
  8
5
 10
325.10357916355139
 20
158.94096568226809
 30
0.0
  0
VERTEX
  5
1E507
  8
5
 10
324.20261025428778
 20
157.1140646934509
 30
0.0
  0
VERTEX
  5
1E508
  8
5
 10
323.13369780778891
 20
154.72228676080701
 30
0.0
  0
VERTEX
  5
1E509
  8
5
 10
322.19618007540709
 20
152.3186288774013
 30
0.0
  0
VERTEX
  5
1E50A
  8
5
 10
321.30020305514353
 20
149.5495162904262
 30
0.0
  0
VERTEX
  5
1E50B
  8
5
 10
320.63799545168888
 20
146.88608646392819
 30
0.0
  0
VERTEX
  5
1E50C
  8
5
 10
320.1524299383164
 20
143.9811609685421
 30
0.0
  0
VERTEX
  5
1E50D
  8
5
 10
319.96942132711422
 20
142.01691225171089
 30
0.0
  0
VERTEX
  5
1E50E
  8
5
 10
319.9060019850732
 20
139.9999991059303
 30
0.0
  0
VERTEX
  5
1E50F
  8
5
 10
320.01111105084431
 20
137.40263357758519
 30
0.0
  0
VERTEX
  5
1E510
  8
5
 10
320.43867751955997
 20
134.1343879699707
 30
0.0
  0
VERTEX
  5
1E511
  8
5
 10
321.15801990032207
 20
130.95987252891061
 30
0.0
  0
VERTEX
  5
1E512
  8
5
 10
321.34768933057802
 20
130.28587251901621
 30
0.0
  0
VERTEX
  5
1E513
  8
5
 10
322.3242630064488
 20
127.3299533873796
 30
0.0
  0
VERTEX
  5
1E514
  8
5
 10
323.38822454214107
 20
124.680720642209
 30
0.0
  0
VERTEX
  5
1E515
  8
5
 10
324.28644046187412
 20
122.70969375967979
 30
0.0
  0
VERTEX
  5
1E516
  8
5
 10
325.0894938409329
 20
121.0865568369627
 30
0.0
  0
VERTEX
  5
1E517
  8
5
 10
325.6747891008855
 20
119.967021420598
 30
0.0
  0
VERTEX
  5
1E518
  8
5
 10
326.06167167425173
 20
119.2515440285206
 30
0.0
  0
VERTEX
  5
1E519
  8
5
 10
326.1999991536141
 20
119.0110504627274
 30
0.0
  0
SEQEND
  5
1E51A
  8
5
  0
POLYLINE
  5
1D1E7
  8
5
 66
     1
 10
0.0
 20
0.0
 30
0.0
 70
   128
  0
VERTEX
  5
1E51B
  8
5
 10
325.19997831442709
 20
118.0000365845237
 30
0.0
  0
VERTEX
  5
1E51C
  8
5
 10
325.06513044238102
 20
118.26352067291729
 30
0.0
  0
VERTEX
  5
1E51D
  8
5
 10
324.69973534345638
 20
118.9893059432506
 30
0.0
  0
VERTEX
  5
1E51E
  8
5
 10
324.11725640296947
 20
120.1859157532453
 30
0.0
  0
VERTEX
  5
1E51F
  8
5
 10
323.35239097476023
 20
121.84562385082241
 30
0.0
  0
VERTEX
  5
1E520
  8
5
 10
322.45851874351513
 20
123.9512305706739
 30
0.0
  0
VERTEX
  5
1E521
  8
5
 10
321.44637972116482
 20
126.6533382236957
 30
0.0
  0
VERTEX
  5
1E522
  8
5
 10
320.4689976572991
 20
129.8232957720756
 30
0.0
  0
VERTEX
  5
1E523
  8
5
 10
319.67028424143803
 20
133.35277736186981
 30
0.0
  0
VERTEX
  5
1E524
  8
5
 10
319.36967194080358
 20
135.29045730829239
 30
0.0
  0
VERTEX
  5
1E525
  8
5
 10
319.1658352315427
 20
137.27895021438599
 30
0.0
  0
VERTEX
  5
1E526
  8
5
 10
319.06335249543201
 20
139.9999991059303
 30
0.0
  0
VERTEX
  5
1E527
  8
5
 10
319.12358298897749
 20
142.0853719115257
 30
0.0
  0
VERTEX
  5
1E528
  8
5
 10
319.30361881852161
 20
144.1707409918308
 30
0.0
  0
VERTEX
  5
1E529
  8
5
 10
319.7626192867757
 20
147.13992774486539
 30
0.0
  0
VERTEX
  5
1E52A
  8
5
 10
320.42269974946993
 20
150.0042550265789
 30
0.0
  0
VERTEX
  5
1E52B
  8
5
 10
321.27424895763409
 20
152.8393425047397
 30
0.0
  0
VERTEX
  5
1E52C
  8
5
 10
322.21035480499279
 20
155.42334541678429
 30
0.0
  0
VERTEX
  5
1E52D
  8
5
 10
323.2222442328931
 20
157.86018446087829
 30
0.0
  0
VERTEX
  5
1E52E
  8
5
 10
324.1309915482999
 20
159.84291434288019
 30
0.0
  0
VERTEX
  5
1E52F
  8
5
 10
324.53425049781811
 20
160.67594885826111
 30
0.0
  0
VERTEX
  5
1E530
  8
5
 10
324.85473722219479
 20
161.32075563073161
 30
0.0
  0
SEQEND
  5
1E531
  8
5
  0
POLYLINE
  5
1D1E8
  8
5
 66
     1
 10
0.0
 20
0.0
 30
0.0
 70
   128
  0
VERTEX
  5
1E532
  8
5
 10
236.3452595472337
 20
161.32075563073161
 30
0.0
  0
VERTEX
  5
1E533
  8
5
 10
236.7816177010537
 20
160.43916940689081
 30
0.0
  0
VERTEX
  5
1E534
  8
5
 10
237.3721209168435
 20
159.19909104704851
 30
0.0
  0
VERTEX
  5
1E535
  8
5
 10
238.2062022387982
 20
157.33432620763779
 30
0.0
  0
VERTEX
  5
1E536
  8
5
 10
239.1448785364629
 20
155.0211779773235
 30
0.0
  0
VERTEX
  5
1E537
  8
5
 10
240.16418501734739
 20
152.1059520542621
 30
0.0
  0
VERTEX
  5
1E538
  8
5
 10
241.09870016574871
 20
148.72095584869379
 30
0.0
  0
VERTEX
  5
1E539
  8
5
 10
241.7735812067987
 20
145.13169825077051
 30
0.0
  0
VERTEX
  5
1E53A
  8
5
 10
241.9963349401952
 20
143.1813336908817
 30
0.0
  0
VERTEX
  5
1E53B
  8
5
 10
242.1168033778668
 20
141.19649901986119
 30
0.0
  0
VERTEX
  5
1E53C
  8
5
 10
242.08645716309559
 20
138.0965359508991
 30
0.0
  0
VERTEX
  5
1E53D
  8
5
 10
241.7491395771504
 20
134.6973799169063
 30
0.0
  0
VERTEX
  5
1E53E
  8
5
 10
241.11797854304319
 20
131.3616581261158
 30
0.0
  0
VERTEX
  5
1E53F
  8
5
 10
240.3166462481023
 20
128.38441170752051
 30
0.0
  0
VERTEX
  5
1E540
  8
5
 10
239.39132511615759
 20
125.63663013279439
 30
0.0
  0
VERTEX
  5
1E541
  8
5
 10
238.3778114616872
 20
123.06920848786829
 30
0.0
  0
VERTEX
  5
1E542
  8
5
 10
237.42251664400109
 20
120.909545943141
 30
0.0
  0
VERTEX
  5
1E543
  8
5
 10
236.6594542562963
 20
119.311249256134
 30
0.0
  0
VERTEX
  5
1E544
  8
5
 10
236.36573001742369
 20
118.7198929488659
 30
0.0
  0
VERTEX
  5
1E545
  8
5
 10
236.15375727415091
 20
118.3006152510643
 30
0.0
  0
VERTEX
  5
1E546
  8
5
 10
236.0003535449506
 20
118.0006884038448
 30
0.0
  0
VERTEX
  5
1E547
  8
5
 10
236.0003535449506
 20
118.0006884038448
 30
0.0
  0
SEQEND
  5
1E548
  8
5
  0
POLYLINE
  5
1D1E9
  8
5
 66
     1
 10
0.0
 20
0.0
 30
0.0
 70
   128
  0
VERTEX
  5
1E549
  8
5
 10
235.00830128788959
 20
119.01392638683321
 30
0.0
  0
VERTEX
  5
1E54A
  8
5
 10
235.15770033001911
 20
119.2869510501623
 30
0.0
  0
VERTEX
  5
1E54B
  8
5
 10
235.66601619124421
 20
120.2306415885687
 30
0.0
  0
VERTEX
  5
1E54C
  8
5
 10
236.45899266004571
 20
121.7772927135229
 30
0.0
  0
VERTEX
  5
1E54D
  8
5
 10
237.42373481392869
 20
123.8047894090414
 30
0.0
  0
VERTEX
  5
1E54E
  8
5
 10
238.47828254103669
 20
126.2895114719867
 30
0.0
  0
VERTEX
  5
1E54F
  8
5
 10
239.4148615002633
 20
128.8752019405365
 30
0.0
  0
VERTEX
  5
1E550
  8
5
 10
240.24920731782919
 20
131.75431117415431
 30
0.0
  0
VERTEX
  5
1E551
  8
5
 10
240.88560238480579
 20
134.88354757428169
 30
0.0
  0
VERTEX
  5
1E552
  8
5
 10
241.2425187230111
 20
138.1830558180809
 30
0.0
  0
VERTEX
  5
1E553
  8
5
 10
241.27364724874511
 20
141.14211350679389
 30
0.0
  0
VERTEX
  5
1E554
  8
5
 10
240.9651075303556
 20
144.58130151033399
 30
0.0
  0
VERTEX
  5
1E555
  8
5
 10
240.34459337592139
 20
147.85479977726931
 30
0.0
  0
VERTEX
  5
1E556
  8
5
 10
240.22943347692501
 20
148.32454770803449
 30
0.0
  0
VERTEX
  5
1E557
  8
5
 10
239.28338482975971
 20
151.51823908090589
 30
0.0
  0
VERTEX
  5
1E558
  8
5
 10
238.22551414370551
 20
154.33839932084081
 30
0.0
  0
VERTEX
  5
1E559
  8
5
 10
237.2727413475514
 20
156.5253458917141
 30
0.0
  0
VERTEX
  5
1E55A
  8
5
 10
236.40730425715461
 20
158.3264045417308
 30
0.0
  0
VERTEX
  5
1E55B
  8
5
 10
235.7422691583634
 20
159.62396040558809
 30
0.0
  0
VERTEX
  5
1E55C
  8
5
 10
235.26818498969089
 20
160.5103075504303
 30
0.0
  0
VERTEX
  5
1E55D
  8
5
 10
235.258238464594
 20
160.52861735224721
 30
0.0
  0
SEQEND
  5
1E55E
  8
5
  0
POLYLINE
  5
1D559
  8
0
 66
     1
 10
0.0
 20
0.0
 30
0.0
 70
   128
  0
VERTEX
  5
1E55F
  8
0
 10
86.711205914616471
 20
333.326947547891
 30
0.0
  0
VERTEX
  5
1E560
  8
0
 10
89.483159035444146
 20
334.19238091299758
 30
0.0
  0
VERTEX
  5
1E561
  8
0
 10
92.335484363138562
 20
334.8574160117887
 30
0.0
  0
VERTEX
  5
1E562
  8
0
 10
95.375813450664168
 20
335.33150018046132
 30
0.0
  0
VERTEX
  5
1E563
  8
0
 10
95.462093036621695
 20
335.34144670555821
 30
0.0
  0
SEQEND
  5
1E564
  8
0
  0
LINE
  5
1D55A
  8
0
 10
108.0000003799795
 20
256.1770385582231
 30
0.0
 11
107.0000002160667
 21
255.59968934247721
 31
0.0
  0
LINE
  5
1D55B
  8
0
 10
92.999999783933049
 20
255.59968934247721
 30
0.0
 11
91.999999620020276
 21
256.1770385582231
 31
0.0
  0
LINE
  5
1D55C
  8
0
 10
108.0000003799795
 20
256.4079663787075
 30
0.0
 11
108.0000003799795
 21
256.1770385582231
 31
0.0
  0
LINE
  5
1D55D
  8
0
 10
91.999999620020276
 20
256.1770385582231
 30
0.0
 11
91.999999620020276
 21
256.42018080542312
 31
0.0
  0
LINE
  5
1D55E
  8
0
 10
108.0000003799795
 20
256.1770385582231
 30
0.0
 11
106.7711475096406
 21
256.1770385582231
 31
0.0
  0
LINE
  5
1D55F
  8
0
 10
93.393140746742674
 20
256.1770385582231
 30
0.0
 11
91.999999620020276
 21
256.1770385582231
 31
0.0
  0
LINE
  5
1D560
  8
0
 10
92.999999783933049
 20
255.59968934247721
 30
0.0
 11
107.0000002160667
 21
255.59968934247721
 31
0.0
  0
ARC
  5
1D561
  8
0
 10
99.997677938195807
 20
295.60624645325902
 30
0.0
 40
40.006778491466321
 50
276.51633603301627
 51
290.00908554091711
  0
POLYLINE
  5
1D562
  8
0
 66
     1
 10
0.0
 20
0.0
 30
0.0
 70
   128
  0
VERTEX
  5
1E565
  8
0
 10
86.711205914616471
 20
257.87242934892402
 30
0.0
  0
VERTEX
  5
1E566
  8
0
 10
89.483159035444146
 20
257.00699598381738
 30
0.0
  0
VERTEX
  5
1E567
  8
0
 10
92.335484363138562
 20
256.34196088502631
 30
0.0
  0
VERTEX
  5
1E568
  8
0
 10
95.375813450664168
 20
255.86787671635381
 30
0.0
  0
VERTEX
  5
1E569
  8
0
 10
95.462093036621695
 20
255.85793019125691
 30
0.0
  0
SEQEND
  5
1E56A
  8
0
  0
ARC
  5
1D563
  8
0
 10
99.999999999999886
 20
295.64743407664582
 30
0.0
 40
40.047437109678512
 50
263.49365209631139
 51
276.50634790368861
  0
POLYLINE
  5
1D564
  8
0
 66
     1
 10
0.0
 20
0.0
 30
0.0
 70
   128
  0
VERTEX
  5
1E56B
  8
0
 10
113.68676327006639
 20
258.01434216467561
 30
0.0
  0
VERTEX
  5
1E56C
  8
0
 10
113.7285273522137
 20
258.0293534774562
 30
0.0
  0
VERTEX
  5
1E56D
  8
0
 10
115.740731731057
 20
258.76173437426291
 30
0.0
  0
VERTEX
  5
1E56E
  8
0
 10
117.7523009479044
 20
259.49388802836143
 30
0.0
  0
VERTEX
  5
1E56F
  8
0
 10
120.7112878561019
 20
260.57086945364682
 30
0.0
  0
VERTEX
  5
1E570
  8
0
 10
123.70307967066751
 20
261.65979415962897
 30
0.0
  0
SEQEND
  5
1E571
  8
0
  0
POLYLINE
  5
1D565
  8
0
 66
     1
 10
0.0
 20
0.0
 30
0.0
 70
   128
  0
VERTEX
  5
1E572
  8
0
 10
76.296920329332238
 20
261.65979415962897
 30
0.0
  0
VERTEX
  5
1E573
  8
0
 10
79.272309690713769
 20
260.5768410939952
 30
0.0
  0
VERTEX
  5
1E574
  8
0
 10
82.2476990520953
 20
259.49388802836143
 30
0.0
  0
VERTEX
  5
1E575
  8
0
 10
84.273500740527993
 20
258.75655622074811
 30
0.0
  0
VERTEX
  5
1E576
  8
0
 10
86.711205914616471
 20
257.87242934892402
 30
0.0
  0
SEQEND
  5
1E577
  8
0
  0
LINE
  5
1D5FE
  8
1
 10
30.000002384185681
 20
295.59968844840751
 30
0.0
 11
169.9999976158141
 21
295.59968844840751
 31
0.0
  0
LINE
  5
1D5FF
  8
1
 10
149.99999999999989
 20
311.09968844840768
 30
0.0
 11
149.99999999999989
 21
280.09968844840779
 31
0.0
  0
LINE
  5
1D600
  8
1
 10
49.999999999999893
 20
311.09968844840807
 30
0.0
 11
49.999999999999893
 21
280.09968844840779
 31
0.0
  0
ARC
  5
1D607
  8
5
 10
99.997722454235259
 20
290.00610970362482
 30
0.0
 40
40.006639225565799
 50
276.51629464663722
 51
302.55121747719448
  0
ARC
  5
1D608
  8
5
 10
100.16349352306619
 20
293.01846727022257
 30
0.0
 40
42.00429113435041
 50
277.19517808470567
 51
301.32310945168501
  0
LINE
  5
1D609
  8
5
 10
78.000000119209176
 20
328.88647229263961
 30
0.0
 11
78.000000119209176
 21
334.06304255912482
 31
0.0
  0
LINE
  5
1D60A
  8
5
 10
121.9999998807963
 20
334.06304255912698
 30
0.0
 11
121.9999998807906
 21
328.88647229263961
 31
0.0
  0
ARC
  5
1D60B
  8
5
 10
78.959600394709582
 20
334.08581668836132
 30
0.0
 40
0.959870485902379
 50
120.21337274695939
 51
181.35954169126009
  0
ARC
  5
1D60C
  8
5
 10
121.0344739351663
 20
334.08250310491411
 30
0.0
 40
0.9657220430988482
 50
358.84533792612319
 51
59.581747634920028
  0
LINE
  5
1D60D
  8
5
 10
94.575479999184495
 20
339.85442728588782
 30
0.0
 11
94.575479999184495
 21
335.1292280931255
 31
0.0
  0
LINE
  5
1D60E
  8
5
 10
105.42452000081531
 20
335.1292280931255
 30
0.0
 11
105.42452000081531
 21
339.85442728588782
 31
0.0
  0
ARC
  5
1D60F
  8
5
 10
95.604021297981816
 20
339.92059953610533
 30
0.0
 40
1.0306677301781391
 50
97.915075239855994
 51
183.68110896932251
  0
ARC
  5
1D610
  8
5
 10
100.00227754577359
 20
301.1932671931902
 30
0.0
 40
40.006639225565799
 50
96.516294646650124
 51
122.55121747718719
  0
ARC
  5
1D611
  8
5
 10
104.3685198882816
 20
339.89820315149058
 30
0.0
 40
1.0569070744771569
 50
357.62619619536088
 51
80.777619595456756
  0
ARC
  5
1D612
  8
5
 10
99.999999999999886
 20
301.15149299510608
 30
0.0
 40
40.047885689848172
 50
83.493725289404452
 51
96.506274710582204
  0
ARC
  5
1D613
  8
5
 10
99.836506476942645
 20
298.18090962659238
 30
0.0
 40
42.00429113435041
 50
97.195178084705702
 51
121.3231094516922
  0
ARC
  5
1D614
  8
5
 10
99.997722454235259
 20
301.1932671931902
 30
0.0
 40
40.006639225565799
 50
57.448782522805502
 51
83.483705353362794
  0
ARC
  5
1D615
  8
5
 10
100.16349352306619
 20
298.18090962659238
 30
0.0
 40
42.00429113435041
 50
58.676890548309473
 51
82.804821915294312
  0
LINE
  5
1D616
  8
1
 10
99.999999999999886
 20
346.19937868495418
 30
0.0
 11
99.999999999999886
 21
244.9999982118608
 31
0.0
  0
LINE
  5
1DADB
  8
0
 10
139.90000113844869
 20
165.99999964237219
 30
0.0
 11
139.90000113844869
 21
176.9999995827676
 31
0.0
  0
LINE
  5
1DADC
  8
0
 10
60.099998861551278
 20
176.9999995827676
 30
0.0
 11
60.099998861551278
 21
165.99999964237219
 31
0.0
  0
ARC
  5
1DADD
  8
0
 10
63.100000000000023
 20
177.0
 30
0.0
 40
3.0
 50
90.0
 51
180.0
  0
ARC
  5
1DADE
  8
0
 10
136.89999999999989
 20
177.0
 30
0.0
 40
3.0
 50
0.0
 51
90.0
  0
ARC
  5
1DADF
  8
0
 10
163.25630573379809
 20
118.5
 30
0.0
 40
1.5
 50
0.0
 51
90.0
  0
LINE
  5
1DAE0
  8
0
 10
164.75630402565
 20
115.4999997466803
 30
0.0
 11
164.75630402565
 21
118.50000023841859
 31
0.0
  0
LINE
  5
1DAE1
  8
0
 10
35.243695974349983
 20
118.50000023841859
 30
0.0
 11
35.243695974349983
 21
115.4999997466803
 31
0.0
  0
ARC
  5
1DAE2
  8
0
 10
36.743694266201828
 20
118.5
 30
0.0
 40
1.500000000000056
 50
90.0
 51
180.0
  0
LINE
  5
1DAE3
  8
0
 10
138.97502645850179
 20
122.7891309738919
 30
0.0
 11
138.97502645850179
 21
165.6272992491723
 31
0.0
  0
LINE
  5
1DAE4
  8
0
 10
138.97502645850179
 20
119.99999955296521
 30
0.0
 11
138.97502645850179
 21
120.17953991889959
 31
0.0
  0
LINE
  5
1DAE5
  8
0
 10
61.024973541498177
 20
120.17953991889959
 30
0.0
 11
61.024973541498177
 21
119.99999955296521
 31
0.0
  0
LINE
  5
1DAE6
  8
0
 10
61.024973541498177
 20
165.64875692129141
 30
0.0
 11
61.024973541498291
 21
122.7891309738917
 31
0.0
  0
ARC
  5
1DAE7
  8
0
 10
61.100000000000023
 20
166.00000000000011
 30
0.0
 40
1.00000000000002
 50
180.0
 51
265.69734125380961
  0
ARC
  5
1DAE8
  8
0
 10
138.90000000000001
 20
166.00000000000011
 30
0.0
 40
1.000000000000024
 50
274.30265874620341
 51
0.0
  0
CIRCLE
  5
1DAEF
  8
0
 10
99.999999999999886
 20
166.50000000000011
 30
0.0
 40
5.0
  0
CIRCLE
  5
1DAF0
  8
0
 10
99.999999999999886
 20
166.50000000000011
 30
0.0
 40
4.8000000000000114
  0
LINE
  5
1DAF1
  8
0
 10
102.3094010539352
 20
166.50000065565121
 30
0.0
 11
101.1547005269675
 21
168.4999972581864
 31
0.0
  0
LINE
  5
1DAF2
  8
0
 10
101.1547005269675
 20
168.4999972581864
 30
0.0
 11
98.845299473032242
 21
168.4999972581864
 31
0.0
  0
LINE
  5
1DAF3
  8
0
 10
98.845299473032242
 20
168.4999972581864
 30
0.0
 11
97.690598946064597
 21
166.50000065565121
 31
0.0
  0
LINE
  5
1DAF4
  8
0
 10
97.690598946064597
 20
166.50000065565121
 30
0.0
 11
98.845299473032242
 21
164.4999966025353
 31
0.0
  0
LINE
  5
1DAF5
  8
0
 10
98.845299473032242
 20
164.4999966025353
 30
0.0
 11
101.1547005269675
 21
164.4999966025353
 31
0.0
  0
LINE
  5
1DAF6
  8
0
 10
101.1547005269675
 20
164.4999966025353
 30
0.0
 11
102.3094010539352
 21
166.50000065565121
 31
0.0
  0
CIRCLE
  5
1DAFB
  8
0
 10
99.999999999999886
 20
166.50000000000011
 30
0.0
 40
5.25
  0
LINE
  5
1DAFE
  8
0
 10
104.00000018998971
 20
142.30939969420439
 30
0.0
 11
104.00000018998971
 21
137.69059851765641
 31
0.0
  0
LINE
  5
1DB01
  8
0
 10
95.999999810010081
 20
137.69059851765641
 30
0.0
 11
95.999999810010081
 21
142.30939969420439
 31
0.0
  0
CIRCLE
  5
1DB02
  8
0
 10
99.999999999999886
 20
140.00000000000011
 30
0.0
 40
5.0
  0
CIRCLE
  5
1DB03
  8
0
 10
99.999999999999886
 20
140.00000000000011
 30
0.0
 40
8.0
  0
CIRCLE
  5
1DB04
  8
0
 10
99.999999999999886
 20
140.00000000000011
 30
0.0
 40
7.0
  0
CIRCLE
  5
1DB12
  8
0
 10
99.999986505931361
 20
139.9995087716178
 30
0.0
 40
8.7495087716280615
  0
LINE
  5
1DB1F
  8
0
 10
63.100001215934753
 20
179.99999821186071
 30
0.0
 11
136.89999878406519
 21
179.99999821186071
 31
0.0
  0
LINE
  5
1DB21
  8
0
 10
61.164455860853188
 20
122.8955280035735
 30
0.0
 11
61.024973541498291
 21
122.7891309738918
 31
0.0
  0
ARC
  5
1DB22
  8
0
 10
59.410602959450209
 20
121.5005958791906
 30
0.0
 40
2.065554421083708
 50
325.25549957462908
 51
38.595664116979329
  0
LINE
  5
1DB24
  8
0
 10
61.164455860853188
 20
122.8955280035735
 30
0.0
 11
86.163921654224282
 21
122.8955280035735
 31
0.0
  0
LINE
  5
1DB26
  8
0
 10
113.8360783457755
 20
122.8955280035735
 30
0.0
 11
138.8355441391468
 21
122.8955280035735
 31
0.0
  0
LINE
  5
1DB27
  8
0
 10
138.8355441391468
 20
122.8955280035735
 30
0.0
 11
138.97502645850179
 21
122.7891309738919
 31
0.0
  0
ARC
  5
1DB28
  8
0
 10
140.58939704054961
 20
121.5005958791906
 30
0.0
 40
2.0655544210836831
 50
141.40433588301559
 51
214.74450042537731
  0
LINE
  5
1DB40
  8
0
 10
164.99999761581421
 20
101.00000004749739
 30
0.0
 11
164.00000303983691
 21
100.0
 31
0.0
  0
LINE
  5
1DB41
  8
0
 10
164.00000303983691
 20
100.0
 30
0.0
 11
35.999996960163116
 21
100.0
 31
0.0
  0
LINE
  5
1DB42
  8
0
 10
164.99999761581421
 20
115.4999997466803
 30
0.0
 11
164.75630402564991
 21
115.4999997466802
 31
0.0
  0
LINE
  5
1DB43
  8
0
 10
164.99999761581421
 20
115.4999997466803
 30
0.0
 11
164.99999761581421
 21
101.00000004749739
 31
0.0
  0
LINE
  5
1DB45
  8
0
 10
35.000002384185791
 20
101.00000004749739
 30
0.0
 11
35.000002384185791
 21
115.4999997466803
 31
0.0
  0
LINE
  5
1DB46
  8
0
 10
35.243695974349983
 20
115.4999997466802
 30
0.0
 11
35.000002384185791
 21
115.4999997466803
 31
0.0
  0
LINE
  5
1DB47
  8
0
 10
36.743694278598582
 20
120.0
 30
0.0
 11
90.834848955273856
 21
119.99999955296521
 31
0.0
  0
LINE
  5
1DB48
  8
0
 10
35.000002384185791
 20
101.00000004749739
 30
0.0
 11
35.999996960163116
 21
100.0
 31
0.0
  0
LINE
  5
1DB4A
  8
0
 10
109.1651510447261
 20
119.99999955296521
 30
0.0
 11
163.25630843639371
 21
119.99999955296521
 31
0.0
  0
LINE
  5
1DB4C
  8
0
 10
164.99999761581421
 20
115.4999997466803
 30
0.0
 11
164.75630402565
 21
115.7436933368445
 31
0.0
  0
LINE
  5
1DB4F
  8
0
 10
35.243695974349983
 20
115.7436933368445
 30
0.0
 11
35.000002384185791
 21
115.4999997466803
 31
0.0
  0
ARC
  5
1DB50
  8
0
 10
140.68306916732229
 20
165.89696651386819
 30
0.0
 40
1.7293649189370119
 50
176.5843753522563
 51
188.9709851438202
  0
ARC
  5
1DB52
  8
0
 10
-12.405074168003811
 20
167.08006646523319
 30
0.0
 40
73.456238739329692
 50
358.8835095873419
 51
359.15751879458008
  0
LINE
  5
1DB5F
  8
0
 10
60.099998861551278
 20
165.99999964237219
 30
0.0
 11
61.043223738670342
 21
165.99999964237219
 31
0.0
  0
LINE
  5
1DB60
  8
0
 10
138.95677626132959
 20
165.99999964237219
 30
0.0
 11
139.90000113844869
 21
165.99999964237219
 31
0.0
  0
LINE
  5
1DB61
  8
0
 10
139.90000113844869
 20
176.9999995827676
 30
0.0
 11
60.099998861551278
 21
176.9999995827676
 31
0.0
  0
LINE
  5
1DC97
  8
0
 10
61.024973541498177
 20
120.17953991889959
 30
0.0
 11
61.107872426509971
 21
120.3233994543553
 31
0.0
  0
LINE
  5
1DC98
  8
0
 10
138.89212757349009
 20
120.3233994543552
 30
0.0
 11
138.97502645850179
 21
120.17953991889959
 31
0.0
  0
ARC
  5
1DCDD
  8
0
 10
99.999999999999886
 20
140.00000000000011
 30
0.0
 40
22.0
 50
104.27458136495881
 51
75.72541863504118
  0
CIRCLE
  5
1DCDE
  8
0
 10
99.999999999999886
 20
140.00000000000011
 30
0.0
 40
4.0
  0
LINE
  5
1DCDF
  8
0
 10
104.00000018998971
 20
142.30939969420439
 30
0.0
 11
99.999999999999886
 21
144.61880400776869
 31
0.0
  0
LINE
  5
1DCE0
  8
0
 10
104.00000018998971
 20
137.69059851765641
 30
0.0
 11
99.999999999999886
 21
135.38119792938241
 31
0.0
  0
LINE
  5
1DCE1
  8
0
 10
95.999999810010081
 20
142.30939969420439
 30
0.0
 11
99.999999999999886
 21
144.61880400776869
 31
0.0
  0
LINE
  5
1DCE2
  8
0
 10
95.999999810010081
 20
137.69059851765641
 30
0.0
 11
99.999999999999886
 21
135.38119792938241
 31
0.0
  0
CIRCLE
  5
1DCE3
  8
0
 10
99.999999999999886
 20
166.50000000000011
 30
0.0
 40
7.5
  0
LINE
  5
1DCE4
  8
1
 10
99.999999999999886
 20
184.99999821186071
 30
0.0
 11
99.999999999999886
 21
95.0
 31
0.0
  0
LINE
  5
1DCE5
  8
1
 10
49.999999999999773
 20
97.0
 30
0.0
 11
49.999999999999773
 21
122.9999998904437
 31
0.0
  0
LINE
  5
1DCE6
  8
1
 10
149.99999999999989
 20
97.0
 30
0.0
 11
149.99999999999989
 21
122.99999955296531
 31
0.0
  0
LINE
  5
1DCEC
  8
1
 10
124.9999999999999
 20
139.99999910593041
 30
0.0
 11
74.999999999999886
 21
139.99999910593041
 31
0.0
  0
ARC
  5
1DE01
  8
0
 10
244.8702832077114
 20
119.68433511842591
 30
0.0
 40
76.848363283572908
 50
9.8074241388948966
 51
12.05965780518666
  0
LINE
  5
1DE57
  8
1
 10
280.59999838471418
 20
95.0
 30
0.0
 11
280.59999838471418
 21
184.9999982118606
 31
0.0
  0
LINE
  5
1DE58
  8
1
 10
230.6588621808493
 20
139.99999910593041
 30
0.0
 11
329.96353635357337
 21
139.99999910593041
 31
0.0
  0
ENDSEC
  0
EOF
