  0
SECTION
  2
HEADER
  9
$ACADVER
  1
AC1009
  9
$INSBASE
 10
0.0
 20
0.0
 30
0.0
  9
$EXTMIN
 10
0.0
 20
-2.960436562073669
 30
0.0
  9
$EXTMAX
 10
500.0000007450908015
 20
490.0000029802999961
 30
0.0
  9
$LIMMIN
 10
0.0
 20
0.0
  9
$LIMMAX
 10
375.0
 20
270.0
  9
$ORTHOMODE
 70
     0
  9
$REGENMODE
 70
     1
  9
$FILLMODE
 70
     1
  9
$QTEXTMODE
 70
     0
  9
$MIRRTEXT
 70
     0
  9
$DRAGMODE
 70
     2
  9
$LTSCALE
 40
10.0
  9
$OSMODE
 70
    37
  9
$ATTMODE
 70
     1
  9
$TEXTSIZE
 40
6.0
  9
$TRACEWID
 40
0.05
  9
$TEXTSTYLE
  7
STANDARD
  9
$CLAYER
  8
0
  9
$CELTYPE
  6
BYLAYER
  9
$CECOLOR
 62
   256
  9
$DIMSCALE
 40
1.0
  9
$DIMASZ
 40
3.0
  9
$DIMEXO
 40
2.0
  9
$DIMDLI
 40
0.3799999999999999
  9
$DIMRND
 40
0.0
  9
$DIMDLE
 40
0.0
  9
$DIMEXE
 40
2.0
  9
$DIMTP
 40
0.0
  9
$DIMTM
 40
0.0
  9
$DIMTXT
 40
3.2000000000000002
  9
$DIMCEN
 40
0.09
  9
$DIMTSZ
 40
0.0
  9
$DIMTOL
 70
     0
  9
$DIMLIM
 70
     0
  9
$DIMTIH
 70
     0
  9
$DIMTOH
 70
     0
  9
$DIMSE1
 70
     0
  9
$DIMSE2
 70
     0
  9
$DIMTAD
 70
     1
  9
$DIMZIN
 70
     9
  9
$DIMBLK
  1

  9
$DIMASO
 70
     0
  9
$DIMSHO
 70
     0
  9
$DIMPOST
  1

  9
$DIMAPOST
  1

  9
$DIMALT
 70
     0
  9
$DIMALTD
 70
     2
  9
$DIMALTF
 40
25.3999999999999986
  9
$DIMLFAC
 40
1.0
  9
$DIMTOFL
 70
     0
  9
$DIMTVP
 40
0.0
  9
$DIMTIX
 70
     0
  9
$DIMSOXD
 70
     0
  9
$DIMSAH
 70
     0
  9
$DIMBLK1
  1

  9
$DIMBLK2
  1

  9
$DIMSTYLE
  2
STANDARD
  9
$DIMCLRD
 70
     0
  9
$DIMCLRE
 70
     0
  9
$DIMCLRT
 70
     0
  9
$DIMTFAC
 40
1.0
  9
$DIMGAP
 40
0.09
  9
$LUNITS
 70
     2
  9
$LUPREC
 70
     2
  9
$SKETCHINC
 40
0.1
  9
$FILLETRAD
 40
20.0
  9
$AUNITS
 70
     0
  9
$AUPREC
 70
     2
  9
$MENU
  1
E:\r13\win\SUPPORT\ACAD
  9
$ELEVATION
 40
0.0
  9
$PELEVATION
 40
0.0
  9
$THICKNESS
 40
0.0
  9
$LIMCHECK
 70
     0
  9
$BLIPMODE
 70
     0
  9
$CHAMFERA
 40
0.0
  9
$CHAMFERB
 40
0.0
  9
$SKPOLY
 70
     0
  9
$TDCREATE
 40
2449840.6320370370522141
  9
$TDUPDATE
 40
2460139.5733680562116206
  9
$TDINDWG
 40
2.3487168518999999
  9
$TDUSRTIMER
 40
2.3487168518999999
  9
$USRTIMER
 70
     1
  9
$ANGBASE
 50
0.0
  9
$ANGDIR
 70
     0
  9
$PDMODE
 70
     0
  9
$PDSIZE
 40
0.0
  9
$PLINEWID
 40
0.0
  9
$COORDS
 70
     1
  9
$SPLFRAME
 70
     0
  9
$SPLINETYPE
 70
     6
  9
$SPLINESEGS
 70
     8
  9
$ATTDIA
 70
     1
  9
$ATTREQ
 70
     1
  9
$HANDLING
 70
     1
  9
$HANDSEED
  5
1EA61
  9
$SURFTAB1
 70
     6
  9
$SURFTAB2
 70
     6
  9
$SURFTYPE
 70
     6
  9
$SURFU
 70
     6
  9
$SURFV
 70
     6
  9
$UCSNAME
  2

  9
$UCSORG
 10
0.0
 20
0.0
 30
0.0
  9
$UCSXDIR
 10
1.0
 20
0.0
 30
0.0
  9
$UCSYDIR
 10
0.0
 20
1.0
 30
0.0
  9
$PUCSNAME
  2

  9
$PUCSORG
 10
0.0
 20
0.0
 30
0.0
  9
$PUCSXDIR
 10
1.0
 20
0.0
 30
0.0
  9
$PUCSYDIR
 10
0.0
 20
1.0
 30
0.0
  9
$USERI1
 70
     0
  9
$USERI2
 70
     1
  9
$USERI3
 70
     0
  9
$USERI4
 70
     0
  9
$USERI5
 70
     0
  9
$USERR1
 40
0.0
  9
$USERR2
 40
0.0
  9
$USERR3
 40
0.0
  9
$USERR4
 40
0.0
  9
$USERR5
 40
0.0
  9
$WORLDVIEW
 70
     1
  9
$SHADEDGE
 70
     3
  9
$SHADEDIF
 70
    70
  9
$TILEMODE
 70
     1
  9
$MAXACTVP
 70
    16
  9
$PLIMCHECK
 70
     0
  9
$PEXTMIN
 10
1.0000000000000000E+20
 20
1.0000000000000000E+20
 30
1.0000000000000000E+20
  9
$PEXTMAX
 10
-1.0000000000000000E+20
 20
-1.0000000000000000E+20
 30
-1.0000000000000000E+20
  9
$PLIMMIN
 10
0.0
 20
0.0
  9
$PLIMMAX
 10
12.0
 20
9.0
  9
$UNITMODE
 70
     0
  9
$VISRETAIN
 70
     0
  9
$PLINEGEN
 70
     0
  9
$PSLTSCALE
 70
     0
  0
ENDSEC
  0
SECTION
  2
TABLES
  0
TABLE
  2
VPORT
 70
     1
  0
VPORT
  2
*ACTIVE
 70
     0
 10
0.0
 20
0.0
 11
1.0
 21
1.0
 12
541.7140848479801889
 22
243.5197855047092048
 13
0.0
 23
0.0
 14
10.0
 24
10.0
 15
10.0
 25
10.0
 16
0.0
 26
0.0
 36
1.0
 17
0.0
 27
0.0
 37
0.0
 40
496.7462138173999051
 41
2.3485221674876842
 42
50.0
 43
0.0
 44
0.0
 50
0.0
 51
0.0
 71
     0
 72
   500
 73
     1
 74
     0
 75
     0
 76
     0
 77
     0
 78
     0
  0
ENDTAB
  0
TABLE
  2
LTYPE
 70
     5
  0
LTYPE
  2
CONTINUOUS
 70
     0
  3
Solid Line
 72
    65
 73
     0
 40
0.0
  0
LTYPE
  2
CENTER
 70
     0
  3
____ _ ____ _ ____ _ ____ _ ____ _ ____ _ ____
 72
    65
 73
     4
 40
2.0
 49
1.25
 49
-0.25
 49
0.25
 49
-0.25
  0
LTYPE
  2
PHANTOM
 70
     0
  3
_____ _ _ _____ _ _ _____ _ _ _____ _ _ ____
 72
    65
 73
     6
 40
2.5
 49
1.25
 49
-0.25
 49
0.25
 49
-0.25
 49
0.25
 49
-0.25
  0
LTYPE
  2
PHANTOM2
 70
     0
  3
___ _ _ ___ _ _ ___ _ _ ___ _ _
 72
    65
 73
     6
 40
1.25
 49
0.625
 49
-0.125
 49
0.125
 49
-0.125
 49
0.125
 49
-0.125
  0
LTYPE
  2
HIDDEN
 70
     0
  3
__ __ __ __ __ __ __ __ __ __ __ __ __ __ __ __
 72
    65
 73
     2
 40
0.375
 49
0.25
 49
-0.125
  0
ENDTAB
  0
TABLE
  2
LAYER
 70
     5
  0
LAYER
  2
0
 70
     0
 62
     7
  6
CONTINUOUS
  0
LAYER
  2
1
 70
     0
 62
     1
  6
CENTER
  0
LAYER
  2
DEFPOINTS
 70
     0
 62
     7
  6
CONTINUOUS
  0
LAYER
  2
5
 70
     0
 62
     3
  6
PHANTOM
  0
LAYER
  2
2
 70
     0
 62
     2
  6
HIDDEN
  0
ENDTAB
  0
TABLE
  2
STYLE
 70
     2
  0
STYLE
  2
STANDARD
 70
     0
 40
0.0
 41
1.0
 50
0.0
 71
     0
 42
6.0
  3
TXT
  4
BIGFONT
  0
STYLE
  2
STANDARD1
 70
     0
 40
0.0
 41
1.0
 50
0.0
 71
     0
 42
3.0
  3
txt
  4

  0
ENDTAB
  0
TABLE
  2
VIEW
 70
     2
  0
VIEW
  2
ALL
 70
     0
 40
270.0
 10
213.2568907563025107
 20
135.0
 41
0.0
 11
0.0
 21
0.0
 31
1.0
 12
0.0
 22
0.0
 32
0.0
 42
0.0
 43
0.0
 44
0.0
 50
0.0
 71
     0
  0
VIEW
  2
OLE1
 70
     0
 40
15.6789342459855998
 10
-163.2659756536116902
 20
683.383189952388193
 41
19.9060978907366213
 11
0.0
 21
0.0
 31
1.0
 12
0.0
 22
0.0
 32
0.0
 42
50.0
 43
0.0
 44
0.0
 50
0.0
 71
     0
  0
ENDTAB
  0
TABLE
  2
UCS
 70
     0
  0
ENDTAB
  0
TABLE
  2
APPID
 70
    13
  0
APPID
  2
ACAD
 70
     0
  0
APPID
  2
ACAD_EXEMPT_FROM_CAD_STANDARDS
 70
     0
  0
APPID
  2
ACAD_MLEADERVER
 70
     0
  0
APPID
  2
ACAD_DSTYLE_DIMJAG
 70
     0
  0
APPID
  2
ACAD_DSTYLE_DIMTALN
 70
     0
  0
APPID
  2
ACAD_PSEXT
 70
     0
  0
APPID
  2
ACAD_DSTYLE_DIMBREAK
 70
     0
  0
APPID
  2
ACAECLAYERSTANDARD
 70
     0
  0
APPID
  2
ACCMTRANSPARENCY
 70
     0
  0
APPID
  2
GRADIENTCOLOR1ACI
 70
     0
  0
APPID
  2
GRADIENTCOLOR2ACI
 70
     0
  0
APPID
  2
ACAD_DSTYLE_DIMRADIAL_EXTENSION
 70
     0
  0
APPID
  2
ACAD_NAV_VCDISPLAY
 70
     0
  0
ENDTAB
  0
TABLE
  2
DIMSTYLE
 70
     1
  0
DIMSTYLE
  2
STANDARD
 70
     0
  3

  4

  5

  6

  7

 40
1.0
 41
0.18
 42
0.0625
 43
0.38
 44
0.18
 45
0.0
 46
0.0
 47
0.0
 48
0.0
140
0.18
141
0.09
142
0.0
143
25.3999999999999986
144
1.0
145
0.0
146
1.0
147
0.09
 71
     0
 72
     0
 73
     1
 74
     1
 75
     0
 76
     0
 77
     0
 78
     0
170
     0
171
     2
172
     0
173
     0
174
     0
175
     0
176
     0
177
     0
178
     0
  0
ENDTAB
  0
ENDSEC
  0
SECTION
  2
BLOCKS
  0
BLOCK
  8
0
  2
$MODEL_SPACE
 70
     0
 10
0.0
 20
0.0
 30
0.0
  3
$MODEL_SPACE
  1

  0
ENDBLK
  5
126
  8
0
  0
BLOCK
 67
     1
  8
0
  2
$PAPER_SPACE
 70
     0
 10
0.0
 20
0.0
 30
0.0
  3
$PAPER_SPACE
  1

  0
ENDBLK
  5
124
 67
     1
  8
0
  0
ENDSEC
  0
SECTION
  2
ENTITIES
  0
TEXT
  5
1B133
  8
0
 62
     3
 10
0.0
 20
0.0
 30
0.0
 40
10.0
  1
CP150-20100
  7
STANDARD1
  0
LINE
  5
1E633
  8
0
 10
250.0000007450481121
 20
191.5000005066999904
 30
0.0
 11
250.0000007450481121
 21
247.999999523199989
 31
0.0
  0
LINE
  5
1E634
  8
0
 10
149.9999992549477952
 20
247.999999523199989
 30
0.0
 11
149.9999992549477952
 21
191.5000005066999904
 31
0.0
  0
LINE
  5
1E636
  8
0
 10
249.6999993920478005
 20
258.4999984502999837
 30
0.0
 11
248.200000077447811
 21
260.0000014902000203
 31
0.0
  0
LINE
  5
1E637
  8
0
 10
151.7999999224479097
 20
260.0000014902000203
 30
0.0
 11
150.3000006079477942
 21
258.4999984502999837
 31
0.0
  0
LINE
  5
1E638
  8
0
 10
249.6999993920478005
 20
247.999999523199989
 30
0.0
 11
249.6999993920478005
 21
258.4999984502999837
 31
0.0
  0
LINE
  5
1E639
  8
0
 10
150.3000006079477942
 20
258.4999984502999837
 30
0.0
 11
150.3000006079477942
 21
247.999999523199989
 31
0.0
  0
ARC
  5
1E63A
  8
0
 10
251.9738370387445059
 20
191.6378881641915086
 30
0.0
 40
1.978647467728706
 50
183.9960723820055932
 51
235.8715693305935872
  0
ARC
  5
1E63B
  8
0
 10
148.0265178038683018
 20
191.6377997074322934
 30
0.0
 40
1.978287324331649
 50
304.1176059871440884
 51
356.0057671128885204
  0
LINE
  5
1E63D
  8
0
 10
204.9999998882479133
 20
207.1132472157999871
 30
0.0
 11
204.9999998882479133
 21
212.8867505491000998
 31
0.0
  0
LINE
  5
1E63E
  8
0
 10
195.000000111747795
 20
212.8867505491000998
 30
0.0
 11
195.000000111747795
 21
207.1132472157999871
 31
0.0
  0
CIRCLE
  5
1E643
  8
0
 10
199.9999999999477041
 20
210.0
 30
0.0
 40
10.0000000000000693
  0
CIRCLE
  5
1E64C
  8
0
 10
199.9999999999477041
 20
210.0
 30
0.0
 40
10.75
  0
LINE
  5
1E64F
  8
0
 10
202.4999999440478859
 20
242.0566266776000077
 30
0.0
 11
199.9999999999477041
 21
240.6132480503000011
 31
0.0
  0
LINE
  5
1E650
  8
0
 10
202.4999999440478859
 20
244.9433764816000121
 30
0.0
 11
202.4999999440478859
 21
242.0566266776000077
 31
0.0
  0
LINE
  5
1E651
  8
0
 10
199.9999999999477041
 20
246.3867476583000098
 30
0.0
 11
202.4999999440478859
 21
244.9433764816000121
 31
0.0
  0
LINE
  5
1E652
  8
0
 10
197.5000000558480053
 20
244.9433764816000121
 30
0.0
 11
199.9999999999477041
 21
246.3867476583000098
 31
0.0
  0
LINE
  5
1E653
  8
0
 10
197.5000000558480053
 20
242.0566266776000077
 30
0.0
 11
197.5000000558480053
 21
244.9433764816000121
 31
0.0
  0
LINE
  5
1E655
  8
0
 10
199.9999999999477041
 20
240.6132480503000011
 30
0.0
 11
197.5000000558480053
 21
242.0566266776000077
 31
0.0
  0
CIRCLE
  5
1E656
  8
0
 10
199.9999999999477041
 20
243.5
 30
0.0
 40
6.5
  0
CIRCLE
  5
1E65C
  8
0
 10
199.9999999999477041
 20
243.5
 30
0.0
 40
6.7499999999999858
  0
LINE
  5
1E65F
  8
0
 10
208.9302854612479052
 20
247.999999523199989
 30
0.0
 11
250.0000007450481121
 21
247.999999523199989
 31
0.0
  0
LINE
  5
1E662
  8
0
 10
149.9999992549477952
 20
247.999999523199989
 30
0.0
 11
191.069714538748002
 21
247.999999523199989
 31
0.0
  0
LINE
  5
1E668
  8
0
 10
249.6999993920478005
 20
258.4999984502999837
 30
0.0
 11
150.3000006079477942
 21
258.4999984502999837
 31
0.0
  0
LINE
  5
1E669
  8
0
 10
151.7999999224479097
 20
260.0000014902000203
 30
0.0
 11
248.200000077447811
 21
260.0000014902000203
 31
0.0
  0
LINE
  5
1E67F
  8
0
 10
218.8745853776453885
 20
189.9999993295000138
 30
0.0
 11
283.9999988674478004
 21
189.9999993295000138
 31
0.0
  0
LINE
  5
1E680
  8
0
 10
116.0000011324479061
 20
189.9999993295000138
 30
0.0
 11
181.1254146222499912
 21
189.9999993295000138
 31
0.0
  0
LINE
  5
1E682
  8
0
 10
114.9999991059477935
 20
188.999999165600002
 30
0.0
 11
116.0000011324479061
 21
189.9999993295000138
 31
0.0
  0
LINE
  5
1E684
  8
0
 10
283.9999988674478004
 20
189.9999993295000138
 30
0.0
 11
285.0000008940479006
 21
188.999999165600002
 31
0.0
  0
LINE
  5
1E688
  8
0
 10
116.1999970674477964
 20
160.0
 30
0.0
 11
114.9999991059477935
 21
161.2000000570000111
 31
0.0
  0
LINE
  5
1E689
  8
0
 10
116.1999970674477964
 20
160.0
 30
0.0
 11
283.8000029325478977
 21
160.0
 31
0.0
  0
LINE
  5
1E68B
  8
0
 10
285.0000008940479006
 20
161.2000000570000111
 30
0.0
 11
283.8000029325478977
 21
160.0
 31
0.0
  0
LINE
  5
1E68D
  8
0
 10
114.9999991059477935
 20
161.2000000570000111
 30
0.0
 11
114.9999991059477935
 21
188.999999165600002
 31
0.0
  0
LINE
  5
1E68E
  8
0
 10
285.0000008940479006
 20
188.999999165600002
 30
0.0
 11
285.0000008940479006
 21
161.2000000570000111
 31
0.0
  0
LINE
  5
1E69D
  8
0
 10
489.5314262481692822
 20
201.0314239235781884
 30
0.0
 11
490.0000007450906878
 21
201.4999984204999919
 31
0.0
  0
LINE
  5
1E69E
  8
0
 10
490.0000007450906878
 20
218.499999344399896
 30
0.0
 11
489.527329936259207
 21
218.9726701532316042
 31
0.0
  0
LINE
  5
1E69F
  8
0
 10
390.7206380366911276
 20
219.2206381261999866
 30
0.0
 11
389.9999992548910086
 21
218.499999344399896
 31
0.0
  0
LINE
  5
1E6A0
  8
0
 10
389.9999992548910086
 20
201.4999984204999919
 30
0.0
 11
390.7215395569909901
 21
200.7784581184999979
 31
0.0
  0
LINE
  5
1E6A1
  8
0
 10
490.0000007450906878
 20
221.7429465056000026
 30
0.0
 11
490.0000007450906878
 21
233.5238566994999871
 31
0.0
  0
LINE
  5
1E6A2
  8
0
 10
490.0000007450906878
 20
182.5000008940999976
 30
0.0
 11
490.0000007450906878
 21
198.2821075619000055
 31
0.0
  0
LINE
  5
1E6A3
  8
0
 10
389.9999992548910086
 20
196.7759019136998972
 30
0.0
 11
389.9999992548910086
 21
182.5000008940999976
 31
0.0
  0
LINE
  5
1E6A4
  8
0
 10
389.9999992548910086
 20
233.5238566994999871
 30
0.0
 11
389.9999992548910086
 21
223.2299557329000095
 31
0.0
  0
LINE
  5
1E6A5
  8
0
 10
489.6999993919907865
 20
253.4664458036999974
 30
0.0
 11
489.6999993919907865
 21
258.4999984502999837
 31
0.0
  0
LINE
  5
1E6A6
  8
0
 10
390.3000006079910236
 20
258.4999984502999837
 30
0.0
 11
390.3000006079910236
 21
253.4664458036999974
 31
0.0
  0
LINE
  5
1E6A7
  8
0
 10
489.6999993919907865
 20
258.4999984502999837
 30
0.0
 11
488.2000000774909836
 21
260.0000014902000203
 31
0.0
  0
LINE
  5
1E6A8
  8
0
 10
391.7999999224912244
 20
260.0000014902000203
 30
0.0
 11
390.3000006079910236
 21
258.4999984502999837
 31
0.0
  0
LINE
  5
1E6A9
  8
0
 10
490.0000007450906878
 20
161.2000000570000111
 30
0.0
 11
490.0000007450906878
 21
182.5000008940999976
 31
0.0
  0
LINE
  5
1E6AA
  8
0
 10
488.7999990581910765
 20
160.0
 30
0.0
 11
490.0000007450906878
 21
161.2000000570000111
 31
0.0
  0
LINE
  5
1E6AB
  8
0
 10
389.9999992548910086
 20
182.5000008940999976
 30
0.0
 11
389.9999992548910086
 21
161.2000000570000111
 31
0.0
  0
LINE
  5
1E6AC
  8
0
 10
389.9999992548910086
 20
161.2000000570000111
 30
0.0
 11
391.2000009416910871
 21
160.0
 31
0.0
  0
LINE
  5
1E6AD
  8
0
 10
490.0000007450906878
 20
218.499999344399896
 30
0.0
 11
490.0000007450906878
 21
201.4999984204999919
 31
0.0
  0
LINE
  5
1E6AE
  8
0
 10
389.9999992548910086
 20
201.4999984204999919
 30
0.0
 11
389.9999992548910086
 21
218.499999344399896
 31
0.0
  0
POLYLINE
  5
1E6AF
  8
0
 66
     1
 10
0.0
 20
0.0
 30
0.0
 70
   128
  0
VERTEX
  5
1E98B
  8
0
 10
489.4810566305908992
 20
236.5447765588999971
 30
0.0
  0
VERTEX
  5
1E98C
  8
0
 10
489.2891333996907974
 20
236.1852785945000051
 30
0.0
  0
VERTEX
  5
1E98D
  8
0
 10
488.480346798890821
 20
234.6291279793001081
 30
0.0
  0
VERTEX
  5
1E98E
  8
0
 10
487.4264025687912181
 20
232.483628988300012
 30
0.0
  0
VERTEX
  5
1E98F
  8
0
 10
486.1789444088907999
 20
229.7166174651000858
 30
0.0
  0
VERTEX
  5
1E990
  8
0
 10
484.8581911622908933
 20
226.3861930371000994
 30
0.0
  0
VERTEX
  5
1E991
  8
0
 10
483.5424409806910262
 20
222.3366981744999862
 30
0.0
  0
VERTEX
  5
1E992
  8
0
 10
482.9555401205911949
 20
220.0704029203000118
 30
0.0
  0
VERTEX
  5
1E993
  8
0
 10
482.4627698957909843
 20
217.7030479908000018
 30
0.0
  0
VERTEX
  5
1E994
  8
0
 10
482.1182289719907885
 20
215.4929934442000103
 30
0.0
  0
VERTEX
  5
1E995
  8
0
 10
481.8831072747912003
 20
213.231842815899995
 30
0.0
  0
VERTEX
  5
1E996
  8
0
 10
481.7672134935909867
 20
210.8455187083000055
 30
0.0
  0
VERTEX
  5
1E997
  8
0
 10
481.7869836091908269
 20
208.4501495958000135
 30
0.0
  0
VERTEX
  5
1E998
  8
0
 10
482.1092621981911179
 20
204.5741415024000105
 30
0.0
  0
VERTEX
  5
1E999
  8
0
 10
482.7720211445911787
 20
200.7427921892000029
 30
0.0
  0
VERTEX
  5
1E99A
  8
0
 10
483.6876527964910224
 20
197.1601767838000114
 30
0.0
  0
VERTEX
  5
1E99B
  8
0
 10
484.7894297539909871
 20
193.8029898702999958
 30
0.0
  0
VERTEX
  5
1E99C
  8
0
 10
486.1177118122909064
 20
190.4272286593999866
 30
0.0
  0
VERTEX
  5
1E99D
  8
0
 10
487.437634319091103
 20
187.4926833808999049
 30
0.0
  0
VERTEX
  5
1E99E
  8
0
 10
488.0616316198911022
 20
186.2055844068999875
 30
0.0
  0
VERTEX
  5
1E99F
  8
0
 10
488.6228577792908254
 20
185.0915177166999968
 30
0.0
  0
VERTEX
  5
1E9A0
  8
0
 10
489.1205155848909953
 20
184.1333898156998998
 30
0.0
  0
VERTEX
  5
1E9A1
  8
0
 10
489.5184510945910006
 20
183.3855843543998958
 30
0.0
  0
VERTEX
  5
1E9A2
  8
0
 10
489.9355681239907767
 20
182.6173214614998983
 30
0.0
  0
VERTEX
  5
1E9A3
  8
0
 10
490.0000007450906878
 20
182.5000008940999976
 30
0.0
  0
SEQEND
  5
1E9A4
  8
0
  0
POLYLINE
  5
1E6B0
  8
0
 66
     1
 10
0.0
 20
0.0
 30
0.0
 70
   128
  0
VERTEX
  5
1E9A5
  8
0
 10
490.0000007450906878
 20
233.5238566994999871
 30
0.0
  0
VERTEX
  5
1E9A6
  8
0
 10
489.9577447771907828
 20
233.7134739756999977
 30
0.0
  0
VERTEX
  5
1E9A7
  8
0
 10
489.8690791427911222
 20
234.1766393185000936
 30
0.0
  0
VERTEX
  5
1E9A8
  8
0
 10
489.7373379766909238
 20
234.9091431499001033
 30
0.0
  0
VERTEX
  5
1E9A9
  8
0
 10
489.4810566305908992
 20
236.5447765588999971
 30
0.0
  0
SEQEND
  5
1E9AA
  8
0
  0
ARC
  5
1E6B1
  8
0
 10
550.5474109324213714
 20
210.0159785619707975
 30
0.0
 40
61.6739216285061786
 50
169.0387724646600134
 51
190.9677597987493982
  0
POLYLINE
  5
1E6B2
  8
0
 66
     1
 10
0.0
 20
0.0
 30
0.0
 70
   128
  0
VERTEX
  5
1E9AB
  8
0
 10
390.5189433693909109
 20
236.5447765588999971
 30
0.0
  0
VERTEX
  5
1E9AC
  8
0
 10
391.013140380391178
 20
235.6117627024999877
 30
0.0
  0
VERTEX
  5
1E9AD
  8
0
 10
391.9048705696908996
 20
233.8619267940999862
 30
0.0
  0
VERTEX
  5
1E9AE
  8
0
 10
393.0032686888911826
 20
231.5625360607999994
 30
0.0
  0
VERTEX
  5
1E9AF
  8
0
 10
394.3088078498909113
 20
228.5454830527999945
 30
0.0
  0
VERTEX
  5
1E9B0
  8
0
 10
395.6446783244909966
 20
224.9547502398999939
 30
0.0
  0
VERTEX
  5
1E9B1
  8
0
 10
396.2959000467907913
 20
222.8954321145999984
 30
0.0
  0
VERTEX
  5
1E9B2
  8
0
 10
396.8865485488909144
 20
220.7247278094999956
 30
0.0
  0
VERTEX
  5
1E9B3
  8
0
 10
397.4105925857912212
 20
218.3717003465000062
 30
0.0
  0
VERTEX
  5
1E9B4
  8
0
 10
397.822915166590974
 20
215.9292808175000005
 30
0.0
  0
VERTEX
  5
1E9B5
  8
0
 10
398.2135900854909778
 20
211.5342764556999953
 30
0.0
  0
VERTEX
  5
1E9B6
  8
0
 10
398.2340791820910795
 20
209.2181777954000097
 30
0.0
  0
VERTEX
  5
1E9B7
  8
0
 10
398.1275917589910023
 20
206.9099059700999987
 30
0.0
  0
VERTEX
  5
1E9B8
  8
0
 10
397.68021792169111
 20
203.1287474931000929
 30
0.0
  0
VERTEX
  5
1E9B9
  8
0
 10
396.9251537322912213
 20
199.4315309822999893
 30
0.0
  0
VERTEX
  5
1E9BA
  8
0
 10
395.914761871090775
 20
195.8664132655000003
 30
0.0
  0
VERTEX
  5
1E9BB
  8
0
 10
394.7463618218911847
 20
192.560344785500007
 30
0.0
  0
VERTEX
  5
1E9BC
  8
0
 10
393.3874467014912284
 20
189.2881615459999125
 30
0.0
  0
VERTEX
  5
1E9BD
  8
0
 10
392.0865119993908934
 20
186.5063308180000092
 30
0.0
  0
VERTEX
  5
1E9BE
  8
0
 10
391.5131078659911168
 20
185.3579076380000004
 30
0.0
  0
VERTEX
  5
1E9BF
  8
0
 10
391.0130397974908192
 20
184.3880450725999935
 30
0.0
  0
VERTEX
  5
1E9C0
  8
0
 10
390.5879245697910847
 20
183.5839039088000106
 30
0.0
  0
VERTEX
  5
1E9C1
  8
0
 10
390.2705596386908837
 20
182.9950528591998875
 30
0.0
  0
VERTEX
  5
1E9C2
  8
0
 10
390.0690884887907828
 20
182.6258169859999896
 30
0.0
  0
VERTEX
  5
1E9C3
  8
0
 10
389.9999992548910086
 20
182.5000008940999976
 30
0.0
  0
SEQEND
  5
1E9C4
  8
0
  0
POLYLINE
  5
1E6B3
  8
0
 66
     1
 10
0.0
 20
0.0
 30
0.0
 70
   128
  0
VERTEX
  5
1E9C5
  8
0
 10
389.9999992548910086
 20
233.5238566994999871
 30
0.0
  0
VERTEX
  5
1E9C6
  8
0
 10
390.0422552227910273
 20
233.7134739756999977
 30
0.0
  0
VERTEX
  5
1E9C7
  8
0
 10
390.1309208571910858
 20
234.1766393185000936
 30
0.0
  0
VERTEX
  5
1E9C8
  8
0
 10
390.2626620232908863
 20
234.9091431499001033
 30
0.0
  0
VERTEX
  5
1E9C9
  8
0
 10
390.5189433693909109
 20
236.5447765588999971
 30
0.0
  0
SEQEND
  5
1E9CA
  8
0
  0
POLYLINE
  5
1E6B4
  8
0
 66
     1
 10
0.0
 20
0.0
 30
0.0
 70
   128
  0
VERTEX
  5
1E9CB
  8
0
 10
390.7215395569909901
 20
200.7784581184999979
 30
0.0
  0
VERTEX
  5
1E9CC
  8
0
 10
390.5626298486909036
 20
199.7519357502999924
 30
0.0
  0
VERTEX
  5
1E9CD
  8
0
 10
390.3630176185910727
 20
198.6024489998999911
 30
0.0
  0
VERTEX
  5
1E9CE
  8
0
 10
390.1772187649908119
 20
197.6223176718000047
 30
0.0
  0
VERTEX
  5
1E9CF
  8
0
 10
390.047064572590898
 20
196.9764417410000021
 30
0.0
  0
VERTEX
  5
1E9D0
  8
0
 10
389.9999992548910086
 20
196.7759019136998972
 30
0.0
  0
SEQEND
  5
1E9D1
  8
0
  0
POLYLINE
  5
1E6B5
  8
0
 66
     1
 10
0.0
 20
0.0
 30
0.0
 70
   128
  0
VERTEX
  5
1E9D2
  8
0
 10
389.9999992548910086
 20
223.2299557329000095
 30
0.0
  0
VERTEX
  5
1E9D3
  8
0
 10
390.0385001301910961
 20
223.065037131299988
 30
0.0
  0
VERTEX
  5
1E9D4
  8
0
 10
390.1353874802911719
 20
222.5885948538999912
 30
0.0
  0
VERTEX
  5
1E9D5
  8
0
 10
390.2762332558908724
 20
221.8647150696000097
 30
0.0
  0
VERTEX
  5
1E9D6
  8
0
 10
390.4541419445909014
 20
220.8869642019998878
 30
0.0
  0
VERTEX
  5
1E9D7
  8
0
 10
390.6630748509911086
 20
219.6209689975000003
 30
0.0
  0
VERTEX
  5
1E9D8
  8
0
 10
390.8780576288908719
 20
218.1258870661999936
 30
0.0
  0
VERTEX
  5
1E9D9
  8
0
 10
391.0921090840910779
 20
216.3084259629999906
 30
0.0
  0
VERTEX
  5
1E9DA
  8
0
 10
391.267272233991207
 20
214.2970336973999963
 30
0.0
  0
VERTEX
  5
1E9DB
  8
0
 10
391.3846188783908815
 20
212.0597063005000109
 30
0.0
  0
VERTEX
  5
1E9DC
  8
0
 10
391.4189995824909261
 20
209.7063174843999889
 30
0.0
  0
VERTEX
  5
1E9DD
  8
0
 10
391.361767947691078
 20
207.3527647554998907
 30
0.0
  0
VERTEX
  5
1E9DE
  8
0
 10
391.2141272425910756
 20
205.0076460838999992
 30
0.0
  0
VERTEX
  5
1E9DF
  8
0
 10
391.0140120982910048
 20
202.9753102362998902
 30
0.0
  0
VERTEX
  5
1E9E0
  8
0
 10
390.7215395569909901
 20
200.7784581184999979
 30
0.0
  0
SEQEND
  5
1E9E1
  8
0
  0
LINE
  5
1E6D1
  8
0
 10
393.6830680211019171
 20
189.9999993295000138
 30
0.0
 11
486.3098743296773137
 21
189.9999993295000138
 31
0.0
  0
ARC
  5
1E6D7
  8
0
 10
538.4801661920910192
 20
243.4951002557999971
 30
0.0
 40
49.489592211964208
 50
174.7772958010010882
 51
188.0733142179014976
  0
ARC
  5
1E6DA
  8
0
 10
341.4795729677912846
 20
243.4961020016999953
 30
0.0
 40
49.5295949387478132
 50
351.9320792631003201
 51
5.2173107181011309
  0
LINE
  5
1E6DB
  8
0
 10
390.8039653300912164
 20
247.999999523199989
 30
0.0
 11
489.1960346698911053
 21
247.999999523199989
 31
0.0
  0
CIRCLE
  5
1E6DC
  8
0
 10
439.9999999999907914
 20
237.5
 30
0.0
 40
4.250000000000056
  0
LINE
  5
1E6DE
  8
0
 10
489.6999993919907865
 20
258.4999984502999837
 30
0.0
 11
390.3000006079910236
 21
258.4999984502999837
 31
0.0
  0
ARC
  5
1E6DF
  8
0
 10
541.1458813814911082
 20
243.1241230875999975
 30
0.0
 40
52.4817668434499325
 50
168.6346158299039928
 51
174.669184707800099
  0
LINE
  5
1E6E1
  8
0
 10
391.7999999224912244
 20
260.0000014902000203
 30
0.0
 11
488.2000000774909836
 21
260.0000014902000203
 31
0.0
  0
LINE
  5
1E6E8
  8
0
 10
391.2000009416910871
 20
160.0
 30
0.0
 11
488.7999990581910765
 21
160.0
 31
0.0
  0
LINE
  5
1E6F0
  8
0
 10
448.267267607091128
 20
160.0
 30
0.0
 11
448.267267607091128
 21
189.9999993295000138
 31
0.0
  0
LINE
  5
1E6F2
  8
0
 10
431.7327323927910925
 20
189.9999993295000138
 30
0.0
 11
431.7327323927910925
 21
160.0
 31
0.0
  0
LINE
  5
1E6FE
  8
0
 10
209.3895494936955117
 20
479.1104520857999205
 30
0.0
 11
208.5000004618954961
 21
480.0000029802998824
 31
0.0
  0
LINE
  5
1E6FF
  8
0
 10
191.4999995379957909
 20
480.0000029802998824
 30
0.0
 11
190.6104505060957024
 21
479.1104520857999205
 31
0.0
  0
LINE
  5
1E700
  8
0
 10
190.6104505060957024
 20
380.8895523846999822
 30
0.0
 11
191.4999995379957909
 21
380.0000014902000203
 31
0.0
  0
LINE
  5
1E701
  8
0
 10
208.5000004618954961
 20
380.0000014902000203
 30
0.0
 11
209.3895494936955117
 21
380.8895523846999822
 31
0.0
  0
LINE
  5
1E702
  8
0
 10
192.5000001675958003
 20
437.3482001643965873
 30
0.0
 11
192.5000001675958003
 21
422.6518043060032142
 31
0.0
  0
LINE
  5
1E703
  8
0
 10
207.4999998322954866
 20
422.6518043061053049
 30
0.0
 11
207.4999998322954866
 21
437.3482001642946102
 31
0.0
  0
LINE
  5
1E708
  8
0
 10
191.4999995379957909
 20
480.0000029802998824
 30
0.0
 11
208.5000004618954961
 21
480.0000029802998824
 31
0.0
  0
LINE
  5
1E70A
  8
0
 10
208.5000004618954961
 20
380.0000014902000203
 30
0.0
 11
191.4999995379957909
 21
380.0000014902000203
 31
0.0
  0
ARC
  5
1E70F
  8
0
 10
199.9999999998956071
 20
429.9976485183998989
 30
0.0
 40
10.5014573743344304
 50
38.2567055535005096
 51
141.7432944464993909
  0
ARC
  5
1E710
  8
0
 10
199.9999999998956071
 20
429.9748034967998933
 30
0.0
 40
50.0249355950491719
 50
81.742089562694261
 51
98.2579104373057532
  0
LINE
  5
1E711
  8
0
 10
191.0557279361956091
 20
435.5000022053998805
 30
0.0
 11
182.8608632086956902
 21
435.5000022053998805
 31
0.0
  0
LINE
  5
1E712
  8
0
 10
191.7537886648956089
 20
436.5000023692999207
 30
0.0
 11
191.0557279361956091
 21
435.5000022053998805
 31
0.0
  0
LINE
  5
1E713
  8
0
 10
217.1391367911955967
 20
435.5000022053998805
 30
0.0
 11
208.9442720635956903
 21
435.5000022053998805
 31
0.0
  0
LINE
  5
1E714
  8
0
 10
208.9442720635956903
 20
435.5000022053998805
 30
0.0
 11
208.2462113349957065
 21
436.5000023692999207
 31
0.0
  0
ARC
  5
1E717
  8
0
 10
199.9999999998956071
 20
430.0023559520000163
 30
0.0
 40
10.5014573743344304
 50
218.2567055535980103
 51
321.7432944464994762
  0
LINE
  5
1E71B
  8
0
 10
208.9442720635956903
 20
424.500002264999921
 30
0.0
 11
217.1391367911955967
 21
424.500002264999921
 31
0.0
  0
LINE
  5
1E71C
  8
0
 10
208.2462113349957065
 20
423.5000021010999944
 30
0.0
 11
208.9442720635956903
 21
424.500002264999921
 31
0.0
  0
LINE
  5
1E71D
  8
0
 10
182.8608632086956902
 20
424.500002264999921
 30
0.0
 11
191.0557279361956091
 21
424.500002264999921
 31
0.0
  0
LINE
  5
1E71E
  8
0
 10
191.0557279361956091
 20
424.500002264999921
 30
0.0
 11
191.7537886648956089
 21
423.5000021010999944
 31
0.0
  0
CIRCLE
  5
1E720
  8
0
 10
199.9999999998956071
 20
430.000002235199986
 30
0.0
 40
48.2000000000000171
  0
CIRCLE
  5
1E721
  8
0
 10
199.9999999998956071
 20
430.000002235199986
 30
0.0
 40
39.0
  0
CIRCLE
  5
1E722
  8
0
 10
199.9999999998956071
 20
430.000002235199986
 30
0.0
 40
23.7000000000000206
  0
CIRCLE
  5
1E723
  8
0
 10
199.9999999998956071
 20
430.000002235199986
 30
0.0
 40
31.0000000000000284
  0
CIRCLE
  5
1E724
  8
0
 10
199.9999999998956071
 20
430.000002235199986
 30
0.0
 40
22.0175713468371406
  0
CIRCLE
  5
1E725
  8
0
 10
199.9999999998956071
 20
430.000002235199986
 30
0.0
 40
18.0
  0
CIRCLE
  5
1E74A
  8
0
 10
267.4999999998955786
 20
430.000002235199986
 30
0.0
 40
16.0
  0
CIRCLE
  5
1E74E
  8
0
 10
132.4999999998956071
 20
430.000002235199986
 30
0.0
 40
16.0
  0
LINE
  5
1E754
  8
0
 10
128.1595945356955895
 20
457.0611219108998853
 30
0.0
 11
182.8989930295273894
 21
476.9846333458025924
 31
0.0
  0
LINE
  5
1E755
  8
0
 10
217.1010063458080026
 20
476.9846335730858868
 30
0.0
 11
271.8404054640957952
 21
457.0611219108998853
 31
0.0
  0
ARC
  5
1E756
  8
0
 10
134.9999999998956071
 20
438.2672701821999226
 30
0.0
 40
20.0
 50
110.0000000000036948
 51
180.0
  0
ARC
  5
1E757
  8
0
 10
264.9999999998955786
 20
438.2672701821999226
 30
0.0
 40
20.0
 50
0.0
 51
69.9999999999962483
  0
LINE
  5
1E759
  8
0
 10
285.000000893995491
 20
438.2672698423999122
 30
0.0
 11
285.000000893995491
 21
421.7327346280998768
 31
0.0
  0
LINE
  5
1E75B
  8
0
 10
114.999999105895597
 20
421.7327346280998768
 30
0.0
 11
114.999999105895597
 21
438.2672698423999122
 31
0.0
  0
ARC
  5
1E760
  8
0
 10
264.9999999998955786
 20
421.7327342882999801
 30
0.0
 40
20.0
 50
290.0000000000038085
 51
0.0
  0
ARC
  5
1E761
  8
0
 10
134.9999999998956071
 20
421.7327342882999801
 30
0.0
 40
20.0000000000000107
 50
180.0
 51
249.9999999999961915
  0
LINE
  5
1E762
  8
0
 10
271.8404054640957952
 20
402.9388825595999037
 30
0.0
 11
217.101006346046205
 21
383.0153708974004871
 31
0.0
  0
LINE
  5
1E763
  8
0
 10
182.8989930294517023
 20
383.0153711246247781
 30
0.0
 11
128.1595945356955895
 21
402.9388825595999037
 31
0.0
  0
CIRCLE
  5
1E766
  8
0
 10
132.4999999998956071
 20
430.000002235199986
 30
0.0
 40
10.5
  0
CIRCLE
  5
1E767
  8
0
 10
267.4999999998955786
 20
430.000002235199986
 30
0.0
 40
10.5
  0
ARC
  5
1E864
  8
0
 10
199.9999999999477041
 20
210.0
 30
0.0
 40
27.5
 50
105.1456894313242003
 51
74.8543105686758139
  0
CIRCLE
  5
1E866
  8
0
 10
199.9999999999477041
 20
243.5
 30
0.0
 40
10.0
  0
LINE
  5
1E867
  8
0
 10
195.000000111747795
 20
212.8867505491000998
 30
0.0
 11
199.9999999999477041
 21
215.7735040784000091
 31
0.0
  0
LINE
  5
1E868
  8
0
 10
199.9999999999477041
 20
215.7735040784000091
 30
0.0
 11
204.9999998882479133
 21
212.8867505491000998
 31
0.0
  0
LINE
  5
1E869
  8
0
 10
195.000000111747795
 20
207.1132472157999871
 30
0.0
 11
199.9999999999477041
 21
204.2264936864999925
 31
0.0
  0
LINE
  5
1E86A
  8
0
 10
199.9999999999477041
 20
204.2264936864999925
 30
0.0
 11
204.9999998882479133
 21
207.1132472157999871
 31
0.0
  0
CIRCLE
  5
1E86B
  8
0
 10
199.9999999998956071
 20
430.000002235199986
 30
0.0
 40
50.0
  0
ARC
  5
1E870
  8
0
 10
341.1166777997727877
 20
243.3954973627432992
 30
0.0
 40
50.2038170357377496
 50
5.2623451877097773
 51
11.5721206769439906
  0
LINE
  5
1E872
  8
5
 10
227.4999999998956071
 20
471.7558812396998746
 30
0.0
 11
227.4999999998956071
 21
479.2718064877000188
 31
0.0
  0
LINE
  5
1E873
  8
5
 10
172.4999999998956071
 20
479.2700223219999884
 30
0.0
 11
172.4999999998956071
 21
471.7558812396998746
 31
0.0
  0
LINE
  5
1E874
  8
5
 10
172.4999999998956071
 20
388.2394157971999107
 30
0.0
 11
172.4999999998956071
 21
380.6907696251000175
 31
0.0
  0
LINE
  5
1E875
  8
5
 10
227.4999999998956071
 20
380.7273354658998983
 30
0.0
 11
227.4999999998956071
 21
388.2394157971999107
 31
0.0
  0
LINE
  5
1E876
  8
5
 10
192.8149557570955039
 20
479.1755413080999801
 30
0.0
 11
192.8149557570955039
 21
486.9787069067999141
 31
0.0
  0
LINE
  5
1E877
  8
5
 10
207.1850442425956942
 20
479.1755413080999801
 30
0.0
 11
207.1850442425956942
 21
486.9787069067999141
 31
0.0
  0
ARC
  5
1E878
  8
5
 10
200.0013574946063102
 20
437.4237871510630953
 30
0.0
 40
50.0742654667368967
 50
56.6907886832854686
 51
123.3129285954210985
  0
LINE
  5
1E879
  8
5
 10
207.1850442425956942
 20
380.8197557287999189
 30
0.0
 11
207.1850442425956942
 21
373.0165901300999849
 31
0.0
  0
LINE
  5
1E87A
  8
5
 10
192.8149557570955039
 20
380.8197557287999189
 30
0.0
 11
192.8149557570955039
 21
373.0165901300999849
 31
0.0
  0
ARC
  5
1E87B
  8
5
 10
199.9721060610268069
 20
422.6653320737830768
 30
0.0
 40
50.1655310366833334
 50
236.7954871431840047
 51
303.2806971493088213
  0
LINE
  5
1E87C
  8
5
 10
497.4999999999909051
 20
221.7429471199000091
 30
0.0
 11
497.4999999999909051
 21
233.5238595451000094
 31
0.0
  0
LINE
  5
1E87D
  8
5
 10
497.4999999999909051
 20
182.5
 30
0.0
 11
497.4999999999909051
 21
198.2603443107998942
 31
0.0
  0
LINE
  5
1E87E
  8
5
 10
489.9999999999907914
 20
182.5
 30
0.0
 11
497.4999999999909051
 21
182.5
 31
0.0
  0
LINE
  5
1E87F
  8
5
 10
382.4999999999909051
 20
182.5
 30
0.0
 11
389.9999999999909051
 21
182.5
 31
0.0
  0
LINE
  5
1E880
  8
5
 10
382.4999999999909051
 20
196.7572515807999878
 30
0.0
 11
382.4999999999909051
 21
182.5
 31
0.0
  0
LINE
  5
1E881
  8
5
 10
382.4999999999909051
 20
233.517985472600003
 30
0.0
 11
382.4999999999909051
 21
223.2356140706999952
 31
0.0
  0
POLYLINE
  5
1E882
  8
5
 66
     1
 10
0.0
 20
0.0
 30
0.0
 70
   128
  0
VERTEX
  5
1E9E2
  8
5
 10
497.4999999999909051
 20
233.5238595451000094
 30
0.0
  0
VERTEX
  5
1E9E3
  8
5
 10
497.4577432410910092
 20
233.7134730502999957
 30
0.0
  0
VERTEX
  5
1E9E4
  8
5
 10
497.3690789308906801
 20
234.1766404439001121
 30
0.0
  0
VERTEX
  5
1E9E5
  8
5
 10
497.2373380687907911
 20
234.9091445027999896
 30
0.0
  0
VERTEX
  5
1E9E6
  8
5
 10
497.1144757799910963
 20
235.6516748969000048
 30
0.0
  0
VERTEX
  5
1E9E7
  8
5
 10
496.981058388290819
 20
236.5447761194000122
 30
0.0
  0
SEQEND
  5
1E9E8
  8
5
  0
POLYLINE
  5
1E883
  8
5
 66
     1
 10
0.0
 20
0.0
 30
0.0
 70
   128
  0
VERTEX
  5
1E9E9
  8
5
 10
496.981058388290819
 20
236.5447761194000122
 30
0.0
  0
VERTEX
  5
1E9EA
  8
5
 10
496.7891340417908737
 20
236.1852770577999934
 30
0.0
  0
VERTEX
  5
1E9EB
  8
5
 10
496.4178545539907077
 20
235.4795308859000045
 30
0.0
  0
VERTEX
  5
1E9EC
  8
5
 10
495.9773401094906831
 20
234.6232106781000084
 30
0.0
  0
VERTEX
  5
1E9ED
  8
5
 10
495.4781930877906007
 20
233.6253468118000001
 30
0.0
  0
VERTEX
  5
1E9EE
  8
5
 10
494.9264009002907869
 20
232.4836274287999913
 30
0.0
  0
VERTEX
  5
1E9EF
  8
5
 10
494.3169225963911231
 20
231.167764204000008
 30
0.0
  0
VERTEX
  5
1E9F0
  8
5
 10
493.6750463210909743
 20
229.707483420300008
 30
0.0
  0
VERTEX
  5
1E9F1
  8
5
 10
493.0183958423908166
 20
228.1155833487001132
 30
0.0
  0
VERTEX
  5
1E9F2
  8
5
 10
492.3581900286907853
 20
226.3861896930000057
 30
0.0
  0
VERTEX
  5
1E9F3
  8
5
 10
491.6805059294911189
 20
224.4279972342000065
 30
0.0
  0
VERTEX
  5
1E9F4
  8
5
 10
491.0424404086905952
 20
222.3366979676000028
 30
0.0
  0
VERTEX
  5
1E9F5
  8
5
 10
490.4579176024907952
 20
220.0813037224000084
 30
0.0
  0
VERTEX
  5
1E9F6
  8
5
 10
489.9627711945909141
 20
217.703047288199997
 30
0.0
  0
VERTEX
  5
1E9F7
  8
5
 10
489.6193070886906753
 20
215.5032744462999972
 30
0.0
  0
VERTEX
  5
1E9F8
  8
5
 10
489.3831089182908158
 20
213.2318435386999909
 30
0.0
  0
VERTEX
  5
1E9F9
  8
5
 10
489.2670570495910738
 20
210.8585188311000138
 30
0.0
  0
VERTEX
  5
1E9FA
  8
5
 10
489.2869840489910871
 20
208.4501497130999894
 30
0.0
  0
VERTEX
  5
1E9FB
  8
5
 10
489.6110066992910106
 20
204.5606172015000084
 30
0.0
  0
VERTEX
  5
1E9FC
  8
5
 10
490.2720221287909226
 20
200.7427932408000117
 30
0.0
  0
VERTEX
  5
1E9FD
  8
5
 10
491.1904336293908955
 20
197.1507202255999971
 30
0.0
  0
VERTEX
  5
1E9FE
  8
5
 10
492.2894313537908033
 20
193.8029891340000006
 30
0.0
  0
VERTEX
  5
1E9FF
  8
5
 10
492.9485630641906937
 20
192.0606052331999933
 30
0.0
  0
VERTEX
  5
1EA00
  8
5
 10
493.617711837790921
 20
190.4272294973000044
 30
0.0
  0
VERTEX
  5
1EA01
  8
5
 10
494.2890623682910132
 20
188.8939260564999927
 30
0.0
  0
VERTEX
  5
1EA02
  8
5
 10
494.9376356274909767
 20
187.4926839910000069
 30
0.0
  0
VERTEX
  5
1EA03
  8
5
 10
495.5593921165910274
 20
186.2101876716999129
 30
0.0
  0
VERTEX
  5
1EA04
  8
5
 10
496.1228594901908764
 20
185.0915182116999063
 30
0.0
  0
VERTEX
  5
1EA05
  8
5
 10
496.6185273633909105
 20
184.1372907385000133
 30
0.0
  0
VERTEX
  5
1EA06
  8
5
 10
497.0184526863909014
 20
183.3855836724999904
 30
0.0
  0
VERTEX
  5
1EA07
  8
5
 10
497.2730035266907862
 20
182.9149140657999055
 30
0.0
  0
VERTEX
  5
1EA08
  8
5
 10
497.4365798671910284
 20
182.6154786634999141
 30
0.0
  0
VERTEX
  5
1EA09
  8
5
 10
497.4999999999909051
 20
182.5
 30
0.0
  0
SEQEND
  5
1EA0A
  8
5
  0
POLYLINE
  5
1E884
  8
5
 66
     1
 10
0.0
 20
0.0
 30
0.0
 70
   128
  0
VERTEX
  5
1EA0B
  8
5
 10
497.4999999999909051
 20
221.7429471199000091
 30
0.0
  0
VERTEX
  5
1EA0C
  8
5
 10
497.4741189660908276
 20
221.6132481232999965
 30
0.0
  0
VERTEX
  5
1EA0D
  8
5
 10
497.4027419591906778
 20
221.2280920112000047
 30
0.0
  0
VERTEX
  5
1EA0E
  8
5
 10
497.2896754963908279
 20
220.5913123173999963
 30
0.0
  0
VERTEX
  5
1EA0F
  8
5
 10
497.1454105529909953
 20
219.7222513154999888
 30
0.0
  0
VERTEX
  5
1EA10
  8
5
 10
496.9808413374908014
 20
218.6304957343000126
 30
0.0
  0
VERTEX
  5
1EA11
  8
5
 10
496.8021116656909726
 20
217.2696208268999953
 30
0.0
  0
VERTEX
  5
1EA12
  8
5
 10
496.6342094900909956
 20
215.712841538300097
 30
0.0
  0
VERTEX
  5
1EA13
  8
5
 10
496.5563442486908912
 20
214.8272131786999921
 30
0.0
  0
VERTEX
  5
1EA14
  8
5
 10
496.4890705261909147
 20
213.9059783401000061
 30
0.0
  0
VERTEX
  5
1EA15
  8
5
 10
496.4337592199909182
 20
212.9420235329999969
 30
0.0
  0
VERTEX
  5
1EA16
  8
5
 10
496.3931270070906976
 20
211.9529518729000017
 30
0.0
  0
VERTEX
  5
1EA17
  8
5
 10
496.3683417247906959
 20
210.9295181113000126
 30
0.0
  0
VERTEX
  5
1EA18
  8
5
 10
496.3611750749910243
 20
209.8929197246999934
 30
0.0
  0
VERTEX
  5
1EA19
  8
5
 10
496.3724828459908167
 20
208.835216180499998
 30
0.0
  0
VERTEX
  5
1EA1A
  8
5
 10
496.4025486716909086
 20
207.7782754925999029
 30
0.0
  0
VERTEX
  5
1EA1B
  8
5
 10
496.4492637842909062
 20
206.7589090500999873
 30
0.0
  0
VERTEX
  5
1EA1C
  8
5
 10
496.5121902121908875
 20
205.7550585918999957
 30
0.0
  0
VERTEX
  5
1EA1D
  8
5
 10
496.5910425112911071
 20
204.7598990868999067
 30
0.0
  0
VERTEX
  5
1EA1E
  8
5
 10
496.6828410796911157
 20
203.7968660543000112
 30
0.0
  0
VERTEX
  5
1EA1F
  8
5
 10
496.7785531596908868
 20
202.9285937526998964
 30
0.0
  0
VERTEX
  5
1EA20
  8
5
 10
496.8806007696907159
 20
202.1048112203000073
 30
0.0
  0
VERTEX
  5
1EA21
  8
5
 10
496.9876585179908943
 20
201.3216755901999875
 30
0.0
  0
VERTEX
  5
1EA22
  8
5
 10
497.0944896664909152
 20
200.6026146682000046
 30
0.0
  0
VERTEX
  5
1EA23
  8
5
 10
497.1859428481906775
 20
200.0263494376999915
 30
0.0
  0
VERTEX
  5
1EA24
  8
5
 10
497.2710731747906152
 20
199.5169254477000038
 30
0.0
  0
VERTEX
  5
1EA25
  8
5
 10
497.3481359307911021
 20
199.0751012432000095
 30
0.0
  0
VERTEX
  5
1EA26
  8
5
 10
497.4123477618908851
 20
198.7193610811000042
 30
0.0
  0
VERTEX
  5
1EA27
  8
5
 10
497.4999999999909051
 20
198.2603443107998942
 30
0.0
  0
SEQEND
  5
1EA28
  8
5
  0
LINE
  5
1E885
  8
5
 10
489.481058388290819
 20
236.5447761194000122
 30
0.0
 11
496.981058388290819
 21
236.5447761194000122
 31
0.0
  0
LINE
  5
1E886
  8
5
 10
390.5189416116908774
 20
236.5447761194000122
 30
0.0
 11
383.0189416116908774
 21
236.5447761194000122
 31
0.0
  0
POLYLINE
  5
1E887
  8
5
 66
     1
 10
0.0
 20
0.0
 30
0.0
 70
   128
  0
VERTEX
  5
1EA29
  8
5
 10
383.0189416116908774
 20
236.5447761194000122
 30
0.0
  0
VERTEX
  5
1EA2A
  8
5
 10
383.0908397072907974
 20
236.4105115593999926
 30
0.0
  0
VERTEX
  5
1EA2B
  8
5
 10
383.5131419605908718
 20
235.6117602004999867
 30
0.0
  0
VERTEX
  5
1EA2C
  8
5
 10
384.0448052899910181
 20
234.5795828765000124
 30
0.0
  0
VERTEX
  5
1EA2D
  8
5
 10
385.0279531069908785
 20
232.5797527935000062
 30
0.0
  0
VERTEX
  5
1EA2E
  8
5
 10
385.5032676788910067
 20
231.5625334519000091
 30
0.0
  0
VERTEX
  5
1EA2F
  8
5
 10
386.3109965593907873
 20
229.7401630904001024
 30
0.0
  0
VERTEX
  5
1EA30
  8
5
 10
386.9779515172908759
 20
228.1247592553000061
 30
0.0
  0
VERTEX
  5
1EA31
  8
5
 10
387.5674343093911034
 20
226.5887148248000074
 30
0.0
  0
VERTEX
  5
1EA32
  8
5
 10
388.1446774698911213
 20
224.9547529820000022
 30
0.0
  0
VERTEX
  5
1EA33
  8
5
 10
388.5560134021911836
 20
223.6866342870999915
 30
0.0
  0
VERTEX
  5
1EA34
  8
5
 10
389.5259707314908155
 20
220.1497384977000138
 30
0.0
  0
VERTEX
  5
1EA35
  8
5
 10
390.023374197091016
 20
217.7790577580998956
 30
0.0
  0
VERTEX
  5
1EA36
  8
5
 10
390.3229166481909829
 20
215.9292798946000005
 30
0.0
  0
VERTEX
  5
1EA37
  8
5
 10
390.4918771589909738
 20
214.5751923043000033
 30
0.0
  0
VERTEX
  5
1EA38
  8
5
 10
390.731115423790925
 20
210.9432490343999973
 30
0.0
  0
VERTEX
  5
1EA39
  8
5
 10
390.7280667273907966
 20
208.9302293103999943
 30
0.0
  0
VERTEX
  5
1EA3A
  8
5
 10
390.6275904205908773
 20
206.9099055053000029
 30
0.0
  0
VERTEX
  5
1EA3B
  8
5
 10
390.3853834857910101
 20
204.5327407105000077
 30
0.0
  0
VERTEX
  5
1EA3C
  8
5
 10
389.7872764050911769
 20
201.020759670699988
 30
0.0
  0
VERTEX
  5
1EA3D
  8
5
 10
389.4251523177908894
 20
199.4315326159999984
 30
0.0
  0
VERTEX
  5
1EA3E
  8
5
 10
388.8150605712908146
 20
197.169414164199992
 30
0.0
  0
VERTEX
  5
1EA3F
  8
5
 10
387.7676889192911744
 20
193.9616193267999904
 30
0.0
  0
VERTEX
  5
1EA40
  8
5
 10
387.2463633042912079
 20
192.5603430600999104
 30
0.0
  0
VERTEX
  5
1EA41
  8
5
 10
386.3953471365907717
 20
190.4580191469999022
 30
0.0
  0
VERTEX
  5
1EA42
  8
5
 10
385.7175450017912226
 20
188.9085776757000019
 30
0.0
  0
VERTEX
  5
1EA43
  8
5
 10
384.5865103925912081
 20
186.5063309303999972
 30
0.0
  0
VERTEX
  5
1EA44
  8
5
 10
384.2217592191909716
 20
185.7711219226999901
 30
0.0
  0
VERTEX
  5
1EA45
  8
5
 10
383.3980070876909849
 20
184.1687068082999872
 30
0.0
  0
VERTEX
  5
1EA46
  8
5
 10
382.7705598768911841
 20
182.9950520282999946
 30
0.0
  0
VERTEX
  5
1EA47
  8
5
 10
382.6294592173907745
 20
182.7360890930000039
 30
0.0
  0
VERTEX
  5
1EA48
  8
5
 10
382.4999999999909051
 20
182.5
 30
0.0
  0
SEQEND
  5
1EA49
  8
5
  0
ARC
  5
1E888
  8
5
 10
333.8724649186037823
 20
243.4130313903546892
 30
0.0
 40
49.6240778433818406
 50
348.4981194821373265
 51
352.0443984831678108
  0
POLYLINE
  5
1E889
  8
5
 66
     1
 10
0.0
 20
0.0
 30
0.0
 70
   128
  0
VERTEX
  5
1EA4A
  8
5
 10
382.4999999999909051
 20
223.2356140706999952
 30
0.0
  0
VERTEX
  5
1EA4B
  8
5
 10
382.5121174705909084
 20
223.1920405408000079
 30
0.0
  0
VERTEX
  5
1EA4C
  8
5
 10
382.5574386358907759
 20
222.9731688861000123
 30
0.0
  0
VERTEX
  5
1EA4D
  8
5
 10
382.6353863624909195
 20
222.588597383299998
 30
0.0
  0
VERTEX
  5
1EA4E
  8
5
 10
382.7005825627912259
 20
222.2584367899999904
 30
0.0
  0
VERTEX
  5
1EA4F
  8
5
 10
382.8179656390911987
 20
221.642252829499995
 30
0.0
  0
VERTEX
  5
1EA50
  8
5
 10
382.9541423652909202
 20
220.8869638266999971
 30
0.0
  0
VERTEX
  5
1EA51
  8
5
 10
383.0568759389911975
 20
220.282894307600003
 30
0.0
  0
VERTEX
  5
1EA52
  8
5
 10
383.2172853628907774
 20
219.265791826799898
 30
0.0
  0
VERTEX
  5
1EA53
  8
5
 10
383.3780589147909268
 20
218.125885933099994
 30
0.0
  0
VERTEX
  5
1EA54
  8
5
 10
383.4887457183908737
 20
217.2416436546000114
 30
0.0
  0
VERTEX
  5
1EA55
  8
5
 10
383.6406860669907815
 20
215.8196255834999988
 30
0.0
  0
VERTEX
  5
1EA56
  8
5
 10
383.7672722963911838
 20
214.2970353323999859
 30
0.0
  0
VERTEX
  5
1EA57
  8
5
 10
383.8354300835907793
 20
213.1933276430999911
 30
0.0
  0
VERTEX
  5
1EA58
  8
5
 10
383.9016713419910047
 20
211.4766314171999966
 30
0.0
  0
VERTEX
  5
1EA59
  8
5
 10
383.918998936791013
 20
209.7063157223998928
 30
0.0
  0
VERTEX
  5
1EA5A
  8
5
 10
383.9018215143909742
 20
208.5295288009999979
 30
0.0
  0
VERTEX
  5
1EA5B
  8
5
 10
383.8329093581909888
 20
206.7592036624999992
 30
0.0
  0
VERTEX
  5
1EA5C
  8
5
 10
383.7141274318909723
 20
205.0076467762999926
 30
0.0
  0
VERTEX
  5
1EA5D
  8
5
 10
383.620874915790921
 20
203.9763346452999997
 30
0.0
  0
VERTEX
  5
1EA5E
  8
5
 10
383.4555287524909204
 20
202.4824084175999985
 30
0.0
  0
VERTEX
  5
1EA5F
  8
5
 10
382.4999999999909051
 20
196.7572515807999878
 30
0.0
  0
SEQEND
  5
1EA60
  8
5
  0
LINE
  5
1E895
  8
1
 10
200.0
 20
150.0
 30
0.0
 11
199.9999999999456008
 21
270.0000014902000203
 31
0.0
  0
LINE
  5
1E89B
  8
1
 10
167.4999999999477041
 20
210.0
 30
0.0
 11
232.4999999999477041
 21
210.0
 31
0.0
  0
LINE
  5
1E8A3
  8
1
 10
132.4999999999477893
 20
155.0
 30
0.0
 11
132.4999999999477893
 21
194.9999993295000138
 31
0.0
  0
LINE
  5
1E8A4
  8
1
 10
267.5000000000522959
 20
155.0
 30
0.0
 11
267.5000000000522959
 21
194.9999993295000138
 31
0.0
  0
LINE
  5
1E8BE
  8
1
 10
199.9999999999456008
 20
370.0000014902000203
 30
0.0
 11
199.9999999999456008
 21
490.0000029802999961
 31
0.0
  0
LINE
  5
1E8BF
  8
1
 10
104.999999105895597
 20
430.0000022352498945
 30
0.0
 11
295.000000893995491
 21
430.0000022352498945
 31
0.0
  0
LINE
  5
1E8C1
  8
1
 10
267.4999999998955786
 20
451.000002235199986
 30
0.0
 11
267.4999999998955786
 21
409.000002235199986
 31
0.0
  0
LINE
  5
1E8C2
  8
1
 10
132.4999999998956071
 20
451.0000022351499069
 30
0.0
 11
132.4999999998956071
 21
409.0000022351500206
 31
0.0
  0
LINE
  5
1E8C3
  8
1
 10
439.9999999999453735
 20
150.0
 30
0.0
 11
439.9999999998913154
 21
270.0000014902000203
 31
0.0
  0
LINE
  5
1E8C6
  8
1
 10
379.9999992548910086
 20
209.9999988824500008
 30
0.0
 11
500.0000007450908015
 21
209.9999988824500008
 31
0.0
  0
LINE
  5
1E8FB
  8
2
 10
116.4999999999478035
 20
184.9999993295000138
 30
0.0
 11
148.4999999999477893
 21
184.9999993295000138
 31
0.0
  0
LINE
  5
1E8FC
  8
2
 10
142.9999999999477893
 20
160.0
 30
0.0
 11
142.9999999999477893
 21
184.9999993295000138
 31
0.0
  0
LINE
  5
1E8FD
  8
2
 10
121.9999999999478035
 20
160.0
 30
0.0
 11
121.9999999999478035
 21
184.9999993295000138
 31
0.0
  0
LINE
  5
1E901
  8
2
 10
148.4999999999477893
 20
184.9999993295000138
 30
0.0
 11
148.4999999999477893
 21
189.9999993295000138
 31
0.0
  0
LINE
  5
1E902
  8
2
 10
116.4999999999478035
 20
184.9999993295000138
 30
0.0
 11
116.4999999999478035
 21
189.9999993295000138
 31
0.0
  0
LINE
  5
1E90E
  8
2
 10
251.5000000000522959
 20
184.9999993295000138
 30
0.0
 11
283.5000000000522959
 21
184.9999993295000138
 31
0.0
  0
LINE
  5
1E90F
  8
2
 10
257.0000000000522959
 20
160.0
 30
0.0
 11
257.0000000000522959
 21
184.9999993295000138
 31
0.0
  0
LINE
  5
1E910
  8
2
 10
278.0000000000522959
 20
160.0
 30
0.0
 11
278.0000000000522959
 21
184.9999993295000138
 31
0.0
  0
LINE
  5
1E911
  8
2
 10
251.5000000000522959
 20
184.9999993295000138
 30
0.0
 11
251.5000000000522959
 21
189.9999993295000138
 31
0.0
  0
LINE
  5
1E912
  8
2
 10
283.5000000000522959
 20
184.9999993295000138
 30
0.0
 11
283.5000000000522959
 21
189.9999993295000138
 31
0.0
  0
ENDSEC
  0
EOF
