  0
SECTION
  2
HEADER
  9
$ACADVER
  1
AC1009
  9
$INSBASE
 10
0.0
 20
0.0
 30
0.0
  9
$EXTMIN
 10
0.0
 20
-1.4802182810368341
 30
0.0
  9
$EXTMAX
 10
123.4999997914
 20
64.500000000000014
 30
0.0
  9
$LIMMIN
 10
0.0
 20
0.0
  9
$LIMMAX
 10
12.0
 20
9.0
  9
$ORTHOMODE
 70
     1
  9
$REGENMODE
 70
     1
  9
$FILLMODE
 70
     1
  9
$QTEXTMODE
 70
     0
  9
$MIRRTEXT
 70
     0
  9
$DRAGMODE
 70
     2
  9
$LTSCALE
 40
5.0
  9
$OSMODE
 70
    37
  9
$ATTMODE
 70
     1
  9
$TEXTSIZE
 40
0.2
  9
$TRACEWID
 40
0.05
  9
$TEXTSTYLE
  7
STANDARD
  9
$CLAYER
  8
0
  9
$CELTYPE
  6
BYLAYER
  9
$CECOLOR
 62
   256
  9
$DIMSCALE
 40
1.0
  9
$DIMASZ
 40
0.18
  9
$DIMEXO
 40
0.0625
  9
$DIMDLI
 40
0.38
  9
$DIMRND
 40
0.0
  9
$DIMDLE
 40
0.0
  9
$DIMEXE
 40
0.18
  9
$DIMTP
 40
0.0
  9
$DIMTM
 40
0.0
  9
$DIMTXT
 40
2.6000000000000001
  9
$DIMCEN
 40
0.09
  9
$DIMTSZ
 40
0.0
  9
$DIMTOL
 70
     0
  9
$DIMLIM
 70
     0
  9
$DIMTIH
 70
     0
  9
$DIMTOH
 70
     0
  9
$DIMSE1
 70
     0
  9
$DIMSE2
 70
     0
  9
$DIMTAD
 70
     1
  9
$DIMZIN
 70
     8
  9
$DIMBLK
  1

  9
$DIMASO
 70
     1
  9
$DIMSHO
 70
     1
  9
$DIMPOST
  1

  9
$DIMAPOST
  1

  9
$DIMALT
 70
     0
  9
$DIMALTD
 70
     2
  9
$DIMALTF
 40
25.399999999999999
  9
$DIMLFAC
 40
1.0
  9
$DIMTOFL
 70
     0
  9
$DIMTVP
 40
0.0
  9
$DIMTIX
 70
     0
  9
$DIMSOXD
 70
     0
  9
$DIMSAH
 70
     0
  9
$DIMBLK1
  1

  9
$DIMBLK2
  1

  9
$DIMSTYLE
  2
STANDARD
  9
$DIMCLRD
 70
     0
  9
$DIMCLRE
 70
     0
  9
$DIMCLRT
 70
     0
  9
$DIMTFAC
 40
1.0
  9
$DIMGAP
 40
0.09
  9
$LUNITS
 70
     2
  9
$LUPREC
 70
     4
  9
$SKETCHINC
 40
0.1
  9
$FILLETRAD
 40
0.0
  9
$AUNITS
 70
     0
  9
$AUPREC
 70
     0
  9
$MENU
  1
.
  9
$ELEVATION
 40
0.0
  9
$PELEVATION
 40
0.0
  9
$THICKNESS
 40
0.0
  9
$LIMCHECK
 70
     0
  9
$BLIPMODE
 70
     0
  9
$CHAMFERA
 40
0.0
  9
$CHAMFERB
 40
0.0
  9
$SKPOLY
 70
     0
  9
$TDCREATE
 40
2453083.4120647679
  9
$TDUPDATE
 40
2459604.6595923612
  9
$TDINDWG
 40
0.7175137731
  9
$TDUSRTIMER
 40
0.7175136574
  9
$USRTIMER
 70
     1
  9
$ANGBASE
 50
0.0
  9
$ANGDIR
 70
     0
  9
$PDMODE
 70
     0
  9
$PDSIZE
 40
0.0
  9
$PLINEWID
 40
0.0
  9
$COORDS
 70
     1
  9
$SPLFRAME
 70
     0
  9
$SPLINETYPE
 70
     6
  9
$SPLINESEGS
 70
     8
  9
$ATTDIA
 70
     0
  9
$ATTREQ
 70
     1
  9
$HANDLING
 70
     1
  9
$HANDSEED
  5
77F1
  9
$SURFTAB1
 70
     6
  9
$SURFTAB2
 70
     6
  9
$SURFTYPE
 70
     6
  9
$SURFU
 70
     6
  9
$SURFV
 70
     6
  9
$UCSNAME
  2

  9
$UCSORG
 10
0.0
 20
0.0
 30
0.0
  9
$UCSXDIR
 10
1.0
 20
0.0
 30
0.0
  9
$UCSYDIR
 10
0.0
 20
1.0
 30
0.0
  9
$PUCSNAME
  2

  9
$PUCSORG
 10
0.0
 20
0.0
 30
0.0
  9
$PUCSXDIR
 10
1.0
 20
0.0
 30
0.0
  9
$PUCSYDIR
 10
0.0
 20
1.0
 30
0.0
  9
$USERI1
 70
     0
  9
$USERI2
 70
     1
  9
$USERI3
 70
     0
  9
$USERI4
 70
     0
  9
$USERI5
 70
     0
  9
$USERR1
 40
0.0
  9
$USERR2
 40
0.0
  9
$USERR3
 40
0.0
  9
$USERR4
 40
0.0
  9
$USERR5
 40
0.0
  9
$WORLDVIEW
 70
     1
  9
$SHADEDGE
 70
     3
  9
$SHADEDIF
 70
    70
  9
$TILEMODE
 70
     1
  9
$MAXACTVP
 70
    64
  9
$PLIMCHECK
 70
     0
  9
$PEXTMIN
 10
0.0
 20
0.0
 30
0.0
  9
$PEXTMAX
 10
0.0
 20
0.0
 30
0.0
  9
$PLIMMIN
 10
0.0
 20
0.0
  9
$PLIMMAX
 10
12.0
 20
9.0
  9
$UNITMODE
 70
     0
  9
$VISRETAIN
 70
     1
  9
$PLINEGEN
 70
     0
  9
$PSLTSCALE
 70
     1
  0
ENDSEC
  0
SECTION
  2
TABLES
  0
TABLE
  2
VPORT
 70
     1
  0
VPORT
  2
*ACTIVE
 70
     0
 10
0.0
 20
0.0
 11
1.0
 21
1.0
 12
106.56575332853851
 22
31.51013776717911
 13
0.0
 23
0.0
 14
0.5
 24
0.5
 15
0.5
 25
0.5
 16
0.0
 26
0.0
 36
1.0
 17
0.0
 27
0.0
 37
0.0
 40
89.870862588648194
 41
2.3805970149253728
 42
50.0
 43
0.0
 44
0.0
 50
0.0
 51
0.0
 71
     0
 72
  1000
 73
     1
 74
     2
 75
     0
 76
     0
 77
     0
 78
     0
  0
ENDTAB
  0
TABLE
  2
LTYPE
 70
     3
  0
LTYPE
  2
CONTINUOUS
 70
     0
  3
Solid Line
 72
    65
 73
     0
 40
0.0
  0
LTYPE
  2
CENTER
 70
     0
  3
____ _ ____ _ ____ _ ____ _ ____ _ ____ _ ____
 72
    65
 73
     4
 40
2.0
 49
1.25
 49
-0.25
 49
0.25
 49
-0.25
  0
LTYPE
  2
PHANTOM2
 70
     0
  3
___ _ _ ___ _ _ ___ _ _ ___ _ _
 72
    65
 73
     6
 40
1.25
 49
0.625
 49
-0.125
 49
0.125
 49
-0.125
 49
0.125
 49
-0.125
  0
ENDTAB
  0
TABLE
  2
LAYER
 70
     4
  0
LAYER
  2
0
 70
     0
 62
     7
  6
CONTINUOUS
  0
LAYER
  2
1
 70
     0
 62
     1
  6
CENTER
  0
LAYER
  2
DEFPOINTS
 70
     0
 62
     7
  6
CONTINUOUS
  0
LAYER
  2
3
 70
     0
 62
     3
  6
CONTINUOUS
  0
ENDTAB
  0
TABLE
  2
STYLE
 70
     2
  0
STYLE
  2
STANDARD
 70
     0
 40
0.0
 41
1.0
 50
0.0
 71
     0
 42
0.2
  3
simplex.shx
  4
bigfont.shx
  0
STYLE
  2
STANDARD1
 70
     0
 40
0.0
 41
1.0
 50
0.0
 71
     0
 42
3.0
  3
txt
  4

  0
ENDTAB
  0
TABLE
  2
VIEW
 70
     0
  0
ENDTAB
  0
TABLE
  2
UCS
 70
     0
  0
ENDTAB
  0
TABLE
  2
APPID
 70
     5
  0
APPID
  2
ACAD
 70
     0
  0
APPID
  2
ACAD_MLEADERVER
 70
     0
  0
APPID
  2
ACAD_NAV_VCDISPLAY
 70
     0
  0
APPID
  2
ACAD_EXEMPT_FROM_CAD_STANDARDS
 70
     0
  0
APPID
  2
ACAD_DSTYLE_DIMRADIAL_EXTENSION
 70
     0
  0
ENDTAB
  0
TABLE
  2
DIMSTYLE
 70
     1
  0
DIMSTYLE
  2
STANDARD
 70
     0
  3

  4

  5

  6

  7

 40
1.0
 41
0.18
 42
0.0625
 43
0.38
 44
0.18
 45
0.0
 46
0.0
 47
0.0
 48
0.0
140
2.6000000000000001
141
0.09
142
0.0
143
25.399999999999999
144
1.0
145
0.0
146
1.0
147
0.09
 71
     0
 72
     0
 73
     0
 74
     0
 75
     0
 76
     0
 77
     1
 78
     8
170
     0
171
     2
172
     0
173
     0
174
     0
175
     0
176
     0
177
     0
178
     0
  0
ENDTAB
  0
ENDSEC
  0
SECTION
  2
BLOCKS
  0
BLOCK
  8
0
  2
$MODEL_SPACE
 70
     0
 10
0.0
 20
0.0
 30
0.0
  3
$MODEL_SPACE
  1

  0
ENDBLK
  5
21
  8
0
  0
BLOCK
 67
     1
  8
0
  2
$PAPER_SPACE
 70
     0
 10
0.0
 20
0.0
 30
0.0
  3
$PAPER_SPACE
  1

  0
ENDBLK
  5
5B
 67
     1
  8
0
  0
ENDSEC
  0
SECTION
  2
ENTITIES
  0
TEXT
  5
1F01
  8
0
 62
     3
 10
0.0
 20
0.0
 30
0.0
 40
5.0
  1
CP156-08001S
  7
STANDARD1
  0
CIRCLE
  5
76B5
  8
0
 10
108.9999997914
 20
50.000000000000007
 30
0.0
 40
10.499999999999989
  0
CIRCLE
  5
76B6
  8
0
 10
108.9999997914
 20
50.000000000000007
 30
0.0
 40
11.499999999999989
  0
LINE
  5
76B7
  8
0
 10
108.1339743962
 20
51.500000013000019
 30
0.0
 11
109.86602518665001
 21
51.500000013000019
 31
0.0
  0
LINE
  5
76B9
  8
0
 10
109.86602518665001
 20
48.499999986950009
 30
0.0
 11
108.1339743962
 21
48.499999986950009
 31
0.0
  0
CIRCLE
  5
76BB
  8
0
 10
108.9999997914
 20
50.000000000000007
 30
0.0
 40
2.0
  0
CIRCLE
  5
76BE
  8
0
 10
108.9999997914
 20
50.000000000000007
 30
0.0
 40
4.2857864376269026
  0
CIRCLE
  5
76BF
  8
0
 10
108.9999997914
 20
50.000000000000007
 30
0.0
 40
5.4999999999999947
  0
CIRCLE
  5
76C0
  8
0
 10
108.9999997914
 20
50.000000000000007
 30
0.0
 40
7.5
  0
LINE
  5
76C1
  8
0
 10
46.000000268199997
 20
61.500000022350022
 30
0.0
 11
45.000000104300007
 21
60.499999858400017
 31
0.0
  0
LINE
  5
76C2
  8
0
 10
45.000000104300007
 20
39.500000141550018
 30
0.0
 11
46.000000268199997
 21
38.49999997765002
 31
0.0
  0
LINE
  5
76C3
  8
0
 10
53.999999833300009
 20
61.500000022350022
 30
0.0
 11
46.000000268199997
 21
61.500000022350022
 31
0.0
  0
LINE
  5
76C4
  8
0
 10
46.000000268199997
 20
38.49999997765002
 30
0.0
 11
53.999999833300009
 21
38.49999997765002
 31
0.0
  0
LINE
  5
76C5
  8
0
 10
53.999999833300009
 20
38.49999997765002
 30
0.0
 11
54.999999880800019
 21
39.500000141550018
 31
0.0
  0
LINE
  5
76C6
  8
0
 10
54.999999880800019
 20
60.499999858400017
 30
0.0
 11
53.999999833300009
 21
61.500000022350022
 31
0.0
  0
LINE
  5
76C7
  8
0
 10
55.199999875750009
 20
57.499999832350007
 30
0.0
 11
54.999999880800019
 21
57.300000172100013
 31
0.0
  0
LINE
  5
76C8
  8
0
 10
54.999999880800019
 20
42.699999827850021
 30
0.0
 11
55.199999875750009
 21
42.500000167600021
 31
0.0
  0
LINE
  5
76C9
  8
0
 10
56.046224261650011
 20
57.499999832350007
 30
0.0
 11
55.199999875750009
 21
57.499999832350007
 31
0.0
  0
LINE
  5
76CA
  8
0
 10
55.199999875750009
 20
42.500000167600021
 30
0.0
 11
56.046224261650011
 21
42.500000167600021
 31
0.0
  0
LINE
  5
76CB
  8
0
 10
56.046224261650011
 20
42.500000167600021
 30
0.0
 11
59.637818664300013
 21
43.529872968800021
 31
0.0
  0
LINE
  5
76CC
  8
0
 10
59.637818664300013
 20
56.470127031200022
 30
0.0
 11
56.046224261650011
 21
57.499999832350007
 31
0.0
  0
ARC
  5
76CD
  8
0
 10
59.499999880800011
 20
55.989496046150002
 30
0.0
 40
0.5
 50
0.0
 51
74.000000000000114
  0
ARC
  5
76CE
  8
0
 10
59.499999880800011
 20
44.010503953850026
 30
0.0
 40
0.5
 50
285.99999999999989
 51
0.0
  0
ARC
  5
76CF
  8
0
 10
60.399999880799989
 20
55.90000000000002
 30
0.0
 40
0.4000000000000057
 50
180.0
 51
270.0
  0
ARC
  5
76D0
  8
0
 10
60.399999880799989
 20
44.100000000000009
 30
0.0
 40
0.4000000000000057
 50
90.0
 51
180.0
  0
LINE
  5
76D1
  8
0
 10
61.211324941350007
 20
55.499999970200022
 30
0.0
 11
60.400000020850008
 21
55.499999970200022
 31
0.0
  0
LINE
  5
76D2
  8
0
 10
60.400000020850008
 20
44.500000029799999
 30
0.0
 11
61.211324941350007
 21
44.500000029799999
 31
0.0
  0
ARC
  5
76D3
  8
0
 10
61.21132474620002
 20
55.000000000000007
 30
0.0
 40
0.500000000000004
 50
29.999999999999581
 51
90.0
  0
ARC
  5
76D4
  8
0
 10
61.21132474620002
 20
45.000000000000007
 30
0.0
 40
0.500000000000004
 50
270.0
 51
330.00000000000051
  0
ARC
  5
76D5
  8
0
 10
68.587713121049987
 20
55.000000000000007
 30
0.0
 40
0.500000000000004
 50
90.0
 51
150.0000000000004
  0
ARC
  5
76D6
  8
0
 10
68.587713121049987
 20
45.000000000000007
 30
0.0
 40
0.500000000000004
 50
209.9999999999996
 51
270.0
  0
LINE
  5
76D7
  8
0
 10
70.492892704900001
 20
55.499999970200022
 30
0.0
 11
68.587713122349996
 21
55.499999970200022
 31
0.0
  0
LINE
  5
76D8
  8
0
 10
68.587713122349996
 20
44.500000029799999
 30
0.0
 11
70.492892704900001
 21
44.500000029799999
 31
0.0
  0
ARC
  5
76D9
  8
0
 10
70.49289309960001
 20
55.000000000000007
 30
0.0
 40
0.500000000000004
 50
44.999999999999922
 51
90.0
  0
ARC
  5
76DA
  8
0
 10
70.49289309960001
 20
45.000000000000007
 30
0.0
 40
0.500000000000004
 50
270.0
 51
315.00000000000011
  0
LINE
  5
76DB
  8
0
 10
70.846446037299998
 20
44.646446779350029
 30
0.0
 11
71.207106292250003
 21
45.00710656865003
 31
0.0
  0
LINE
  5
76DC
  8
0
 10
71.207106292250003
 20
54.992893431300033
 30
0.0
 11
70.846446037299998
 21
55.353553220599998
 31
0.0
  0
LINE
  5
76DD
  8
0
 10
61.644337318849992
 20
44.750000070750033
 30
0.0
 11
62.625833034500019
 21
46.449999976900003
 31
0.0
  0
LINE
  5
76DE
  8
0
 10
62.625833034500019
 20
53.550000023100033
 30
0.0
 11
61.644337318849992
 21
55.24999992920003
 31
0.0
  0
LINE
  5
76DF
  8
0
 10
68.15470027924998
 20
55.24999992920003
 30
0.0
 11
67.173204563550016
 21
53.550000023100033
 31
0.0
  0
LINE
  5
76E0
  8
0
 10
67.173204563550016
 20
46.449999976900003
 30
0.0
 11
68.15470027924998
 21
44.750000070750033
 31
0.0
  0
ARC
  5
76E1
  8
0
 10
70.499999880800019
 20
54.285786437600038
 30
0.0
 40
1.0
 50
0.0
 51
44.999999999999922
  0
ARC
  5
76E2
  8
0
 10
70.499999880800019
 20
45.714213562350018
 30
0.0
 40
1.0
 50
315.00000000000011
 51
0.0
  0
LINE
  5
76E3
  8
0
 10
34.199999824149998
 20
54.000000189950001
 30
0.0
 11
33.0
 21
52.799999900150041
 31
0.0
  0
LINE
  5
76E4
  8
0
 10
33.0
 20
47.200000099800022
 30
0.0
 11
34.199999824149998
 21
45.999999809999998
 31
0.0
  0
LINE
  5
76E5
  8
0
 10
43.49999985845001
 20
54.000000189950001
 30
0.0
 11
34.199999824149998
 21
54.000000189950001
 31
0.0
  0
LINE
  5
76E6
  8
0
 10
34.199999824149998
 20
45.999999809999998
 30
0.0
 11
43.49999985845001
 21
45.999999809999998
 31
0.0
  0
ARC
  5
76E7
  8
0
 10
44.099999880800013
 20
46.150000000000013
 30
0.0
 40
0.6000000000000015
 50
90.0
 51
180.0
  0
ARC
  5
76E8
  8
0
 10
44.099999880800013
 20
53.850000000000009
 30
0.0
 40
0.6000000000000086
 50
180.0
 51
270.0
  0
ARC
  5
76E9
  8
0
 10
63.145448148
 20
46.150000000000013
 30
0.0
 40
0.600000000000006
 50
90.0
 51
150.0000000000004
  0
ARC
  5
76EA
  8
0
 10
63.145448148
 20
53.850000000000009
 30
0.0
 40
0.6000000000000095
 50
209.9999999999996
 51
270.0
  0
ARC
  5
76EB
  8
0
 10
66.653589719300001
 20
46.150000000000013
 30
0.0
 40
0.6000000000000015
 50
29.999999999999581
 51
90.0
  0
ARC
  5
76EC
  8
0
 10
66.653589719300001
 20
53.850000000000009
 30
0.0
 40
0.6000000000000086
 50
270.0
 51
330.00000000000051
  0
LINE
  5
76ED
  8
0
 10
45.000000104300007
 20
53.25000006705001
 30
0.0
 11
44.099999770499998
 21
53.25000006705001
 31
0.0
  0
LINE
  5
76EE
  8
0
 10
44.099999770499998
 20
46.749999932950018
 30
0.0
 11
45.000000104300007
 21
46.749999932950018
 31
0.0
  0
LINE
  5
76EF
  8
0
 10
63.145447701200013
 20
46.749999932950018
 30
0.0
 11
66.653589896849994
 21
46.749999932950018
 31
0.0
  0
LINE
  5
76F0
  8
0
 10
66.653589896849994
 20
53.25000006705001
 30
0.0
 11
63.145447701200013
 21
53.25000006705001
 31
0.0
  0
LINE
  5
76F1
  8
0
 10
46.000000268199997
 20
61.500000022350022
 30
0.0
 11
46.000000268199997
 21
38.49999997765002
 31
0.0
  0
LINE
  5
76F2
  8
0
 10
45.000000104300007
 20
39.500000141550018
 30
0.0
 11
45.000000104300007
 21
60.499999858400017
 31
0.0
  0
LINE
  5
76F3
  8
0
 10
53.999999833300009
 20
38.49999997765002
 30
0.0
 11
53.999999833300009
 21
61.500000022350022
 31
0.0
  0
LINE
  5
76F4
  8
0
 10
54.999999880800019
 20
60.499999858400017
 30
0.0
 11
54.999999880800019
 21
39.500000141550018
 31
0.0
  0
LINE
  5
76F5
  8
0
 10
55.199999875750009
 20
57.499999832350007
 30
0.0
 11
55.199999875750009
 21
42.500000167600021
 31
0.0
  0
LINE
  5
76F6
  8
0
 10
56.046224261650011
 20
57.499999832350007
 30
0.0
 11
56.046224261650011
 21
42.500000167600021
 31
0.0
  0
LINE
  5
76F7
  8
0
 10
59.999999769050007
 20
44.010503869500027
 30
0.0
 11
59.999999769050007
 21
55.989496130500001
 31
0.0
  0
LINE
  5
76F8
  8
0
 10
71.499999791399986
 20
54.285786300900028
 30
0.0
 11
71.499999791399986
 21
45.7142136991
 31
0.0
  0
LINE
  5
76F9
  8
0
 10
34.199999824149998
 20
54.000000189950001
 30
0.0
 11
34.199999824149998
 21
45.999999809999998
 31
0.0
  0
LINE
  5
76FA
  8
0
 10
33.0
 20
47.200000099800022
 30
0.0
 11
33.0
 21
52.799999900150041
 31
0.0
  0
LINE
  5
76FB
  8
0
 10
43.49999985845001
 20
54.000000189950001
 30
0.0
 11
43.49999985845001
 21
45.999999809999998
 31
0.0
  0
LINE
  5
76FC
  8
0
 10
59.637818664300013
 20
43.529872968800021
 30
0.0
 11
59.637818664300013
 21
56.470127031200022
 31
0.0
  0
LINE
  5
76FD
  8
0
 10
60.400000020850008
 20
55.499999970200022
 30
0.0
 11
60.400000020850008
 21
44.500000029799999
 31
0.0
  0
LINE
  5
76FE
  8
0
 10
61.211324941350007
 20
44.500000029799999
 30
0.0
 11
61.211324941350007
 21
55.499999970200022
 31
0.0
  0
LINE
  5
76FF
  8
0
 10
68.587713122349996
 20
55.499999970200022
 30
0.0
 11
68.587713122349996
 21
44.500000029799999
 31
0.0
  0
LINE
  5
7700
  8
0
 10
70.492892704900001
 20
44.500000029799999
 30
0.0
 11
70.492892704900001
 21
55.499999970200022
 31
0.0
  0
LINE
  5
7701
  8
0
 10
63.145447701200013
 20
53.25000006705001
 30
0.0
 11
63.145447701200013
 21
46.749999932950018
 31
0.0
  0
LINE
  5
7702
  8
0
 10
66.653589896849994
 20
46.749999932950018
 30
0.0
 11
66.653589896849994
 21
53.25000006705001
 31
0.0
  0
LINE
  5
7703
  8
3
 10
43.839500464499999
 20
53.30949993800003
 30
0.0
 11
33.509500503550001
 21
53.30949993800003
 31
0.0
  0
LINE
  5
7704
  8
3
 10
33.509500503550001
 20
46.690500061949997
 30
0.0
 11
43.839500464499999
 21
46.690500061949997
 31
0.0
  0
LINE
  5
7706
  8
1
 10
30.0
 20
50.0
 30
0.0
 11
74.499999791400001
 21
50.000000000000028
 31
0.0
  0
LINE
  5
770D
  8
1
 10
108.9999997914
 20
64.500000000000014
 30
0.0
 11
108.9999997914
 21
35.500000000000021
 31
0.0
  0
LINE
  5
770E
  8
1
 10
94.499999791399986
 20
50.000000000000028
 30
0.0
 11
123.4999997914
 21
50.000000000000007
 31
0.0
  0
LINE
  5
7760
  8
0
 10
108.1339743962
 20
51.500000013000019
 30
0.0
 11
107.26794900095
 21
50.000000000000007
 31
0.0
  0
LINE
  5
7761
  8
0
 10
109.86602518665001
 20
51.500000013000019
 30
0.0
 11
110.73205058185
 21
50.000000000000007
 31
0.0
  0
LINE
  5
7762
  8
0
 10
108.1339743962
 20
48.49999998700001
 30
0.0
 11
107.26794900095
 21
50.000000000000007
 31
0.0
  0
LINE
  5
7763
  8
0
 10
109.86602518665001
 20
48.49999998700001
 30
0.0
 11
110.73205058185
 21
50.000000000000007
 31
0.0
  0
ENDSEC
  0
EOF
