  0
SECTION
  2
HEADER
  9
$ACADVER
  1
AC1009
  9
$INSBASE
 10
0.0
 20
0.0
 30
0.0
  9
$EXTMIN
 10
0.0
 20
-1.4802182810368341
 30
0.0
  9
$EXTMAX
 10
202.99999997020021
 20
87.500000000000085
 30
0.0
  9
$LIMMIN
 10
0.0
 20
0.0
  9
$LIMMAX
 10
12.0
 20
9.0
  9
$ORTHOMODE
 70
     1
  9
$REGENMODE
 70
     1
  9
$FILLMODE
 70
     1
  9
$QTEXTMODE
 70
     0
  9
$MIRRTEXT
 70
     0
  9
$DRAGMODE
 70
     2
  9
$LTSCALE
 40
5.0
  9
$OSMODE
 70
    37
  9
$ATTMODE
 70
     1
  9
$TEXTSIZE
 40
0.2
  9
$TRACEWID
 40
0.05
  9
$TEXTSTYLE
  7
STANDARD
  9
$CLAYER
  8
0
  9
$CELTYPE
  6
BYLAYER
  9
$CECOLOR
 62
   256
  9
$DIMSCALE
 40
1.0
  9
$DIMASZ
 40
0.18
  9
$DIMEXO
 40
0.0625
  9
$DIMDLI
 40
0.38
  9
$DIMRND
 40
0.0
  9
$DIMDLE
 40
0.0
  9
$DIMEXE
 40
0.18
  9
$DIMTP
 40
0.0
  9
$DIMTM
 40
0.0
  9
$DIMTXT
 40
2.6000000000000001
  9
$DIMCEN
 40
0.09
  9
$DIMTSZ
 40
0.0
  9
$DIMTOL
 70
     0
  9
$DIMLIM
 70
     0
  9
$DIMTIH
 70
     0
  9
$DIMTOH
 70
     0
  9
$DIMSE1
 70
     0
  9
$DIMSE2
 70
     0
  9
$DIMTAD
 70
     1
  9
$DIMZIN
 70
     8
  9
$DIMBLK
  1

  9
$DIMASO
 70
     1
  9
$DIMSHO
 70
     1
  9
$DIMPOST
  1

  9
$DIMAPOST
  1

  9
$DIMALT
 70
     0
  9
$DIMALTD
 70
     2
  9
$DIMALTF
 40
25.399999999999999
  9
$DIMLFAC
 40
1.0
  9
$DIMTOFL
 70
     0
  9
$DIMTVP
 40
0.0
  9
$DIMTIX
 70
     0
  9
$DIMSOXD
 70
     0
  9
$DIMSAH
 70
     0
  9
$DIMBLK1
  1

  9
$DIMBLK2
  1

  9
$DIMSTYLE
  2
STANDARD
  9
$DIMCLRD
 70
     0
  9
$DIMCLRE
 70
     0
  9
$DIMCLRT
 70
     0
  9
$DIMTFAC
 40
1.0
  9
$DIMGAP
 40
0.09
  9
$LUNITS
 70
     2
  9
$LUPREC
 70
     4
  9
$SKETCHINC
 40
0.1
  9
$FILLETRAD
 40
0.0
  9
$AUNITS
 70
     0
  9
$AUPREC
 70
     0
  9
$MENU
  1
.
  9
$ELEVATION
 40
0.0
  9
$PELEVATION
 40
0.0
  9
$THICKNESS
 40
0.0
  9
$LIMCHECK
 70
     0
  9
$BLIPMODE
 70
     0
  9
$CHAMFERA
 40
0.0
  9
$CHAMFERB
 40
0.0
  9
$SKPOLY
 70
     0
  9
$TDCREATE
 40
2453083.4120647679
  9
$TDUPDATE
 40
2459604.6596269449
  9
$TDINDWG
 40
0.7243135764000001
  9
$TDUSRTIMER
 40
0.7243134606
  9
$USRTIMER
 70
     1
  9
$ANGBASE
 50
0.0
  9
$ANGDIR
 70
     0
  9
$PDMODE
 70
     0
  9
$PDSIZE
 40
0.0
  9
$PLINEWID
 40
0.0
  9
$COORDS
 70
     1
  9
$SPLFRAME
 70
     0
  9
$SPLINETYPE
 70
     6
  9
$SPLINESEGS
 70
     8
  9
$ATTDIA
 70
     0
  9
$ATTREQ
 70
     1
  9
$HANDLING
 70
     1
  9
$HANDSEED
  5
7AD6
  9
$SURFTAB1
 70
     6
  9
$SURFTAB2
 70
     6
  9
$SURFTYPE
 70
     6
  9
$SURFU
 70
     6
  9
$SURFV
 70
     6
  9
$UCSNAME
  2

  9
$UCSORG
 10
0.0
 20
0.0
 30
0.0
  9
$UCSXDIR
 10
1.0
 20
0.0
 30
0.0
  9
$UCSYDIR
 10
0.0
 20
1.0
 30
0.0
  9
$PUCSNAME
  2

  9
$PUCSORG
 10
0.0
 20
0.0
 30
0.0
  9
$PUCSXDIR
 10
1.0
 20
0.0
 30
0.0
  9
$PUCSYDIR
 10
0.0
 20
1.0
 30
0.0
  9
$USERI1
 70
     0
  9
$USERI2
 70
     1
  9
$USERI3
 70
     0
  9
$USERI4
 70
     0
  9
$USERI5
 70
     0
  9
$USERR1
 40
0.0
  9
$USERR2
 40
0.0
  9
$USERR3
 40
0.0
  9
$USERR4
 40
0.0
  9
$USERR5
 40
0.0
  9
$WORLDVIEW
 70
     1
  9
$SHADEDGE
 70
     3
  9
$SHADEDIF
 70
    70
  9
$TILEMODE
 70
     1
  9
$MAXACTVP
 70
    64
  9
$PLIMCHECK
 70
     0
  9
$PEXTMIN
 10
0.0
 20
0.0
 30
0.0
  9
$PEXTMAX
 10
0.0
 20
0.0
 30
0.0
  9
$PLIMMIN
 10
0.0
 20
0.0
  9
$PLIMMAX
 10
12.0
 20
9.0
  9
$UNITMODE
 70
     0
  9
$VISRETAIN
 70
     1
  9
$PLINEGEN
 70
     0
  9
$PSLTSCALE
 70
     1
  0
ENDSEC
  0
SECTION
  2
TABLES
  0
TABLE
  2
VPORT
 70
     1
  0
VPORT
  2
*ACTIVE
 70
     0
 10
0.0
 20
0.0
 11
1.0
 21
1.0
 12
175.16230682958101
 22
43.007875550263812
 13
0.0
 23
0.0
 14
0.5
 24
0.5
 15
0.5
 25
0.5
 16
0.0
 26
0.0
 36
1.0
 17
0.0
 27
0.0
 37
0.0
 40
147.71868790182481
 41
2.3805970149253728
 42
50.0
 43
0.0
 44
0.0
 50
0.0
 51
0.0
 71
     0
 72
  1000
 73
     1
 74
     2
 75
     0
 76
     0
 77
     0
 78
     0
  0
ENDTAB
  0
TABLE
  2
LTYPE
 70
     3
  0
LTYPE
  2
CONTINUOUS
 70
     0
  3
Solid Line
 72
    65
 73
     0
 40
0.0
  0
LTYPE
  2
CENTER
 70
     0
  3
____ _ ____ _ ____ _ ____ _ ____ _ ____ _ ____
 72
    65
 73
     4
 40
2.0
 49
1.25
 49
-0.25
 49
0.25
 49
-0.25
  0
LTYPE
  2
PHANTOM2
 70
     0
  3
___ _ _ ___ _ _ ___ _ _ ___ _ _
 72
    65
 73
     6
 40
1.25
 49
0.625
 49
-0.125
 49
0.125
 49
-0.125
 49
0.125
 49
-0.125
  0
ENDTAB
  0
TABLE
  2
LAYER
 70
     4
  0
LAYER
  2
0
 70
     0
 62
     7
  6
CONTINUOUS
  0
LAYER
  2
1
 70
     0
 62
     1
  6
CENTER
  0
LAYER
  2
DEFPOINTS
 70
     0
 62
     7
  6
CONTINUOUS
  0
LAYER
  2
3
 70
     0
 62
     3
  6
CONTINUOUS
  0
ENDTAB
  0
TABLE
  2
STYLE
 70
     2
  0
STYLE
  2
STANDARD
 70
     0
 40
0.0
 41
1.0
 50
0.0
 71
     0
 42
0.2
  3
simplex.shx
  4
bigfont.shx
  0
STYLE
  2
STANDARD1
 70
     0
 40
0.0
 41
1.0
 50
0.0
 71
     0
 42
3.0
  3
txt
  4

  0
ENDTAB
  0
TABLE
  2
VIEW
 70
     0
  0
ENDTAB
  0
TABLE
  2
UCS
 70
     0
  0
ENDTAB
  0
TABLE
  2
APPID
 70
     5
  0
APPID
  2
ACAD
 70
     0
  0
APPID
  2
ACAD_MLEADERVER
 70
     0
  0
APPID
  2
ACAD_NAV_VCDISPLAY
 70
     0
  0
APPID
  2
ACAD_EXEMPT_FROM_CAD_STANDARDS
 70
     0
  0
APPID
  2
ACAD_DSTYLE_DIMRADIAL_EXTENSION
 70
     0
  0
ENDTAB
  0
TABLE
  2
DIMSTYLE
 70
     1
  0
DIMSTYLE
  2
STANDARD
 70
     0
  3

  4

  5

  6

  7

 40
1.0
 41
0.18
 42
0.0625
 43
0.38
 44
0.18
 45
0.0
 46
0.0
 47
0.0
 48
0.0
140
2.6000000000000001
141
0.09
142
0.0
143
25.399999999999999
144
1.0
145
0.0
146
1.0
147
0.09
 71
     0
 72
     0
 73
     0
 74
     0
 75
     0
 76
     0
 77
     1
 78
     8
170
     0
171
     2
172
     0
173
     0
174
     0
175
     0
176
     0
177
     0
178
     0
  0
ENDTAB
  0
ENDSEC
  0
SECTION
  2
BLOCKS
  0
BLOCK
  8
0
  2
$MODEL_SPACE
 70
     0
 10
0.0
 20
0.0
 30
0.0
  3
$MODEL_SPACE
  1

  0
ENDBLK
  5
21
  8
0
  0
BLOCK
 67
     1
  8
0
  2
$PAPER_SPACE
 70
     0
 10
0.0
 20
0.0
 30
0.0
  3
$PAPER_SPACE
  1

  0
ENDBLK
  5
5B
 67
     1
  8
0
  0
ENDSEC
  0
SECTION
  2
ENTITIES
  0
TEXT
  5
1F01
  8
0
 62
     3
 10
0.0
 20
0.0
 30
0.0
 40
5.0
  1
CP156-16101S
  7
STANDARD1
  0
CIRCLE
  5
78AD
  8
0
  6
CONTINUOUS
 62
     7
 10
175.49999997020009
 20
60.0
 30
0.0
 40
21.50000000000006
  0
CIRCLE
  5
78AE
  8
0
  6
CONTINUOUS
 62
     7
 10
175.49999997020009
 20
60.0
 30
0.0
 40
22.500000000000089
  0
LINE
  5
78AF
  8
0
  6
CONTINUOUS
 62
     7
 10
173.7679491798001
 20
63.000000026000002
 30
0.0
 11
177.2320507607001
 21
63.000000026000002
 31
0.0
  0
LINE
  5
78B2
  8
0
  6
CONTINUOUS
 62
     7
 10
177.2320507607001
 20
56.999999973900003
 30
0.0
 11
173.7679491798001
 21
56.999999973900003
 31
0.0
  0
CIRCLE
  5
78B5
  8
0
  6
CONTINUOUS
 62
     7
 10
175.49999997020009
 20
60.0
 30
0.0
 40
3.75
  0
CIRCLE
  5
78B6
  8
0
  6
CONTINUOUS
 62
     7
 10
175.49999997020009
 20
60.0
 30
0.0
 40
8.5857864376269042
  0
CIRCLE
  5
78B7
  8
0
  6
CONTINUOUS
 62
     7
 10
175.49999997020009
 20
60.0
 30
0.0
 40
10.5
  0
CIRCLE
  5
78B8
  8
0
  6
CONTINUOUS
 62
     7
 10
175.49999997020009
 20
60.0
 30
0.0
 40
15.5
  0
LINE
  5
7900
  8
1
 10
175.49999997020009
 20
87.500000000000085
 30
0.0
 11
175.49999997020009
 21
32.499999999999922
 31
0.0
  0
LINE
  5
7901
  8
1
 10
147.99999997020001
 20
60.0
 30
0.0
 11
202.99999997020021
 21
60.0
 31
0.0
  0
LINE
  5
7902
  8
1
 10
30.0
 20
60.0
 30
0.0
 11
107.99999997019999
 21
60.0
 31
0.0
  0
LINE
  5
79AF
  8
0
 10
69.000000101500007
 20
82.500000894050004
 30
0.0
 11
51.000000759899997
 21
82.500000894050004
 31
0.0
  0
LINE
  5
79B0
  8
0
 10
51.000000759899997
 20
37.499999105950003
 30
0.0
 11
69.000000101500007
 21
37.499999105950003
 31
0.0
  0
LINE
  5
79B1
  8
0
 10
51.000000759899997
 20
82.500000894050004
 30
0.0
 11
50.000000596000007
 21
81.500000730149978
 31
0.0
  0
LINE
  5
79B2
  8
0
 10
50.000000596000007
 20
38.499999269850008
 30
0.0
 11
51.000000759899997
 21
37.499999105950003
 31
0.0
  0
LINE
  5
79B3
  8
0
 10
69.000000101500007
 20
37.499999105950003
 30
0.0
 11
70.000000149000002
 21
38.499999269850008
 31
0.0
  0
LINE
  5
79B4
  8
0
 10
70.000000149000002
 20
81.500000730149978
 30
0.0
 11
69.000000101500007
 21
82.500000894050004
 31
0.0
  0
LINE
  5
79B5
  8
0
 10
71.0462245298
 20
75.499999746649991
 30
0.0
 11
70.200000143899985
 21
75.499999746649991
 31
0.0
  0
LINE
  5
79B6
  8
0
 10
70.200000143899985
 20
44.500000253350002
 30
0.0
 11
71.0462245298
 21
44.500000253350002
 31
0.0
  0
LINE
  5
79B7
  8
0
 10
70.200000143899985
 20
75.499999746649991
 30
0.0
 11
70.000000149000002
 21
75.300000086449984
 31
0.0
  0
LINE
  5
79B8
  8
0
 10
70.000000149000002
 20
44.699999913549981
 30
0.0
 11
70.200000143899985
 21
44.500000253350002
 31
0.0
  0
LINE
  5
79B9
  8
0
 10
71.0462245298
 20
44.500000253350002
 30
0.0
 11
78.913456611300006
 21
46.755892634450021
 31
0.0
  0
LINE
  5
79BA
  8
0
 10
78.913456611300006
 20
73.244107365649995
 30
0.0
 11
71.0462245298
 21
75.499999746649991
 31
0.0
  0
ARC
  5
79BB
  8
0
 10
78.500000149000002
 20
71.802215067249989
 30
0.0
 40
1.5000000000000191
 50
0.0
 51
74.000000000000327
  0
ARC
  5
79BC
  8
0
 10
78.500000149000002
 20
48.197784932750011
 30
0.0
 40
1.5000000000000191
 50
286.00000000000028
 51
0.0
  0
ARC
  5
79BD
  8
0
 10
80.400000148999993
 20
70.900000000049999
 30
0.0
 40
0.4000000000000057
 50
180.0
 51
270.0
  0
ARC
  5
79BE
  8
0
 10
80.400000148999993
 20
49.100000000050017
 30
0.0
 40
0.4000000000000057
 50
90.0
 51
180.0
  0
LINE
  5
79BF
  8
0
 10
83.922649584700011
 20
70.499999858449996
 30
0.0
 11
80.400000177299987
 21
70.499999858449996
 31
0.0
  0
LINE
  5
79C0
  8
0
 10
80.400000177299987
 20
49.500000141549997
 30
0.0
 11
83.922649584700011
 21
49.500000141549997
 31
0.0
  0
ARC
  5
79C1
  8
0
 10
83.922649879800005
 20
69.500000000049994
 30
0.0
 40
1.0
 50
29.999999999999929
 51
90.0
  0
ARC
  5
79C2
  8
0
 10
83.922649879800005
 20
50.500000000049987
 30
0.0
 40
1.0
 50
270.0
 51
330.00000000000011
  0
ARC
  5
79C3
  8
0
 10
97.386751494900011
 20
69.500000000049994
 30
0.0
 40
1.0
 50
90.0
 51
150.0
  0
ARC
  5
79C4
  8
0
 10
97.386751494900011
 20
50.500000000049987
 30
0.0
 40
1.0
 50
210.0
 51
270.0
  0
LINE
  5
79C5
  8
0
 10
101.2928931415
 20
70.499999858449996
 30
0.0
 11
97.386751174900013
 21
70.499999858449996
 31
0.0
  0
LINE
  5
79C6
  8
0
 10
97.386751174900013
 20
49.500000141549997
 30
0.0
 11
101.2928931415
 21
49.500000141549997
 31
0.0
  0
ARC
  5
79C7
  8
0
 10
101.2928933678
 20
70.000000000049994
 30
0.0
 40
0.5
 50
45.000000000000227
 51
90.0
  0
ARC
  5
79C8
  8
0
 10
101.2928933678
 20
50.000000000049987
 30
0.0
 40
0.5
 50
270.0
 51
314.99999999999977
  0
LINE
  5
79C9
  8
0
 10
101.64644554260001
 20
49.646446891150021
 30
0.0
 11
102.707106471
 21
50.707106888350012
 31
0.0
  0
LINE
  5
79CA
  8
0
 10
102.707106471
 20
69.292893111750004
 30
0.0
 11
101.64644554260001
 21
70.353553108849979
 31
0.0
  0
LINE
  5
79CB
  8
0
 10
84.788675271000002
 20
50.000000223550018
 30
0.0
 11
86.520725712200004
 21
52.999999783949988
 31
0.0
  0
LINE
  5
79CC
  8
0
 10
86.520725712200004
 20
67.000000216050012
 30
0.0
 11
84.788675271000002
 21
69.999999776449982
 31
0.0
  0
LINE
  5
79CD
  8
0
 10
96.520725488599993
 20
69.999999776449982
 30
0.0
 11
94.788675978800001
 21
67.000000216050012
 31
0.0
  0
LINE
  5
79CE
  8
0
 10
94.788675978800001
 20
52.999999783949988
 30
0.0
 11
96.520725488599993
 21
50.000000223550018
 31
0.0
  0
ARC
  5
79CF
  8
0
 10
102.000000149
 20
68.58578643765
 30
0.0
 40
1.0000000000000271
 50
0.0
 51
45.000000000000227
  0
ARC
  5
79D0
  8
0
 10
102.000000149
 20
51.414213562349993
 30
0.0
 40
1.0000000000000271
 50
314.99999999999977
 51
0.0
  0
ARC
  5
79D1
  8
0
 10
87.386751494900011
 20
52.500000000049987
 30
0.0
 40
1.0
 50
90.0
 51
150.0
  0
ARC
  5
79D2
  8
0
 10
87.386751494900011
 20
67.500000000049994
 30
0.0
 40
1.0
 50
210.0
 51
270.0
  0
ARC
  5
79D3
  8
0
 10
93.922649879800005
 20
52.500000000049987
 30
0.0
 40
1.0
 50
29.999999999999929
 51
90.0
  0
ARC
  5
79D4
  8
0
 10
93.922649879800005
 20
67.500000000049994
 30
0.0
 40
1.0
 50
270.0
 51
330.00000000000011
  0
LINE
  5
79D5
  8
0
 10
87.386751398400008
 20
53.499999865950002
 30
0.0
 11
93.922650292500009
 21
53.499999865950002
 31
0.0
  0
LINE
  5
79D6
  8
0
 10
93.922650292500009
 20
66.500000134149985
 30
0.0
 11
87.386751398400008
 21
66.500000134149985
 31
0.0
  0
LINE
  5
79D7
  8
0
 10
36.499999314500002
 20
64.999999888249988
 30
0.0
 11
35.0
 21
63.500000108049989
 31
0.0
  0
LINE
  5
79D8
  8
0
 10
35.0
 20
56.499999891950011
 30
0.0
 11
36.499999314500002
 21
55.000000111750012
 31
0.0
  0
LINE
  5
79D9
  8
0
 10
48.000000268200012
 20
64.999999888249988
 30
0.0
 11
36.499999314500002
 21
64.999999888249988
 31
0.0
  0
LINE
  5
79DA
  8
0
 10
36.499999314500002
 20
55.000000111750012
 30
0.0
 11
48.000000268200012
 21
55.000000111750012
 31
0.0
  0
ARC
  5
79DB
  8
0
 10
48.60000014900001
 20
55.400000000049999
 30
0.0
 40
0.6000000000000086
 50
90.0
 51
180.0
  0
ARC
  5
79DC
  8
0
 10
48.60000014900001
 20
64.600000000049988
 30
0.0
 40
0.6000000000000086
 50
180.0
 51
270.0
  0
LINE
  5
79DD
  8
0
 10
50.000000596000007
 20
64.000000190050002
 30
0.0
 11
48.599999249000007
 21
64.000000190050002
 31
0.0
  0
LINE
  5
79DE
  8
0
 10
48.599999249000007
 20
55.999999810050021
 30
0.0
 11
50.000000596000007
 21
55.999999810050021
 31
0.0
  0
LINE
  5
79DF
  8
0
 10
69.000000101500007
 20
37.499999105950003
 30
0.0
 11
69.000000101500007
 21
82.500000894050004
 31
0.0
  0
LINE
  5
79E0
  8
0
 10
51.000000759899997
 20
82.500000894050046
 30
0.0
 11
51.000000759899997
 21
37.499999105950003
 31
0.0
  0
LINE
  5
79E1
  8
0
 10
50.000000596000007
 20
38.499999269850008
 30
0.0
 11
50.000000596000007
 21
81.500000730149978
 31
0.0
  0
LINE
  5
79E2
  8
0
 10
70.000000149000002
 20
81.500000730149978
 30
0.0
 11
70.000000149000002
 21
38.499999269850008
 31
0.0
  0
LINE
  5
79E3
  8
0
 10
71.0462245298
 20
75.499999746649991
 30
0.0
 11
71.0462245298
 21
44.500000253350002
 31
0.0
  0
LINE
  5
79E4
  8
0
 10
70.200000143899985
 20
75.499999746649991
 30
0.0
 11
70.200000143899985
 21
44.500000253350002
 31
0.0
  0
LINE
  5
79E5
  8
0
 10
79.999999925500006
 20
71.802215129149999
 30
0.0
 11
79.999999925500006
 21
48.197784870850001
 31
0.0
  0
LINE
  5
79E6
  8
0
 10
102.99999997019999
 20
51.414213553049983
 30
0.0
 11
102.99999997019999
 21
68.58578644695001
 31
0.0
  0
LINE
  5
79E7
  8
0
 10
36.499999314500002
 20
64.999999888249988
 30
0.0
 11
36.499999314500002
 21
55.000000111750012
 31
0.0
  0
LINE
  5
79E8
  8
0
 10
35.0
 20
56.499999891950011
 30
0.0
 11
35.0
 21
63.500000108049989
 31
0.0
  0
LINE
  5
79E9
  8
0
 10
48.000000268200012
 20
64.999999888249988
 30
0.0
 11
48.000000268200012
 21
55.000000111750012
 31
0.0
  0
LINE
  5
79EA
  8
0
 10
78.913456611300006
 20
46.755892634450021
 30
0.0
 11
78.913456611300006
 21
73.244107365649995
 31
0.0
  0
LINE
  5
79EB
  8
0
 10
80.400000177299987
 20
70.499999858449996
 30
0.0
 11
80.400000177299987
 21
49.500000141549997
 31
0.0
  0
LINE
  5
79EC
  8
0
 10
83.922649584700011
 20
49.500000141549997
 30
0.0
 11
83.922649584700011
 21
70.499999858449996
 31
0.0
  0
LINE
  5
79ED
  8
0
 10
97.386751174900013
 20
70.499999858449996
 30
0.0
 11
97.386751174900013
 21
49.500000141549997
 31
0.0
  0
LINE
  5
79EE
  8
0
 10
101.2928931415
 20
49.500000141549997
 30
0.0
 11
101.2928931415
 21
70.499999858449996
 31
0.0
  0
LINE
  5
79EF
  8
0
 10
87.386751398400008
 20
66.500000134149985
 30
0.0
 11
87.386751398400008
 21
53.499999865950002
 31
0.0
  0
LINE
  5
79F0
  8
0
 10
93.922650292500009
 20
53.499999865950002
 30
0.0
 11
93.922650292500009
 21
66.500000134149985
 31
0.0
  0
LINE
  5
79F1
  8
3
 10
48.17950524390001
 20
64.172000102750019
 30
0.0
 11
35.672001391600013
 21
64.172000102750019
 31
0.0
  0
LINE
  5
79F2
  8
3
 10
35.672001391600013
 20
55.827999897349997
 30
0.0
 11
48.17950524390001
 21
55.827999897349997
 31
0.0
  0
LINE
  5
7A45
  8
0
 10
173.7679491798001
 20
63.000000026000002
 30
0.0
 11
172.03589838930009
 21
60.0
 31
0.0
  0
LINE
  5
7A46
  8
0
 10
177.2320507607001
 20
63.000000026000002
 30
0.0
 11
178.9641015511001
 21
60.0
 31
0.0
  0
LINE
  5
7A47
  8
0
 10
177.2320507607001
 20
56.999999973900003
 30
0.0
 11
178.9641015511001
 21
60.0
 31
0.0
  0
LINE
  5
7A48
  8
0
 10
172.03589838930009
 20
60.0
 30
0.0
 11
173.7679491798001
 21
56.999999973900003
 31
0.0
  0
ENDSEC
  0
EOF
