  0
SECTION
  2
HEADER
  9
$ACADVER
  1
AC1009
  9
$INSBASE
 10
0.0
 20
0.0
 30
0.0
  9
$EXTMIN
 10
0.0
 20
-1.4802182810368341
 30
0.0
  9
$EXTMAX
 10
274.4999989420999782
 20
131.5
 30
0.0
  9
$LIMMIN
 10
0.0
 20
0.0
  9
$LIMMAX
 10
12.0
 20
9.0
  9
$ORTHOMODE
 70
     1
  9
$REGENMODE
 70
     1
  9
$FILLMODE
 70
     1
  9
$QTEXTMODE
 70
     0
  9
$MIRRTEXT
 70
     0
  9
$DRAGMODE
 70
     2
  9
$LTSCALE
 40
5.0
  9
$OSMODE
 70
    37
  9
$ATTMODE
 70
     1
  9
$TEXTSIZE
 40
0.2
  9
$TRACEWID
 40
0.05
  9
$TEXTSTYLE
  7
STANDARD
  9
$CLAYER
  8
0
  9
$CELTYPE
  6
BYLAYER
  9
$CECOLOR
 62
   256
  9
$DIMSCALE
 40
1.0
  9
$DIMASZ
 40
0.18
  9
$DIMEXO
 40
0.0625
  9
$DIMDLI
 40
0.38
  9
$DIMRND
 40
0.0
  9
$DIMDLE
 40
0.0
  9
$DIMEXE
 40
0.18
  9
$DIMTP
 40
0.0
  9
$DIMTM
 40
0.0
  9
$DIMTXT
 40
2.6000000000000001
  9
$DIMCEN
 40
0.09
  9
$DIMTSZ
 40
0.0
  9
$DIMTOL
 70
     0
  9
$DIMLIM
 70
     0
  9
$DIMTIH
 70
     0
  9
$DIMTOH
 70
     0
  9
$DIMSE1
 70
     0
  9
$DIMSE2
 70
     0
  9
$DIMTAD
 70
     1
  9
$DIMZIN
 70
     8
  9
$DIMBLK
  1

  9
$DIMASO
 70
     1
  9
$DIMSHO
 70
     1
  9
$DIMPOST
  1

  9
$DIMAPOST
  1

  9
$DIMALT
 70
     0
  9
$DIMALTD
 70
     2
  9
$DIMALTF
 40
25.3999999999999986
  9
$DIMLFAC
 40
1.0
  9
$DIMTOFL
 70
     0
  9
$DIMTVP
 40
0.0
  9
$DIMTIX
 70
     0
  9
$DIMSOXD
 70
     0
  9
$DIMSAH
 70
     0
  9
$DIMBLK1
  1

  9
$DIMBLK2
  1

  9
$DIMSTYLE
  2
STANDARD
  9
$DIMCLRD
 70
     0
  9
$DIMCLRE
 70
     0
  9
$DIMCLRT
 70
     0
  9
$DIMTFAC
 40
1.0
  9
$DIMGAP
 40
0.09
  9
$LUNITS
 70
     2
  9
$LUPREC
 70
     4
  9
$SKETCHINC
 40
0.1
  9
$FILLETRAD
 40
0.0
  9
$AUNITS
 70
     0
  9
$AUPREC
 70
     0
  9
$MENU
  1
.
  9
$ELEVATION
 40
0.0
  9
$PELEVATION
 40
0.0
  9
$THICKNESS
 40
0.0
  9
$LIMCHECK
 70
     0
  9
$BLIPMODE
 70
     0
  9
$CHAMFERA
 40
0.0
  9
$CHAMFERB
 40
0.0
  9
$SKPOLY
 70
     0
  9
$TDCREATE
 40
2453083.4120601848699152
  9
$TDUPDATE
 40
2460139.5734606487676501
  9
$TDINDWG
 40
0.7325341319000001
  9
$TDUSRTIMER
 40
0.7325340162
  9
$USRTIMER
 70
     1
  9
$ANGBASE
 50
0.0
  9
$ANGDIR
 70
     0
  9
$PDMODE
 70
     0
  9
$PDSIZE
 40
0.0
  9
$PLINEWID
 40
0.0
  9
$COORDS
 70
     1
  9
$SPLFRAME
 70
     0
  9
$SPLINETYPE
 70
     6
  9
$SPLINESEGS
 70
     8
  9
$ATTDIA
 70
     1
  9
$ATTREQ
 70
     1
  9
$HANDLING
 70
     1
  9
$HANDSEED
  5
7D3A
  9
$SURFTAB1
 70
     6
  9
$SURFTAB2
 70
     6
  9
$SURFTYPE
 70
     6
  9
$SURFU
 70
     6
  9
$SURFV
 70
     6
  9
$UCSNAME
  2

  9
$UCSORG
 10
0.0
 20
0.0
 30
0.0
  9
$UCSXDIR
 10
1.0
 20
0.0
 30
0.0
  9
$UCSYDIR
 10
0.0
 20
1.0
 30
0.0
  9
$PUCSNAME
  2

  9
$PUCSORG
 10
0.0
 20
0.0
 30
0.0
  9
$PUCSXDIR
 10
1.0
 20
0.0
 30
0.0
  9
$PUCSYDIR
 10
0.0
 20
1.0
 30
0.0
  9
$USERI1
 70
     0
  9
$USERI2
 70
     1
  9
$USERI3
 70
     0
  9
$USERI4
 70
     0
  9
$USERI5
 70
     0
  9
$USERR1
 40
0.0
  9
$USERR2
 40
0.0
  9
$USERR3
 40
0.0
  9
$USERR4
 40
0.0
  9
$USERR5
 40
0.0
  9
$WORLDVIEW
 70
     1
  9
$SHADEDGE
 70
     3
  9
$SHADEDIF
 70
    70
  9
$TILEMODE
 70
     1
  9
$MAXACTVP
 70
    64
  9
$PLIMCHECK
 70
     0
  9
$PEXTMIN
 10
0.0
 20
0.0
 30
0.0
  9
$PEXTMAX
 10
0.0
 20
0.0
 30
0.0
  9
$PLIMMIN
 10
0.0
 20
0.0
  9
$PLIMMAX
 10
12.0
 20
9.0
  9
$UNITMODE
 70
     0
  9
$VISRETAIN
 70
     1
  9
$PLINEGEN
 70
     0
  9
$PSLTSCALE
 70
     1
  0
ENDSEC
  0
SECTION
  2
TABLES
  0
TABLE
  2
VPORT
 70
     1
  0
VPORT
  2
*ACTIVE
 70
     0
 10
0.0
 20
0.0
 11
1.0
 21
1.0
 12
275.4591396545486077
 22
65.0102131457107504
 13
0.0
 23
0.0
 14
0.5
 24
0.5
 15
0.5
 25
0.5
 16
0.0
 26
0.0
 36
1.0
 17
0.0
 27
0.0
 37
0.0
 40
235.337021131280892
 41
2.3485221674876842
 42
50.0
 43
0.0
 44
0.0
 50
0.0
 51
0.0
 71
     0
 72
  1000
 73
     1
 74
     2
 75
     0
 76
     0
 77
     0
 78
     0
  0
ENDTAB
  0
TABLE
  2
LTYPE
 70
     3
  0
LTYPE
  2
CONTINUOUS
 70
     0
  3
Solid Line
 72
    65
 73
     0
 40
0.0
  0
LTYPE
  2
CENTER
 70
     0
  3
____ _ ____ _ ____ _ ____ _ ____ _ ____ _ ____
 72
    65
 73
     4
 40
2.0
 49
1.25
 49
-0.25
 49
0.25
 49
-0.25
  0
LTYPE
  2
PHANTOM2
 70
     0
  3
___ _ _ ___ _ _ ___ _ _ ___ _ _
 72
    65
 73
     6
 40
1.25
 49
0.625
 49
-0.125
 49
0.125
 49
-0.125
 49
0.125
 49
-0.125
  0
ENDTAB
  0
TABLE
  2
LAYER
 70
     4
  0
LAYER
  2
0
 70
     0
 62
     7
  6
CONTINUOUS
  0
LAYER
  2
1
 70
     0
 62
     1
  6
CENTER
  0
LAYER
  2
DEFPOINTS
 70
     0
 62
     7
  6
CONTINUOUS
  0
LAYER
  2
3
 70
     0
 62
     3
  6
CONTINUOUS
  0
ENDTAB
  0
TABLE
  2
STYLE
 70
     2
  0
STYLE
  2
STANDARD
 70
     0
 40
0.0
 41
1.0
 50
0.0
 71
     0
 42
0.2
  3
simplex.shx
  4
bigfont.shx
  0
STYLE
  2
STANDARD1
 70
     0
 40
0.0
 41
1.0
 50
0.0
 71
     0
 42
3.0
  3
txt
  4

  0
ENDTAB
  0
TABLE
  2
VIEW
 70
     0
  0
ENDTAB
  0
TABLE
  2
UCS
 70
     0
  0
ENDTAB
  0
TABLE
  2
APPID
 70
     6
  0
APPID
  2
ACAD
 70
     0
  0
APPID
  2
ACAD_MLEADERVER
 70
     0
  0
APPID
  2
ACAD_NAV_VCDISPLAY
 70
     0
  0
APPID
  2
ACAD_EXEMPT_FROM_CAD_STANDARDS
 70
     0
  0
APPID
  2
ACAD_DSTYLE_DIMRADIAL_EXTENSION
 70
     0
  0
APPID
  2
ACADANNOTATIVE
 70
     0
  0
ENDTAB
  0
TABLE
  2
DIMSTYLE
 70
     1
  0
DIMSTYLE
  2
STANDARD
 70
     0
  3

  4

  5

  6

  7

 40
1.0
 41
0.18
 42
0.0625
 43
0.38
 44
0.18
 45
0.0
 46
0.0
 47
0.0
 48
0.0
140
2.6000000000000001
141
0.09
142
0.0
143
25.3999999999999986
144
1.0
145
0.0
146
1.0
147
0.09
 71
     0
 72
     0
 73
     0
 74
     0
 75
     0
 76
     0
 77
     1
 78
     8
170
     0
171
     2
172
     0
173
     0
174
     0
175
     0
176
     0
177
     0
178
     0
  0
ENDTAB
  0
ENDSEC
  0
SECTION
  2
BLOCKS
  0
BLOCK
  8
0
  2
$MODEL_SPACE
 70
     0
 10
0.0
 20
0.0
 30
0.0
  3
$MODEL_SPACE
  1

  0
ENDBLK
  5
21
  8
0
  0
BLOCK
 67
     1
  8
0
  2
$PAPER_SPACE
 70
     0
 10
0.0
 20
0.0
 30
0.0
  3
$PAPER_SPACE
  1

  0
ENDBLK
  5
5B
 67
     1
  8
0
  0
ENDSEC
  0
SECTION
  2
ENTITIES
  0
TEXT
  5
1F01
  8
0
 62
     3
 10
0.0
 20
0.0
 30
0.0
 40
5.0
  1
CP156-20001S
  7
STANDARD1
  0
LINE
  5
7C1E
  8
0
 10
98.9999984949999998
 20
58.4999994933999901
 30
0.0
 11
99.9999986588999832
 21
59.4999996573000018
 31
0.0
  0
LINE
  5
7C1F
  8
0
 10
99.9999986588999832
 20
120.500000342800007
 30
0.0
 11
98.9999984949999998
 21
121.5000005067000046
 31
0.0
  0
LINE
  5
7C20
  8
0
 10
98.9999984949999998
 20
121.5000005067000046
 30
0.0
 11
70.999999493399983
 21
121.5000005067000046
 31
0.0
  0
LINE
  5
7C21
  8
0
 10
70.999999493399983
 20
58.4999994933999901
 30
0.0
 11
98.9999984949999998
 21
58.4999994933999901
 31
0.0
  0
LINE
  5
7C22
  8
0
 10
70.999999493399983
 20
121.5000005067000046
 30
0.0
 11
69.9999974667999822
 21
120.500000342800007
 31
0.0
  0
LINE
  5
7C23
  8
0
 10
69.9999974667999822
 20
59.4999996573000018
 30
0.0
 11
70.999999493399983
 21
58.4999994933999901
 31
0.0
  0
LINE
  5
7C24
  8
0
 10
100.1999992504999994
 20
111.9999998808000043
 30
0.0
 11
99.9999986588999832
 21
111.8000002205999976
 31
0.0
  0
LINE
  5
7C25
  8
0
 10
99.9999986588999832
 20
68.1999997795000183
 30
0.0
 11
100.1999992504999994
 21
68.0000001191999957
 31
0.0
  0
LINE
  5
7C26
  8
0
 10
101.0462231561999005
 20
68.0000001191999957
 30
0.0
 11
111.551273693400006
 21
71.0122754425000267
 31
0.0
  0
LINE
  5
7C27
  8
0
 10
111.551273693400006
 20
108.9877245575000018
 30
0.0
 11
101.0462231561999005
 21
111.9999998808000043
 31
0.0
  0
LINE
  5
7C28
  8
0
 10
100.1999992504999994
 20
68.0000001191999957
 30
0.0
 11
101.0462231561999005
 21
68.0000001191999957
 31
0.0
  0
LINE
  5
7C29
  8
0
 10
101.0462231561999005
 20
111.9999998808000043
 30
0.0
 11
100.1999992504999994
 21
111.9999998808000043
 31
0.0
  0
ARC
  5
7C2A
  8
0
 10
110.9999989271999965
 20
72.9347981150999942
 30
0.0
 40
2.0
 50
286.000000000001819
 51
0.0
  0
ARC
  5
7C2B
  8
0
 10
110.9999989271999965
 20
107.0652018849999934
 30
0.0
 40
2.0000000000000249
 50
0.0
 51
73.9999999999982521
  0
ARC
  5
7C2C
  8
0
 10
113.3999989272000022
 20
73.1000000000000227
 30
0.0
 40
0.4000000000000057
 50
90.0
 51
180.0
  0
ARC
  5
7C2D
  8
0
 10
113.3999989272000022
 20
106.9000000000000057
 30
0.0
 40
0.4000000000000341
 50
180.0
 51
270.0
  0
LINE
  5
7C2E
  8
0
 10
116.4226487372999941
 20
106.4999999105999962
 30
0.0
 11
113.3999989171000067
 21
106.4999999105999962
 31
0.0
  0
LINE
  5
7C2F
  8
0
 10
113.3999989171000067
 20
73.5000000894000038
 30
0.0
 11
116.4226487372999941
 21
73.5000000894000038
 31
0.0
  0
ARC
  5
7C30
  8
0
 10
116.422648658
 20
105.5
 30
0.0
 40
1.0000000000000071
 50
30.0000000000008491
 51
90.0
  0
ARC
  5
7C31
  8
0
 10
116.422648658
 20
74.5000000000000142
 30
0.0
 40
1.0000000000000071
 50
270.0
 51
329.9999999999990905
  0
LINE
  5
7C32
  8
0
 10
117.288674190699993
 20
73.99999924010001
 30
0.0
 11
120.7527755387999946
 21
80.0000002234999954
 31
0.0
  0
LINE
  5
7C33
  8
0
 10
120.7527755387999946
 20
99.9999997765000046
 30
0.0
 11
117.288674190699993
 21
106.000000760000006
 31
0.0
  0
LINE
  5
7C34
  8
0
 10
134.3971127272000103
 20
75.2499999105999962
 30
0.0
 11
138.4999984503000121
 21
75.2499999105999962
 31
0.0
  0
LINE
  5
7C35
  8
0
 10
138.4999984503000121
 20
104.7500000894000038
 30
0.0
 11
134.3971127272000103
 21
104.7500000894000038
 31
0.0
  0
ARC
  5
7C36
  8
0
 10
134.3971132441999998
 20
103.75
 30
0.0
 40
1.0000000000000071
 50
90.0
 51
150.0000000000001137
  0
ARC
  5
7C37
  8
0
 10
134.3971132441999998
 20
76.2500000000000284
 30
0.0
 40
1.0000000000000271
 50
209.9999999999998863
 51
270.0
  0
ARC
  5
7C38
  8
0
 10
138.4999989272000107
 20
101.75
 30
0.0
 40
3.0
 50
0.0
 51
90.0
  0
ARC
  5
7C39
  8
0
 10
138.4999989272000107
 20
78.2500000000000142
 30
0.0
 40
3.000000000000028
 50
270.0
 51
0.0
  0
LINE
  5
7C3A
  8
0
 10
133.5310870408999904
 20
104.2500000075000059
 30
0.0
 11
130.7886736094999947
 21
99.4999996946000209
 31
0.0
  0
LINE
  5
7C3B
  8
0
 10
130.7886736094999947
 20
80.5000003054999951
 30
0.0
 11
133.5310870408999904
 21
75.74999999260001
 31
0.0
  0
ARC
  5
7C3C
  8
0
 10
122.4848264845000045
 20
79.0000000000000284
 30
0.0
 40
2.0000000000000151
 50
90.0
 51
150.0000000000001137
  0
ARC
  5
7C3D
  8
0
 10
122.4848264845000045
 20
101.0
 30
0.0
 40
2.0000000000000151
 50
209.9999999999998863
 51
270.0
  0
LINE
  5
7C3E
  8
0
 10
63.5560834408000019
 20
80.0000002234999954
 30
0.0
 11
66.4144353568999861
 21
81.456402465700009
 31
0.0
  0
LINE
  5
7C3F
  8
0
 10
66.4144353568999861
 20
98.5435975343000337
 30
0.0
 11
63.5560834408000019
 21
99.9999997765000046
 31
0.0
  0
LINE
  5
7C40
  8
0
 10
42.4999976158999786
 20
99.9999997765000046
 30
0.0
 11
40.0
 21
97.4999998323999932
 31
0.0
  0
LINE
  5
7C41
  8
0
 10
40.0
 20
82.5000001677000228
 30
0.0
 11
42.4999976158999786
 21
80.0000002234999954
 31
0.0
  0
LINE
  5
7C42
  8
0
 10
63.5560834408000019
 20
99.9999997765000046
 30
0.0
 11
42.4999976158999786
 21
99.9999997765000046
 31
0.0
  0
LINE
  5
7C43
  8
0
 10
42.4999976158999786
 20
80.0000002234999954
 30
0.0
 11
63.5560834408000019
 21
80.0000002234999954
 31
0.0
  0
ARC
  5
7C44
  8
0
 10
129.9226486580000142
 20
80.0000000000000284
 30
0.0
 40
1.0000000000000071
 50
30.0000000000008491
 51
90.0
  0
ARC
  5
7C45
  8
0
 10
129.9226486580000142
 20
100.0
 30
0.0
 40
1.0000000000000071
 50
270.0
 51
329.9999999999990905
  0
LINE
  5
7C46
  8
0
 10
122.4848264456000067
 20
81.000000387500009
 30
0.0
 11
129.9226479232999907
 21
81.000000387500009
 31
0.0
  0
LINE
  5
7C47
  8
0
 10
129.9226479232999907
 20
98.999999612600007
 30
0.0
 11
122.4848264456000067
 21
98.999999612600007
 31
0.0
  0
ARC
  5
7C48
  8
0
 10
66.5960304307999991
 20
98.9000000000000057
 30
0.0
 40
0.4000000000000036
 50
242.9999999999982947
 51
270.0
  0
ARC
  5
7C49
  8
0
 10
66.5960304307999991
 20
81.1000000000000227
 30
0.0
 40
0.4000000000000541
 50
90.0
 51
117.0000000000017053
  0
LINE
  5
7C4A
  8
0
 10
69.9999974667999822
 20
98.5000004620000311
 30
0.0
 11
66.596032083099999
 21
98.5000004620000311
 31
0.0
  0
LINE
  5
7C4B
  8
0
 10
66.596032083099999
 20
81.4999995380999849
 30
0.0
 11
69.9999974667999822
 21
81.4999995380999849
 31
0.0
  0
LINE
  5
7C4C
  8
0
 10
99.9999986588999832
 20
120.500000342800007
 30
0.0
 11
99.9999986588999832
 21
59.4999996573000018
 31
0.0
  0
LINE
  5
7C4D
  8
0
 10
98.9999984949999998
 20
58.4999994933999901
 30
0.0
 11
98.9999984949999998
 21
121.5000005067000046
 31
0.0
  0
LINE
  5
7C4E
  8
0
 10
70.999999493399983
 20
121.5000005067000046
 30
0.0
 11
70.999999493399983
 21
58.4999994933999901
 31
0.0
  0
LINE
  5
7C51
  8
0
 10
69.9999974667999822
 20
59.4999996573000018
 30
0.0
 11
69.9999974667999822
 21
120.500000342800007
 31
0.0
  0
LINE
  5
7C52
  8
0
 10
100.1999992504999994
 20
111.9999998808000043
 30
0.0
 11
100.1999992504999994
 21
68.0000001191999957
 31
0.0
  0
LINE
  5
7C53
  8
0
 10
101.0462231561999005
 20
68.0000001191999957
 30
0.0
 11
101.0462231561999005
 21
111.9999998808000043
 31
0.0
  0
LINE
  5
7C56
  8
0
 10
112.9999989271999965
 20
107.0652009547000034
 30
0.0
 11
112.9999989271999965
 21
72.9347981150999942
 31
0.0
  0
LINE
  5
7C57
  8
0
 10
141.4999989421000066
 20
101.7499995976999969
 30
0.0
 11
141.4999989421000066
 21
78.2500004023999907
 31
0.0
  0
LINE
  5
7C58
  8
0
 10
63.5560834408000019
 20
99.9999997765000046
 30
0.0
 11
63.5560834408000019
 21
80.0000002234999954
 31
0.0
  0
LINE
  5
7C5A
  8
0
 10
42.4999976158999786
 20
99.9999997765000046
 30
0.0
 11
42.4999976158999786
 21
80.0000002234999954
 31
0.0
  0
LINE
  5
7C5D
  8
0
 10
40.0
 20
82.5000001677000228
 30
0.0
 11
40.0
 21
97.4999998323999932
 31
0.0
  0
LINE
  5
7C60
  8
0
 10
113.3999989171000067
 20
106.4999999105999962
 30
0.0
 11
113.3999989171000067
 21
73.5000000000000284
 31
0.0
  0
LINE
  5
7C61
  8
0
 10
116.4226487372999941
 20
73.5000000894000038
 30
0.0
 11
116.4226487372999941
 21
106.4999999105999962
 31
0.0
  0
LINE
  5
7C65
  8
0
 10
134.3971127272000103
 20
104.7500000894000038
 30
0.0
 11
134.3971127272000103
 21
75.2499999105999962
 31
0.0
  0
LINE
  5
7C66
  8
0
 10
138.4999984503000121
 20
75.2499999105999962
 30
0.0
 11
138.4999984503000121
 21
104.7500000894000038
 31
0.0
  0
LINE
  5
7C6B
  8
0
 10
122.4848264456000067
 20
98.999999612600007
 30
0.0
 11
122.4848264456000067
 21
81.0000000000000568
 31
0.0
  0
LINE
  5
7C6E
  8
0
 10
129.9226479232999907
 20
80.9999999999997868
 30
0.0
 11
129.9226479232999907
 21
98.999999612600007
 31
0.0
  0
LINE
  5
7C70
  8
0
 10
66.596032083099999
 20
98.5000004620000311
 30
0.0
 11
66.596032083099999
 21
81.4999995380999849
 31
0.0
  0
LINE
  5
7C71
  8
1
 10
30.0
 20
90.0
 30
0.0
 11
151.4999989420998929
 21
90.0000000000000568
 31
0.0
  0
CIRCLE
  5
7C74
  8
0
 10
232.9999989421000066
 20
90.0000000000000568
 30
0.0
 40
30.5000000000000604
  0
CIRCLE
  5
7C75
  8
0
 10
232.9999989421000066
 20
90.0000000000000568
 30
0.0
 40
31.5
  0
LINE
  5
7C77
  8
0
 10
228.999998752099998
 20
87.6905989461000388
 30
0.0
 11
228.999998752099998
 21
92.309401054000034
 31
0.0
  0
LINE
  5
7C7A
  8
0
 10
236.9999991320999015
 20
92.309401054000034
 30
0.0
 11
236.9999991320999015
 21
87.6905989461000388
 31
0.0
  0
CIRCLE
  5
7C7C
  8
0
 10
232.9999989421000066
 20
90.0000000000000568
 30
0.0
 40
5.0
  0
CIRCLE
  5
7C7D
  8
0
 10
232.9999989421000066
 20
90.0000000000000568
 30
0.0
 40
14.75
  0
CIRCLE
  5
7C7E
  8
0
 10
232.9999989421000066
 20
90.0000000000000568
 30
0.0
 40
11.75
  0
CIRCLE
  5
7C80
  8
0
 10
232.9999989421000066
 20
90.0000000000000568
 30
0.0
 40
16.5
  0
CIRCLE
  5
7C84
  8
0
 10
232.9999989421000066
 20
90.0000000000000568
 30
0.0
 40
22.0
  0
LINE
  5
7C98
  8
3
 10
66.2114964795769083
 20
98.6469999999999914
 30
0.0
 11
41.1469990994214925
 21
98.6469999999998777
 31
0.0
  0
LINE
  5
7C99
  8
3
 10
66.211496479576823
 20
81.3529999999999944
 30
0.0
 11
41.1469990994757424
 21
81.3529999999999944
 31
0.0
  0
LINE
  5
7CAA
  8
1
 10
191.4999989421000066
 20
90.0000000000000568
 30
0.0
 11
274.4999989420999782
 21
90.0000000000000568
 31
0.0
  0
LINE
  5
7CAB
  8
1
 10
232.9999989421000066
 20
131.5
 30
0.0
 11
232.9999989421000066
 21
48.5000000000000497
 31
0.0
  0
LINE
  5
7CAF
  8
0
 10
228.999998752099998
 20
92.309401054000034
 30
0.0
 11
232.9999989421000066
 21
94.6188021079000379
 31
0.0
  0
LINE
  5
7CB0
  8
0
 10
232.9999989421000066
 20
94.6188021079000379
 30
0.0
 11
236.9999991320999015
 21
92.309401054000034
 31
0.0
  0
LINE
  5
7CB1
  8
0
 10
228.999998752099998
 20
87.6905989461000388
 30
0.0
 11
232.9999989421000066
 21
85.381197892200035
 31
0.0
  0
LINE
  5
7CB2
  8
0
 10
232.9999989421000066
 20
85.381197892200035
 30
0.0
 11
236.9999991320999015
 21
87.6905989461000388
 31
0.0
  0
ENDSEC
  0
EOF
