  0
SECTION
  2
HEADER
  9
$ACADVER
  1
AC1009
  9
$INSBASE
 10
0.0
 20
0.0
 30
0.0
  9
$EXTMIN
 10
0.0
 20
-1.4802182810368341
 30
0.0
  9
$EXTMAX
 10
110.49999982118609
 20
60.750000000000071
 30
0.0
  9
$LIMMIN
 10
0.0
 20
0.0
  9
$LIMMAX
 10
12.0
 20
9.0
  9
$ORTHOMODE
 70
     1
  9
$REGENMODE
 70
     1
  9
$FILLMODE
 70
     1
  9
$QTEXTMODE
 70
     0
  9
$MIRRTEXT
 70
     0
  9
$DRAGMODE
 70
     2
  9
$LTSCALE
 40
5.0
  9
$OSMODE
 70
    37
  9
$ATTMODE
 70
     1
  9
$TEXTSIZE
 40
0.2
  9
$TRACEWID
 40
0.05
  9
$TEXTSTYLE
  7
STANDARD
  9
$CLAYER
  8
0
  9
$CELTYPE
  6
BYLAYER
  9
$CECOLOR
 62
   256
  9
$DIMSCALE
 40
1.0
  9
$DIMASZ
 40
0.18
  9
$DIMEXO
 40
0.0625
  9
$DIMDLI
 40
0.38
  9
$DIMRND
 40
0.0
  9
$DIMDLE
 40
0.0
  9
$DIMEXE
 40
0.18
  9
$DIMTP
 40
0.0
  9
$DIMTM
 40
0.0
  9
$DIMTXT
 40
2.6000000000000001
  9
$DIMCEN
 40
0.09
  9
$DIMTSZ
 40
0.0
  9
$DIMTOL
 70
     0
  9
$DIMLIM
 70
     0
  9
$DIMTIH
 70
     0
  9
$DIMTOH
 70
     0
  9
$DIMSE1
 70
     0
  9
$DIMSE2
 70
     0
  9
$DIMTAD
 70
     1
  9
$DIMZIN
 70
     8
  9
$DIMBLK
  1

  9
$DIMASO
 70
     1
  9
$DIMSHO
 70
     1
  9
$DIMPOST
  1

  9
$DIMAPOST
  1

  9
$DIMALT
 70
     0
  9
$DIMALTD
 70
     2
  9
$DIMALTF
 40
25.399999999999999
  9
$DIMLFAC
 40
1.0
  9
$DIMTOFL
 70
     0
  9
$DIMTVP
 40
0.0
  9
$DIMTIX
 70
     0
  9
$DIMSOXD
 70
     0
  9
$DIMSAH
 70
     0
  9
$DIMBLK1
  1

  9
$DIMBLK2
  1

  9
$DIMSTYLE
  2
STANDARD
  9
$DIMCLRD
 70
     0
  9
$DIMCLRE
 70
     0
  9
$DIMCLRT
 70
     0
  9
$DIMTFAC
 40
1.0
  9
$DIMGAP
 40
0.09
  9
$LUNITS
 70
     2
  9
$LUPREC
 70
     4
  9
$SKETCHINC
 40
0.1
  9
$FILLETRAD
 40
0.0
  9
$AUNITS
 70
     0
  9
$AUPREC
 70
     0
  9
$MENU
  1
.
  9
$ELEVATION
 40
0.0
  9
$PELEVATION
 40
0.0
  9
$THICKNESS
 40
0.0
  9
$LIMCHECK
 70
     0
  9
$BLIPMODE
 70
     0
  9
$CHAMFERA
 40
0.0
  9
$CHAMFERB
 40
0.0
  9
$SKPOLY
 70
     0
  9
$TDCREATE
 40
2453083.4120647679
  9
$TDUPDATE
 40
2456923.4970637159
  9
$TDINDWG
 40
0.7087016782
  9
$TDUSRTIMER
 40
0.7087015625000001
  9
$USRTIMER
 70
     1
  9
$ANGBASE
 50
0.0
  9
$ANGDIR
 70
     0
  9
$PDMODE
 70
     0
  9
$PDSIZE
 40
0.0
  9
$PLINEWID
 40
0.0
  9
$COORDS
 70
     1
  9
$SPLFRAME
 70
     0
  9
$SPLINETYPE
 70
     6
  9
$SPLINESEGS
 70
     8
  9
$ATTDIA
 70
     0
  9
$ATTREQ
 70
     1
  9
$HANDLING
 70
     1
  9
$HANDSEED
  5
7684
  9
$SURFTAB1
 70
     6
  9
$SURFTAB2
 70
     6
  9
$SURFTYPE
 70
     6
  9
$SURFU
 70
     6
  9
$SURFV
 70
     6
  9
$UCSNAME
  2

  9
$UCSORG
 10
0.0
 20
0.0
 30
0.0
  9
$UCSXDIR
 10
1.0
 20
0.0
 30
0.0
  9
$UCSYDIR
 10
0.0
 20
1.0
 30
0.0
  9
$PUCSNAME
  2

  9
$PUCSORG
 10
0.0
 20
0.0
 30
0.0
  9
$PUCSXDIR
 10
1.0
 20
0.0
 30
0.0
  9
$PUCSYDIR
 10
0.0
 20
1.0
 30
0.0
  9
$USERI1
 70
     0
  9
$USERI2
 70
     1
  9
$USERI3
 70
     0
  9
$USERI4
 70
     0
  9
$USERI5
 70
     0
  9
$USERR1
 40
0.0
  9
$USERR2
 40
0.0
  9
$USERR3
 40
0.0
  9
$USERR4
 40
0.0
  9
$USERR5
 40
0.0
  9
$WORLDVIEW
 70
     1
  9
$SHADEDGE
 70
     3
  9
$SHADEDIF
 70
    70
  9
$TILEMODE
 70
     1
  9
$MAXACTVP
 70
    64
  9
$PLIMCHECK
 70
     0
  9
$PEXTMIN
 10
0.0
 20
0.0
 30
0.0
  9
$PEXTMAX
 10
0.0
 20
0.0
 30
0.0
  9
$PLIMMIN
 10
0.0
 20
0.0
  9
$PLIMMAX
 10
12.0
 20
9.0
  9
$UNITMODE
 70
     0
  9
$VISRETAIN
 70
     1
  9
$PLINEGEN
 70
     0
  9
$PSLTSCALE
 70
     1
  0
ENDSEC
  0
SECTION
  2
TABLES
  0
TABLE
  2
VPORT
 70
     1
  0
VPORT
  2
*ACTIVE
 70
     0
 10
0.0
 20
0.0
 11
1.0
 21
1.0
 12
55.253641854214521
 22
33.447875831832519
 13
0.0
 23
0.0
 14
0.5
 24
0.5
 15
0.5
 25
0.5
 16
0.0
 26
0.0
 36
1.0
 17
0.0
 27
0.0
 37
0.0
 40
70.404265993894541
 41
1.7454798331015291
 42
50.0
 43
0.0
 44
0.0
 50
0.0
 51
0.0
 71
     0
 72
  1000
 73
     1
 74
     2
 75
     0
 76
     0
 77
     0
 78
     0
  0
ENDTAB
  0
TABLE
  2
LTYPE
 70
     3
  0
LTYPE
  2
CONTINUOUS
 70
     0
  3
Solid Line
 72
    65
 73
     0
 40
0.0
  0
LTYPE
  2
CENTER
 70
     0
  3
____ _ ____ _ ____ _ ____ _ ____ _ ____ _ ____
 72
    65
 73
     4
 40
2.0
 49
1.25
 49
-0.25
 49
0.25
 49
-0.25
  0
LTYPE
  2
PHANTOM2
 70
     0
  3
___ _ _ ___ _ _ ___ _ _ ___ _ _
 72
    65
 73
     6
 40
1.25
 49
0.625
 49
-0.125
 49
0.125
 49
-0.125
 49
0.125
 49
-0.125
  0
ENDTAB
  0
TABLE
  2
LAYER
 70
     3
  0
LAYER
  2
0
 70
     0
 62
     7
  6
CONTINUOUS
  0
LAYER
  2
1
 70
     0
 62
     1
  6
CENTER
  0
LAYER
  2
DEFPOINTS
 70
     0
 62
     7
  6
CONTINUOUS
  0
ENDTAB
  0
TABLE
  2
STYLE
 70
     2
  0
STYLE
  2
STANDARD
 70
     0
 40
0.0
 41
1.0
 50
0.0
 71
     0
 42
0.2
  3
simplex.shx
  4
bigfont.shx
  0
STYLE
  2
STANDARD1
 70
     0
 40
0.0
 41
1.0
 50
0.0
 71
     0
 42
3.0
  3
txt
  4

  0
ENDTAB
  0
TABLE
  2
VIEW
 70
     0
  0
ENDTAB
  0
TABLE
  2
UCS
 70
     0
  0
ENDTAB
  0
TABLE
  2
APPID
 70
     5
  0
APPID
  2
ACAD
 70
     0
  0
APPID
  2
ACAD_MLEADERVER
 70
     0
  0
APPID
  2
ACAD_NAV_VCDISPLAY
 70
     0
  0
APPID
  2
ACAD_EXEMPT_FROM_CAD_STANDARDS
 70
     0
  0
APPID
  2
ACAD_DSTYLE_DIMRADIAL_EXTENSION
 70
     0
  0
ENDTAB
  0
TABLE
  2
DIMSTYLE
 70
     1
  0
DIMSTYLE
  2
STANDARD
 70
     0
  3

  4

  5

  6

  7

 40
1.0
 41
0.18
 42
0.0625
 43
0.38
 44
0.18
 45
0.0
 46
0.0
 47
0.0
 48
0.0
140
2.6000000000000001
141
0.09
142
0.0
143
25.399999999999999
144
1.0
145
0.0
146
1.0
147
0.09
 71
     0
 72
     0
 73
     0
 74
     0
 75
     0
 76
     0
 77
     1
 78
     8
170
     0
171
     2
172
     0
173
     0
174
     0
175
     0
176
     0
177
     0
178
     0
  0
ENDTAB
  0
ENDSEC
  0
SECTION
  2
BLOCKS
  0
BLOCK
  8
0
  2
$MODEL_SPACE
 70
     0
 10
0.0
 20
0.0
 30
0.0
  3
$MODEL_SPACE
  1

  0
ENDBLK
  5
21
  8
0
  0
BLOCK
 67
     1
  8
0
  2
$PAPER_SPACE
 70
     0
 10
0.0
 20
0.0
 30
0.0
  3
$PAPER_SPACE
  1

  0
ENDBLK
  5
5B
 67
     1
  8
0
  0
ENDSEC
  0
SECTION
  2
ENTITIES
  0
TEXT
  5
1F01
  8
0
 62
     3
 10
0.0
 20
0.0
 30
0.0
 40
5.0
  1
CP158-08001
  7
STANDARD1
  0
LINE
  5
7588
  8
0
 10
49.499999910593068
 20
42.250000126659941
 30
0.0
 11
50.371853522490753
 21
42.250000126659941
 31
0.0
  0
LINE
  5
7589
  8
0
 10
50.371853522490682
 20
57.749999873340201
 30
0.0
 11
49.499999910592997
 21
57.749999873340201
 31
0.0
  0
LINE
  5
758A
  8
0
 10
50.371853522490753
 20
42.250000126659941
 30
0.0
 11
54.137818694114699
 21
43.329873308539469
 31
0.0
  0
LINE
  5
758B
  8
0
 10
54.137818694114657
 20
56.670126691460688
 30
0.0
 11
50.371853522490682
 21
57.749999873340201
 31
0.0
  0
LINE
  5
758C
  8
0
 10
48.626402571797342
 20
57.749500218778913
 30
0.0
 11
44.862181127071359
 21
56.670126691460673
 31
0.0
  0
LINE
  5
758D
  8
0
 10
44.862181127071402
 20
43.329873308539447
 30
0.0
 11
48.626402571797414
 21
42.250499781221222
 31
0.0
  0
LINE
  5
758E
  8
0
 10
49.499999910592997
 20
57.749500218778913
 30
0.0
 11
48.626402571797342
 21
57.749500218778913
 31
0.0
  0
LINE
  5
758F
  8
0
 10
48.626402571797414
 20
42.250499781221222
 30
0.0
 11
49.499999910593068
 21
42.250499781221222
 31
0.0
  0
ARC
  5
7590
  8
0
 10
44.999999910593012
 20
56.189496046154623
 30
0.0
 40
0.5
 50
105.9999999999998
 51
180.0
  0
ARC
  5
7591
  8
0
 10
44.999999910593061
 20
43.810503953845497
 30
0.0
 40
0.5000000000000071
 50
180.0
 51
254.00000000000179
  0
ARC
  5
7592
  8
0
 10
53.999999910593047
 20
43.810503953845519
 30
0.0
 40
0.5000000000000066
 50
285.99999999999989
 51
0.0
  0
ARC
  5
7593
  8
0
 10
53.99999991059299
 20
56.189496046154638
 30
0.0
 40
0.5000000000000106
 50
0.0
 51
73.999999999998451
  0
ARC
  5
7594
  8
0
 10
44.099999910593013
 20
55.900000000000048
 30
0.0
 40
0.4000000000000057
 50
270.0
 51
0.0
  0
ARC
  5
7595
  8
0
 10
44.099999910593048
 20
44.100000000000051
 30
0.0
 40
0.3999999999999986
 50
0.0
 51
90.0
  0
ARC
  5
7596
  8
0
 10
54.89999991059306
 20
44.100000000000087
 30
0.0
 40
0.4000000000000199
 50
90.0
 51
180.0
  0
ARC
  5
7597
  8
0
 10
54.899999910593017
 20
55.900000000000091
 30
0.0
 40
0.4000000000000057
 50
180.00000000000321
 51
270.0
  0
ARC
  5
7598
  8
0
 10
34.007106691779562
 20
55.000000000000007
 30
0.0
 40
0.500000000000004
 50
90.0
 51
135.0000000000002
  0
ARC
  5
7599
  8
0
 10
34.00710669177959
 20
45.000000000000007
 30
0.0
 40
0.5
 50
225.00000000000199
 51
270.0
  0
LINE
  5
759A
  8
0
 10
35.912286669015863
 20
55.499999970197713
 30
0.0
 11
34.007107086479643
 21
55.499999970197692
 31
0.0
  0
LINE
  5
759B
  8
0
 10
34.007107086479692
 20
44.500000029802337
 30
0.0
 11
35.912286669015913
 21
44.500000029802337
 31
0.0
  0
ARC
  5
759C
  8
0
 10
35.912286670321542
 20
55.000000000000007
 30
0.0
 40
0.5000000000000112
 50
30.000000000001961
 51
90.0
  0
ARC
  5
759D
  8
0
 10
35.912286670321578
 20
45.000000000000007
 30
0.0
 40
0.5
 50
270.0
 51
330.00000000000063
  0
ARC
  5
759E
  8
0
 10
43.288675045187823
 20
55.000000000000043
 30
0.0
 40
0.5
 50
90.0
 51
150.0000000000006
  0
ARC
  5
759F
  8
0
 10
43.288675045187858
 20
45.000000000000043
 30
0.0
 40
0.5000000000000041
 50
209.99999999999929
 51
270.0
  0
LINE
  5
75A0
  8
0
 10
44.099999770522089
 20
55.499999970197727
 30
0.0
 11
43.288674850016811
 21
55.499999970197727
 31
0.0
  0
LINE
  5
75A1
  8
0
 10
43.288674850016847
 20
44.500000029802379
 30
0.0
 11
44.099999770522139
 21
44.500000029802379
 31
0.0
  0
LINE
  5
75A2
  8
0
 10
54.900000050663969
 20
44.500000029802408
 30
0.0
 11
55.711324971169248
 21
44.500000029802408
 31
0.0
  0
LINE
  5
75A3
  8
0
 10
55.711324971169212
 20
55.499999970197763
 30
0.0
 11
54.90000005066392
 21
55.499999970197763
 31
0.0
  0
ARC
  5
75A4
  8
0
 10
55.7113247759982
 20
55.000000000000099
 30
0.0
 40
0.5
 50
30.000000000000501
 51
90.0
  0
ARC
  5
75A5
  8
0
 10
55.711324775998243
 20
45.000000000000078
 30
0.0
 40
0.5
 50
270.0
 51
330.00000000000063
  0
ARC
  5
75A6
  8
0
 10
63.087713150864481
 20
55.000000000000128
 30
0.0
 40
0.5000000000000041
 50
90.0
 51
150.0000000000006
  0
ARC
  5
75A7
  8
0
 10
63.087713150864531
 20
45.000000000000107
 30
0.0
 40
0.5000000000000041
 50
209.99999999999929
 51
270.0
  0
LINE
  5
75A8
  8
0
 10
63.087713152170203
 20
44.500000029802429
 30
0.0
 11
64.99289273470643
 21
44.500000029802429
 31
0.0
  0
LINE
  5
75A9
  8
0
 10
64.992892734706373
 20
55.499999970197791
 30
0.0
 11
63.08771315217016
 21
55.499999970197791
 31
0.0
  0
ARC
  5
75AA
  8
0
 10
64.992893129406454
 20
55.000000000000128
 30
0.0
 40
0.5
 50
44.999999999998543
 51
90.000000000001606
  0
ARC
  5
75AB
  8
0
 10
64.992893129406525
 20
45.000000000000128
 30
0.0
 40
0.5
 50
270.0
 51
315.00000000000028
  0
LINE
  5
75AC
  8
0
 10
33.653553754091242
 20
55.353553220629699
 30
0.0
 11
33.292893499135957
 21
54.992893431335702
 31
0.0
  0
LINE
  5
75AD
  8
0
 10
33.292893499135999
 20
45.007106568664327
 30
0.0
 11
33.653553754091291
 21
44.646446779370322
 31
0.0
  0
LINE
  5
75AE
  8
0
 10
65.346446067094831
 20
44.646446779370443
 30
0.0
 11
65.707106322050095
 21
45.00710656866444
 31
0.0
  0
LINE
  5
75AF
  8
0
 10
65.707106322050066
 20
54.992893431335823
 30
0.0
 11
65.346446067094774
 21
55.35355322062982
 31
0.0
  0
LINE
  5
75B0
  8
0
 10
36.345299512147932
 20
44.750000070780537
 30
0.0
 11
37.326795227825663
 21
46.449999976903221
 31
0.0
  0
LINE
  5
75B1
  8
0
 10
37.326795227825627
 20
53.550000023096828
 30
0.0
 11
36.345299512147882
 21
55.249999929219513
 31
0.0
  0
LINE
  5
75B2
  8
0
 10
42.855662472546079
 20
55.249999929219541
 30
0.0
 11
41.874166756868348
 21
53.550000023096842
 31
0.0
  0
LINE
  5
75B3
  8
0
 10
41.87416675686837
 20
46.449999976903243
 30
0.0
 11
42.855662472546122
 21
44.750000070780573
 31
0.0
  0
LINE
  5
75B4
  8
0
 10
56.144337348639979
 20
44.750000070780601
 30
0.0
 11
57.12583306431771
 21
46.449999976903278
 31
0.0
  0
LINE
  5
75B5
  8
0
 10
57.125833064317682
 20
53.550000023096878
 30
0.0
 11
56.144337348639937
 21
55.24999992921957
 31
0.0
  0
LINE
  5
75B6
  8
0
 10
62.654700309038141
 20
55.249999929219591
 30
0.0
 11
61.673204593360403
 21
53.550000023096914
 31
0.0
  0
LINE
  5
75B7
  8
0
 10
61.673204593360431
 20
46.449999976903307
 30
0.0
 11
62.654700309038184
 21
44.750000070780629
 31
0.0
  0
ARC
  5
75B8
  8
0
 10
33.999999910593047
 20
45.714213562373097
 30
0.0
 40
1.0000000000000131
 50
180.00000000000159
 51
225.00000000000199
  0
ARC
  5
75B9
  8
0
 10
33.999999910593019
 20
54.285786437626918
 30
0.0
 40
1.0000000000000031
 50
135.0000000000002
 51
180.0
  0
ARC
  5
75BA
  8
0
 10
64.999999910593004
 20
54.285786437627038
 30
0.0
 40
1.0000000000000071
 50
0.0
 51
44.999999999999702
  0
ARC
  5
75BB
  8
0
 10
64.999999910593061
 20
45.714213562373217
 30
0.0
 40
1.0
 50
315.00000000000028
 51
0.0
  0
ARC
  5
75BC
  8
0
 10
37.846410072106828
 20
46.150000000000027
 30
0.0
 40
0.6000000000000023
 50
90.0
 51
150.0000000000006
  0
ARC
  5
75BD
  8
0
 10
37.846410072106799
 20
53.850000000000023
 30
0.0
 40
0.6000000000000023
 50
209.99999999999929
 51
270.0
  0
ARC
  5
75BE
  8
0
 10
41.354551643402601
 20
46.150000000000041
 30
0.0
 40
0.59999999999999
 50
29.999999999999361
 51
90.0
  0
ARC
  5
75BF
  8
0
 10
41.35455164340258
 20
53.850000000000037
 30
0.0
 40
0.5999999999999962
 50
270.0
 51
330.00000000000063
  0
ARC
  5
75C0
  8
0
 10
57.645448177783479
 20
46.150000000000098
 30
0.0
 40
0.5999999999999944
 50
90.0
 51
150.00000000000159
  0
ARC
  5
75C1
  8
0
 10
57.645448177783457
 20
53.850000000000087
 30
0.0
 40
0.5999999999999962
 50
210.00000000000051
 51
270.0
  0
ARC
  5
75C2
  8
0
 10
61.153589749079273
 20
46.150000000000112
 30
0.0
 40
0.6000000000000085
 50
29.999999999999361
 51
90.0
  0
ARC
  5
75C3
  8
0
 10
61.153589749079231
 20
53.850000000000108
 30
0.0
 40
0.6000000000000085
 50
270.0
 51
330.00000000000171
  0
LINE
  5
75C4
  8
0
 10
41.354552090167978
 20
53.250000067055261
 30
0.0
 11
37.846409894525991
 21
53.250000067055261
 31
0.0
  0
LINE
  5
75C5
  8
0
 10
37.846409894526019
 20
46.749999932944803
 30
0.0
 11
41.354552090168013
 21
46.74999993294481
 31
0.0
  0
LINE
  5
75C6
  8
0
 10
57.645447731018074
 20
46.749999932944867
 30
0.0
 11
61.153589926660061
 21
46.749999932944888
 31
0.0
  0
LINE
  5
75C7
  8
0
 10
61.15358992666004
 20
53.250000067055339
 30
0.0
 11
57.645447731018038
 21
53.250000067055332
 31
0.0
  0
LINE
  5
75C8
  8
0
 10
50.371853522490753
 20
42.250000126659941
 30
0.0
 11
50.371853522490682
 21
57.749999873340201
 31
0.0
  0
LINE
  5
75C9
  8
0
 10
49.499999910592997
 20
57.749999873340201
 30
0.0
 11
49.499999910593068
 21
42.250000126659941
 31
0.0
  0
LINE
  5
75CA
  8
0
 10
48.626402571797414
 20
42.250499781221222
 30
0.0
 11
48.626402571797342
 21
57.749500218778913
 31
0.0
  0
LINE
  5
75CB
  8
0
 10
44.500000022351763
 20
43.810503743588981
 30
0.0
 11
44.50000002235172
 21
56.189496256411132
 31
0.0
  0
LINE
  5
75CC
  8
0
 10
54.499999798834303
 20
56.189496256411161
 30
0.0
 11
54.499999798834338
 21
43.81050374358901
 31
0.0
  0
LINE
  5
75CD
  8
0
 10
33.000000000000021
 20
45.714213699102409
 30
0.0
 11
32.999999999999993
 21
54.285786300897612
 31
0.0
  0
LINE
  5
75CE
  8
0
 10
65.999999821186023
 20
54.285786300897733
 30
0.0
 11
65.999999821186066
 21
45.71421369910253
 31
0.0
  0
LINE
  5
75D4
  8
0
 10
34.007107086479643
 20
55.499999970197692
 30
0.0
 11
34.007107086479692
 21
44.500000029802337
 31
0.0
  0
LINE
  5
75D5
  8
0
 10
35.912286669015913
 20
44.500000029802337
 30
0.0
 11
35.912286669015863
 21
55.499999970197713
 31
0.0
  0
LINE
  5
75D8
  8
0
 10
43.288674850016811
 20
55.499999970197727
 30
0.0
 11
43.288674850016847
 21
44.500000029802379
 31
0.0
  0
LINE
  5
75D9
  8
0
 10
55.711324971169248
 20
44.500000029802408
 30
0.0
 11
55.711324971169212
 21
55.499999970197763
 31
0.0
  0
LINE
  5
75DC
  8
0
 10
63.08771315217016
 20
55.499999970197791
 30
0.0
 11
63.087713152170203
 21
44.500000029802429
 31
0.0
  0
LINE
  5
75DD
  8
0
 10
64.99289273470643
 20
44.500000029802429
 30
0.0
 11
64.992892734706373
 21
55.499999970197791
 31
0.0
  0
LINE
  5
75E5
  8
0
 10
37.846409894525991
 20
53.250000067055261
 30
0.0
 11
37.846409894526019
 21
46.749999932944803
 31
0.0
  0
LINE
  5
75E6
  8
0
 10
41.354552090168013
 20
46.74999993294481
 30
0.0
 11
41.354552090167978
 21
53.250000067055261
 31
0.0
  0
LINE
  5
75E7
  8
0
 10
57.645447731018038
 20
53.250000067055332
 30
0.0
 11
57.645447731018074
 21
46.749999932944867
 31
0.0
  0
LINE
  5
75E8
  8
0
 10
61.153589926660061
 20
46.749999932944888
 30
0.0
 11
61.15358992666004
 21
53.250000067055339
 31
0.0
  0
LINE
  5
75E9
  8
1
 10
30.0
 20
50.0
 30
0.0
 11
68.999999821186066
 21
50.0
 31
0.0
  0
CIRCLE
  5
75EA
  8
0
 10
99.749999821186066
 20
50.000000000000107
 30
0.0
 40
5.5
  0
CIRCLE
  5
75EB
  8
0
 10
99.749999821186066
 20
50.000000000000071
 30
0.0
 40
7.75
  0
CIRCLE
  5
75EC
  8
0
 10
99.749999821186066
 20
50.000000000000107
 30
0.0
 40
4.2857864376268964
  0
LINE
  5
7603
  8
1
 10
88.999999821186066
 20
50.000000000000071
 30
0.0
 11
110.49999982118609
 21
50.000000000000071
 31
0.0
  0
LINE
  5
7604
  8
1
 10
99.749999821186066
 20
60.750000000000071
 30
0.0
 11
99.749999821186066
 21
39.250000000000071
 31
0.0
  0
CIRCLE
  5
7618
  8
0
 10
99.749999821186066
 20
50.000000000000071
 30
0.0
 40
6.1894960461545727
  0
ENDSEC
  0
EOF
