  0
SECTION
  2
HEADER
  9
$ACADVER
  1
AC1009
  9
$INSBASE
 10
0.0
 20
0.0
 30
0.0
  9
$EXTMIN
 10
0.0
 20
-1.4802182810368341
 30
0.0
  9
$EXTMAX
 10
202.0
 20
152.0
 30
0.0
  9
$LIMMIN
 10
0.0
 20
0.0
  9
$LIMMAX
 10
12.0
 20
9.0
  9
$ORTHOMODE
 70
     1
  9
$REGENMODE
 70
     1
  9
$FILLMODE
 70
     1
  9
$QTEXTMODE
 70
     0
  9
$MIRRTEXT
 70
     0
  9
$DRAGMODE
 70
     2
  9
$LTSCALE
 40
5.0
  9
$OSMODE
 70
    37
  9
$ATTMODE
 70
     1
  9
$TEXTSIZE
 40
0.2
  9
$TRACEWID
 40
0.05
  9
$TEXTSTYLE
  7
STANDARD
  9
$CLAYER
  8
0
  9
$CELTYPE
  6
BYLAYER
  9
$CECOLOR
 62
   256
  9
$DIMSCALE
 40
1.0
  9
$DIMASZ
 40
0.18
  9
$DIMEXO
 40
0.0625
  9
$DIMDLI
 40
0.38
  9
$DIMRND
 40
0.0
  9
$DIMDLE
 40
0.0
  9
$DIMEXE
 40
0.18
  9
$DIMTP
 40
0.0
  9
$DIMTM
 40
0.0
  9
$DIMTXT
 40
2.6000000000000001
  9
$DIMCEN
 40
0.09
  9
$DIMTSZ
 40
0.0
  9
$DIMTOL
 70
     0
  9
$DIMLIM
 70
     0
  9
$DIMTIH
 70
     0
  9
$DIMTOH
 70
     0
  9
$DIMSE1
 70
     0
  9
$DIMSE2
 70
     0
  9
$DIMTAD
 70
     1
  9
$DIMZIN
 70
     8
  9
$DIMBLK
  1

  9
$DIMASO
 70
     1
  9
$DIMSHO
 70
     1
  9
$DIMPOST
  1

  9
$DIMAPOST
  1

  9
$DIMALT
 70
     0
  9
$DIMALTD
 70
     2
  9
$DIMALTF
 40
25.399999999999999
  9
$DIMLFAC
 40
1.0
  9
$DIMTOFL
 70
     0
  9
$DIMTVP
 40
0.0
  9
$DIMTIX
 70
     0
  9
$DIMSOXD
 70
     0
  9
$DIMSAH
 70
     0
  9
$DIMBLK1
  1

  9
$DIMBLK2
  1

  9
$DIMSTYLE
  2
STANDARD
  9
$DIMCLRD
 70
     0
  9
$DIMCLRE
 70
     0
  9
$DIMCLRT
 70
     0
  9
$DIMTFAC
 40
1.0
  9
$DIMGAP
 40
0.09
  9
$LUNITS
 70
     2
  9
$LUPREC
 70
     4
  9
$SKETCHINC
 40
0.1
  9
$FILLETRAD
 40
0.0
  9
$AUNITS
 70
     0
  9
$AUPREC
 70
     0
  9
$MENU
  1
.
  9
$ELEVATION
 40
0.0
  9
$PELEVATION
 40
0.0
  9
$THICKNESS
 40
0.0
  9
$LIMCHECK
 70
     0
  9
$BLIPMODE
 70
     0
  9
$CHAMFERA
 40
0.0
  9
$CHAMFERB
 40
0.0
  9
$SKPOLY
 70
     0
  9
$TDCREATE
 40
2453083.4120647679
  9
$TDUPDATE
 40
2458820.7244784259
  9
$TDINDWG
 40
0.7185128704
  9
$TDUSRTIMER
 40
0.7185127546
  9
$USRTIMER
 70
     1
  9
$ANGBASE
 50
0.0
  9
$ANGDIR
 70
     0
  9
$PDMODE
 70
     0
  9
$PDSIZE
 40
0.0
  9
$PLINEWID
 40
0.0
  9
$COORDS
 70
     1
  9
$SPLFRAME
 70
     0
  9
$SPLINETYPE
 70
     6
  9
$SPLINESEGS
 70
     8
  9
$ATTDIA
 70
     0
  9
$ATTREQ
 70
     1
  9
$HANDLING
 70
     1
  9
$HANDSEED
  5
7FBF
  9
$SURFTAB1
 70
     6
  9
$SURFTAB2
 70
     6
  9
$SURFTYPE
 70
     6
  9
$SURFU
 70
     6
  9
$SURFV
 70
     6
  9
$UCSNAME
  2

  9
$UCSORG
 10
0.0
 20
0.0
 30
0.0
  9
$UCSXDIR
 10
1.0
 20
0.0
 30
0.0
  9
$UCSYDIR
 10
0.0
 20
1.0
 30
0.0
  9
$PUCSNAME
  2

  9
$PUCSORG
 10
0.0
 20
0.0
 30
0.0
  9
$PUCSXDIR
 10
1.0
 20
0.0
 30
0.0
  9
$PUCSYDIR
 10
0.0
 20
1.0
 30
0.0
  9
$USERI1
 70
     0
  9
$USERI2
 70
     1
  9
$USERI3
 70
     0
  9
$USERI4
 70
     0
  9
$USERI5
 70
     0
  9
$USERR1
 40
0.0
  9
$USERR2
 40
0.0
  9
$USERR3
 40
0.0
  9
$USERR4
 40
0.0
  9
$USERR5
 40
0.0
  9
$WORLDVIEW
 70
     1
  9
$SHADEDGE
 70
     3
  9
$SHADEDIF
 70
    70
  9
$TILEMODE
 70
     1
  9
$MAXACTVP
 70
    64
  9
$PLIMCHECK
 70
     0
  9
$PEXTMIN
 10
0.0
 20
0.0
 30
0.0
  9
$PEXTMAX
 10
0.0
 20
0.0
 30
0.0
  9
$PLIMMIN
 10
0.0
 20
0.0
  9
$PLIMMAX
 10
12.0
 20
9.0
  9
$UNITMODE
 70
     0
  9
$VISRETAIN
 70
     1
  9
$PLINEGEN
 70
     0
  9
$PSLTSCALE
 70
     1
  0
ENDSEC
  0
SECTION
  2
TABLES
  0
TABLE
  2
VPORT
 70
     1
  0
VPORT
  2
*ACTIVE
 70
     0
 10
0.0
 20
0.0
 11
1.0
 21
1.0
 12
175.91782408254801
 22
75.261762481399217
 13
0.0
 23
0.0
 14
0.5
 24
0.5
 15
0.5
 25
0.5
 16
0.0
 26
0.0
 36
1.0
 17
0.0
 27
0.0
 37
0.0
 40
154.81756851205191
 41
2.415644171779141
 42
50.0
 43
0.0
 44
0.0
 50
0.0
 51
0.0
 71
     0
 72
  1000
 73
     1
 74
     2
 75
     0
 76
     0
 77
     0
 78
     0
  0
ENDTAB
  0
TABLE
  2
LTYPE
 70
     3
  0
LTYPE
  2
CONTINUOUS
 70
     0
  3
Solid Line
 72
    65
 73
     0
 40
0.0
  0
LTYPE
  2
CENTER
 70
     0
  3
____ _ ____ _ ____ _ ____ _ ____ _ ____ _ ____
 72
    65
 73
     4
 40
2.0
 49
1.25
 49
-0.25
 49
0.25
 49
-0.25
  0
LTYPE
  2
PHANTOM2
 70
     0
  3
___ _ _ ___ _ _ ___ _ _ ___ _ _
 72
    65
 73
     6
 40
1.25
 49
0.625
 49
-0.125
 49
0.125
 49
-0.125
 49
0.125
 49
-0.125
  0
ENDTAB
  0
TABLE
  2
LAYER
 70
     4
  0
LAYER
  2
0
 70
     0
 62
     7
  6
CONTINUOUS
  0
LAYER
  2
1
 70
     0
 62
     1
  6
CENTER
  0
LAYER
  2
DEFPOINTS
 70
     0
 62
     7
  6
CONTINUOUS
  0
LAYER
  2
3
 70
     0
 62
     3
  6
CONTINUOUS
  0
ENDTAB
  0
TABLE
  2
STYLE
 70
     2
  0
STYLE
  2
STANDARD
 70
     0
 40
0.0
 41
1.0
 50
0.0
 71
     0
 42
0.2
  3
simplex.shx
  4
bigfont.shx
  0
STYLE
  2
STANDARD1
 70
     0
 40
0.0
 41
1.0
 50
0.0
 71
     0
 42
3.0
  3
txt
  4

  0
ENDTAB
  0
TABLE
  2
VIEW
 70
     0
  0
ENDTAB
  0
TABLE
  2
UCS
 70
     0
  0
ENDTAB
  0
TABLE
  2
APPID
 70
     5
  0
APPID
  2
ACAD
 70
     0
  0
APPID
  2
ACAD_MLEADERVER
 70
     0
  0
APPID
  2
ACAD_NAV_VCDISPLAY
 70
     0
  0
APPID
  2
ACAD_EXEMPT_FROM_CAD_STANDARDS
 70
     0
  0
APPID
  2
ACAD_DSTYLE_DIMRADIAL_EXTENSION
 70
     0
  0
ENDTAB
  0
TABLE
  2
DIMSTYLE
 70
     1
  0
DIMSTYLE
  2
STANDARD
 70
     0
  3

  4

  5

  6

  7

 40
1.0
 41
0.18
 42
0.0625
 43
0.38
 44
0.18
 45
0.0
 46
0.0
 47
0.0
 48
0.0
140
2.6000000000000001
141
0.09
142
0.0
143
25.399999999999999
144
1.0
145
0.0
146
1.0
147
0.09
 71
     0
 72
     0
 73
     0
 74
     0
 75
     0
 76
     0
 77
     1
 78
     8
170
     0
171
     2
172
     0
173
     0
174
     0
175
     0
176
     0
177
     0
178
     0
  0
ENDTAB
  0
ENDSEC
  0
SECTION
  2
BLOCKS
  0
BLOCK
  8
0
  2
$MODEL_SPACE
 70
     0
 10
0.0
 20
0.0
 30
0.0
  3
$MODEL_SPACE
  1

  0
ENDBLK
  5
21
  8
0
  0
BLOCK
 67
     1
  8
0
  2
$PAPER_SPACE
 70
     0
 10
0.0
 20
0.0
 30
0.0
  3
$PAPER_SPACE
  1

  0
ENDBLK
  5
5B
 67
     1
  8
0
  0
ENDSEC
  0
SECTION
  2
ENTITIES
  0
TEXT
  5
1F01
  8
0
 62
     3
 10
0.0
 20
0.0
 30
0.0
 40
5.0
  1
CP166-12001H
  7
STANDARD1
  0
ARC
  5
7BEA
  8
0
 10
74.850000000000023
 20
84.799999999999983
 30
0.0
 40
0.75
 50
0.0
 51
180.0
  0
ARC
  5
7BEB
  8
0
 10
74.850000000000023
 20
75.199999999999989
 30
0.0
 40
0.75
 50
180.0
 51
0.0
  0
LINE
  5
7BEC
  8
0
 10
74.100000000000023
 20
84.799999999999983
 30
0.0
 11
74.100000000000023
 21
75.199999999999989
 31
0.0
  0
LINE
  5
7BED
  8
0
 10
84.046224333200016
 20
68.0
 30
0.0
 11
90.275637355800015
 21
69.786255440199994
 31
0.0
  0
LINE
  5
7BEE
  8
0
 10
90.275637355800015
 20
90.21374455969999
 30
0.0
 11
84.046224333200016
 21
92.0
 31
0.0
  0
LINE
  5
7BEF
  8
0
 10
84.046224333200016
 20
92.0
 30
0.0
 11
83.200000000000017
 21
92.0
 31
0.0
  0
LINE
  5
7BF0
  8
0
 10
83.200000000000017
 20
68.0
 30
0.0
 11
84.046224333200016
 21
68.0
 31
0.0
  0
LINE
  5
7BF1
  8
0
 10
83.200000000000017
 20
92.0
 30
0.0
 11
83.000000000000014
 21
91.799999999999969
 31
0.0
  0
LINE
  5
7BF2
  8
0
 10
83.000000000000014
 20
68.199999999999989
 30
0.0
 11
83.200000000000017
 21
68.0
 31
0.0
  0
ARC
  5
7BF3
  8
0
 10
90.000000000000014
 20
89.252482863799997
 30
0.0
 40
1.000000000000012
 50
0.0
 51
74.000000000000341
  0
ARC
  5
7BF4
  8
0
 10
90.000000000000014
 20
70.747517136200003
 30
0.0
 40
1.000000000000012
 50
285.99999999999972
 51
0.0
  0
LINE
  5
7BF5
  8
0
 10
123.0
 20
91.5
 30
0.0
 11
120.5
 21
94.0
 31
0.0
  0
LINE
  5
7BF6
  8
0
 10
120.5
 20
94.0
 30
0.0
 11
91.500000000000014
 21
94.0
 31
0.0
  0
LINE
  5
7BF7
  8
0
 10
119.4356949742
 20
70.5
 30
0.0
 11
123.0
 21
70.5
 31
0.0
  0
LINE
  5
7BF8
  8
0
 10
91.000000000000014
 20
70.5
 30
0.0
 11
104.625
 21
70.5
 31
0.0
  0
LINE
  5
7BF9
  8
0
 10
91.500000000000014
 20
94.0
 30
0.0
 11
91.000000000000014
 21
93.499999999999986
 31
0.0
  0
LINE
  5
7BFA
  8
0
 10
83.000000000000014
 20
85.995000000000005
 30
0.0
 11
75.600000000000023
 21
85.995000000000005
 31
0.0
  0
LINE
  5
7BFB
  8
0
 10
75.600000000000023
 20
74.004999999999995
 30
0.0
 11
83.000000000000014
 21
74.004999999999995
 31
0.0
  0
LINE
  5
7BFC
  8
0
 10
74.000000000000014
 20
85.995000000000005
 30
0.0
 11
66.995000000000005
 21
85.995000000000005
 31
0.0
  0
LINE
  5
7BFD
  8
0
 10
66.995000000000005
 20
74.004999999999995
 30
0.0
 11
74.000000000000014
 21
74.004999999999995
 31
0.0
  0
LINE
  5
7BFE
  8
0
 10
66.995000000000005
 20
85.995000000000005
 30
0.0
 11
65.0
 21
84.0
 31
0.0
  0
LINE
  5
7BFF
  8
0
 10
65.0
 20
76.0
 30
0.0
 11
66.995000000000005
 21
74.004999999999995
 31
0.0
  0
LINE
  5
7C00
  8
0
 10
74.100000000000023
 20
84.049999999999983
 30
0.0
 11
74.000000000000014
 21
84.049999999999983
 31
0.0
  0
LINE
  5
7C01
  8
0
 10
74.000000000000014
 20
75.949999999999974
 30
0.0
 11
74.100000000000023
 21
75.949999999999974
 31
0.0
  0
LINE
  5
7C02
  8
0
 10
84.046224333200016
 20
92.0
 30
0.0
 11
84.046224333200016
 21
68.0
 31
0.0
  0
LINE
  5
7C03
  8
0
 10
83.200000000000017
 20
92.000000000000014
 30
0.0
 11
83.200000000000017
 21
68.0
 31
0.0
  0
LINE
  5
7C06
  8
0
 10
83.000000000000014
 20
68.199999999999989
 30
0.0
 11
83.000000000000014
 21
91.799999999999969
 31
0.0
  0
LINE
  5
7C07
  8
0
 10
123.0
 20
91.5
 30
0.0
 11
123.0
 21
70.5
 31
0.0
  0
POLYLINE
  5
7C08
  8
0
 66
     1
 10
0.0
 20
0.0
 30
0.0
 70
   128
  0
VERTEX
  5
7DB3
  8
0
 10
123.0
 20
86.480740698399984
 30
0.0
  0
VERTEX
  5
7DB4
  8
0
 10
121.8088047359
 20
88.415250277300004
 30
0.0
  0
VERTEX
  5
7DB5
  8
0
 10
120.5
 20
90.283481900599995
 30
0.0
  0
SEQEND
  5
7DB6
  8
0
  0
LINE
  5
7C09
  8
0
 10
120.5
 20
90.283481900599995
 30
0.0
 11
120.5
 21
94.0
 31
0.0
  0
POLYLINE
  5
7C0A
  8
0
 10
102.3674137787999
 20
90.283481900601714
 30
0.0
 66
     1
 70
     8
  0
VERTEX
  8
0
  5
7DB7
 10
102.367
 20
90.2835
 30
0.000000
  70
    32
  0
VERTEX
  8
0
  5
7DB8
 10
102.346
 20
90.3173
 30
0.000000
  70
    32
  0
VERTEX
  8
0
  5
7DB9
 10
102.325
 20
90.3509
 30
0.000000
  70
    32
  0
VERTEX
  8
0
  5
7DBA
 10
102.304
 20
90.3844
 30
0.000000
  70
    32
  0
VERTEX
  8
0
  5
7DBB
 10
102.282
 20
90.4178
 30
0.000000
  70
    32
  0
VERTEX
  8
0
  5
7DBC
 10
102.261
 20
90.4511
 30
0.000000
  70
    32
  0
VERTEX
  8
0
  5
7DBD
 10
102.239
 20
90.4842
 30
0.000000
  70
    32
  0
VERTEX
  8
0
  5
7DBE
 10
102.218
 20
90.5172
 30
0.000000
  70
    32
  0
VERTEX
  8
0
  5
7DBF
 10
102.196
 20
90.5501
 30
0.000000
  70
    32
  0
VERTEX
  8
0
  5
7DC0
 10
102.174
 20
90.5828
 30
0.000000
  70
    32
  0
VERTEX
  8
0
  5
7DC1
 10
102.152
 20
90.6154
 30
0.000000
  70
    32
  0
VERTEX
  8
0
  5
7DC2
 10
102.131
 20
90.6478
 30
0.000000
  70
    32
  0
VERTEX
  8
0
  5
7DC3
 10
102.109
 20
90.6801
 30
0.000000
  70
    32
  0
VERTEX
  8
0
  5
7DC4
 10
102.087
 20
90.7123
 30
0.000000
  70
    32
  0
VERTEX
  8
0
  5
7DC5
 10
102.065
 20
90.7444
 30
0.000000
  70
    32
  0
VERTEX
  8
0
  5
7DC6
 10
102.042
 20
90.7763
 30
0.000000
  70
    32
  0
VERTEX
  8
0
  5
7DC7
 10
102.020
 20
90.8081
 30
0.000000
  70
    32
  0
VERTEX
  8
0
  5
7DC8
 10
101.998
 20
90.8397
 30
0.000000
  70
    32
  0
VERTEX
  8
0
  5
7DC9
 10
101.976
 20
90.8712
 30
0.000000
  70
    32
  0
VERTEX
  8
0
  5
7DCA
 10
101.953
 20
90.9026
 30
0.000000
  70
    32
  0
VERTEX
  8
0
  5
7DCB
 10
101.931
 20
90.9338
 30
0.000000
  70
    32
  0
VERTEX
  8
0
  5
7DCC
 10
101.908
 20
90.9649
 30
0.000000
  70
    32
  0
VERTEX
  8
0
  5
7DCD
 10
101.886
 20
90.9958
 30
0.000000
  70
    32
  0
VERTEX
  8
0
  5
7DCE
 10
101.863
 20
91.0266
 30
0.000000
  70
    32
  0
VERTEX
  8
0
  5
7DCF
 10
101.840
 20
91.0573
 30
0.000000
  70
    32
  0
VERTEX
  8
0
  5
7DD0
 10
101.818
 20
91.0878
 30
0.000000
  70
    32
  0
VERTEX
  8
0
  5
7DD1
 10
101.795
 20
91.1182
 30
0.000000
  70
    32
  0
VERTEX
  8
0
  5
7DD2
 10
101.772
 20
91.1484
 30
0.000000
  70
    32
  0
VERTEX
  8
0
  5
7DD3
 10
101.749
 20
91.1785
 30
0.000000
  70
    32
  0
VERTEX
  8
0
  5
7DD4
 10
101.726
 20
91.2085
 30
0.000000
  70
    32
  0
VERTEX
  8
0
  5
7DD5
 10
101.703
 20
91.2383
 30
0.000000
  70
    32
  0
VERTEX
  8
0
  5
7DD6
 10
101.680
 20
91.2680
 30
0.000000
  70
    32
  0
VERTEX
  8
0
  5
7DD7
 10
101.656
 20
91.2975
 30
0.000000
  70
    32
  0
VERTEX
  8
0
  5
7DD8
 10
101.633
 20
91.3269
 30
0.000000
  70
    32
  0
VERTEX
  8
0
  5
7DD9
 10
101.610
 20
91.3562
 30
0.000000
  70
    32
  0
VERTEX
  8
0
  5
7DDA
 10
101.586
 20
91.3853
 30
0.000000
  70
    32
  0
VERTEX
  8
0
  5
7DDB
 10
101.563
 20
91.4142
 30
0.000000
  70
    32
  0
VERTEX
  8
0
  5
7DDC
 10
101.539
 20
91.4430
 30
0.000000
  70
    32
  0
VERTEX
  8
0
  5
7DDD
 10
101.516
 20
91.4717
 30
0.000000
  70
    32
  0
VERTEX
  8
0
  5
7DDE
 10
101.492
 20
91.5002
 30
0.000000
  70
    32
  0
VERTEX
  8
0
  5
7DDF
 10
101.468
 20
91.5286
 30
0.000000
  70
    32
  0
VERTEX
  8
0
  5
7DE0
 10
101.445
 20
91.5568
 30
0.000000
  70
    32
  0
VERTEX
  8
0
  5
7DE1
 10
101.421
 20
91.5849
 30
0.000000
  70
    32
  0
VERTEX
  8
0
  5
7DE2
 10
101.397
 20
91.6128
 30
0.000000
  70
    32
  0
VERTEX
  8
0
  5
7DE3
 10
101.373
 20
91.6406
 30
0.000000
  70
    32
  0
VERTEX
  8
0
  5
7DE4
 10
101.349
 20
91.6683
 30
0.000000
  70
    32
  0
VERTEX
  8
0
  5
7DE5
 10
101.325
 20
91.6957
 30
0.000000
  70
    32
  0
VERTEX
  8
0
  5
7DE6
 10
101.301
 20
91.7231
 30
0.000000
  70
    32
  0
VERTEX
  8
0
  5
7DE7
 10
101.277
 20
91.7503
 30
0.000000
  70
    32
  0
VERTEX
  8
0
  5
7DE8
 10
101.253
 20
91.7773
 30
0.000000
  70
    32
  0
VERTEX
  8
0
  5
7DE9
 10
101.228
 20
91.8042
 30
0.000000
  70
    32
  0
VERTEX
  8
0
  5
7DEA
 10
101.204
 20
91.8310
 30
0.000000
  70
    32
  0
VERTEX
  8
0
  5
7DEB
 10
101.180
 20
91.8576
 30
0.000000
  70
    32
  0
VERTEX
  8
0
  5
7DEC
 10
101.155
 20
91.8840
 30
0.000000
  70
    32
  0
VERTEX
  8
0
  5
7DED
 10
101.131
 20
91.9103
 30
0.000000
  70
    32
  0
VERTEX
  8
0
  5
7DEE
 10
101.106
 20
91.9364
 30
0.000000
  70
    32
  0
VERTEX
  8
0
  5
7DEF
 10
101.082
 20
91.9624
 30
0.000000
  70
    32
  0
VERTEX
  8
0
  5
7DF0
 10
101.057
 20
91.9883
 30
0.000000
  70
    32
  0
VERTEX
  8
0
  5
7DF1
 10
101.032
 20
92.0140
 30
0.000000
  70
    32
  0
VERTEX
  8
0
  5
7DF2
 10
101.008
 20
92.0395
 30
0.000000
  70
    32
  0
VERTEX
  8
0
  5
7DF3
 10
100.983
 20
92.0649
 30
0.000000
  70
    32
  0
VERTEX
  8
0
  5
7DF4
 10
100.958
 20
92.0901
 30
0.000000
  70
    32
  0
VERTEX
  8
0
  5
7DF5
 10
100.933
 20
92.1152
 30
0.000000
  70
    32
  0
VERTEX
  8
0
  5
7DF6
 10
100.908
 20
92.1401
 30
0.000000
  70
    32
  0
VERTEX
  8
0
  5
7DF7
 10
100.883
 20
92.1649
 30
0.000000
  70
    32
  0
VERTEX
  8
0
  5
7DF8
 10
100.858
 20
92.1895
 30
0.000000
  70
    32
  0
VERTEX
  8
0
  5
7DF9
 10
100.833
 20
92.2139
 30
0.000000
  70
    32
  0
VERTEX
  8
0
  5
7DFA
 10
100.808
 20
92.2382
 30
0.000000
  70
    32
  0
VERTEX
  8
0
  5
7DFB
 10
100.783
 20
92.2624
 30
0.000000
  70
    32
  0
VERTEX
  8
0
  5
7DFC
 10
100.758
 20
92.2864
 30
0.000000
  70
    32
  0
VERTEX
  8
0
  5
7DFD
 10
100.732
 20
92.3102
 30
0.000000
  70
    32
  0
VERTEX
  8
0
  5
7DFE
 10
100.707
 20
92.3339
 30
0.000000
  70
    32
  0
VERTEX
  8
0
  5
7DFF
 10
100.681
 20
92.3574
 30
0.000000
  70
    32
  0
VERTEX
  8
0
  5
7E00
 10
100.656
 20
92.3808
 30
0.000000
  70
    32
  0
VERTEX
  8
0
  5
7E01
 10
100.631
 20
92.4040
 30
0.000000
  70
    32
  0
VERTEX
  8
0
  5
7E02
 10
100.605
 20
92.4270
 30
0.000000
  70
    32
  0
VERTEX
  8
0
  5
7E03
 10
100.579
 20
92.4499
 30
0.000000
  70
    32
  0
VERTEX
  8
0
  5
7E04
 10
100.554
 20
92.4727
 30
0.000000
  70
    32
  0
VERTEX
  8
0
  5
7E05
 10
100.528
 20
92.4952
 30
0.000000
  70
    32
  0
VERTEX
  8
0
  5
7E06
 10
100.502
 20
92.5177
 30
0.000000
  70
    32
  0
VERTEX
  8
0
  5
7E07
 10
100.477
 20
92.5399
 30
0.000000
  70
    32
  0
VERTEX
  8
0
  5
7E08
 10
100.451
 20
92.5620
 30
0.000000
  70
    32
  0
VERTEX
  8
0
  5
7E09
 10
100.425
 20
92.5839
 30
0.000000
  70
    32
  0
VERTEX
  8
0
  5
7E0A
 10
100.399
 20
92.6057
 30
0.000000
  70
    32
  0
VERTEX
  8
0
  5
7E0B
 10
100.373
 20
92.6274
 30
0.000000
  70
    32
  0
VERTEX
  8
0
  5
7E0C
 10
100.347
 20
92.6488
 30
0.000000
  70
    32
  0
VERTEX
  8
0
  5
7E0D
 10
100.321
 20
92.6701
 30
0.000000
  70
    32
  0
VERTEX
  8
0
  5
7E0E
 10
100.295
 20
92.6913
 30
0.000000
  70
    32
  0
VERTEX
  8
0
  5
7E0F
 10
100.269
 20
92.7122
 30
0.000000
  70
    32
  0
VERTEX
  8
0
  5
7E10
 10
100.243
 20
92.7330
 30
0.000000
  70
    32
  0
VERTEX
  8
0
  5
7E11
 10
100.216
 20
92.7537
 30
0.000000
  70
    32
  0
VERTEX
  8
0
  5
7E12
 10
100.190
 20
92.7742
 30
0.000000
  70
    32
  0
VERTEX
  8
0
  5
7E13
 10
100.164
 20
92.7945
 30
0.000000
  70
    32
  0
VERTEX
  8
0
  5
7E14
 10
100.138
 20
92.8147
 30
0.000000
  70
    32
  0
VERTEX
  8
0
  5
7E15
 10
100.111
 20
92.8347
 30
0.000000
  70
    32
  0
VERTEX
  8
0
  5
7E16
 10
100.085
 20
92.8545
 30
0.000000
  70
    32
  0
VERTEX
  8
0
  5
7E17
 10
100.058
 20
92.8742
 30
0.000000
  70
    32
  0
VERTEX
  8
0
  5
7E18
 10
100.032
 20
92.8937
 30
0.000000
  70
    32
  0
VERTEX
  8
0
  5
7E19
 10
100.005
 20
92.9131
 30
0.000000
  70
    32
  0
VERTEX
  8
0
  5
7E1A
 10
99.9786
 20
92.9323
 30
0.000000
  70
    32
  0
VERTEX
  8
0
  5
7E1B
 10
99.9520
 20
92.9513
 30
0.000000
  70
    32
  0
VERTEX
  8
0
  5
7E1C
 10
99.9253
 20
92.9702
 30
0.000000
  70
    32
  0
VERTEX
  8
0
  5
7E1D
 10
99.8986
 20
92.9889
 30
0.000000
  70
    32
  0
VERTEX
  8
0
  5
7E1E
 10
99.8719
 20
93.0074
 30
0.000000
  70
    32
  0
VERTEX
  8
0
  5
7E1F
 10
99.8451
 20
93.0258
 30
0.000000
  70
    32
  0
VERTEX
  8
0
  5
7E20
 10
99.8183
 20
93.0440
 30
0.000000
  70
    32
  0
VERTEX
  8
0
  5
7E21
 10
99.7915
 20
93.0620
 30
0.000000
  70
    32
  0
VERTEX
  8
0
  5
7E22
 10
99.7646
 20
93.0799
 30
0.000000
  70
    32
  0
VERTEX
  8
0
  5
7E23
 10
99.7376
 20
93.0976
 30
0.000000
  70
    32
  0
VERTEX
  8
0
  5
7E24
 10
99.7107
 20
93.1151
 30
0.000000
  70
    32
  0
VERTEX
  8
0
  5
7E25
 10
99.6837
 20
93.1325
 30
0.000000
  70
    32
  0
VERTEX
  8
0
  5
7E26
 10
99.6566
 20
93.1497
 30
0.000000
  70
    32
  0
VERTEX
  8
0
  5
7E27
 10
99.6296
 20
93.1667
 30
0.000000
  70
    32
  0
VERTEX
  8
0
  5
7E28
 10
99.6025
 20
93.1836
 30
0.000000
  70
    32
  0
VERTEX
  8
0
  5
7E29
 10
99.5753
 20
93.2003
 30
0.000000
  70
    32
  0
VERTEX
  8
0
  5
7E2A
 10
99.5482
 20
93.2168
 30
0.000000
  70
    32
  0
VERTEX
  8
0
  5
7E2B
 10
99.5210
 20
93.2332
 30
0.000000
  70
    32
  0
VERTEX
  8
0
  5
7E2C
 10
99.4937
 20
93.2494
 30
0.000000
  70
    32
  0
VERTEX
  8
0
  5
7E2D
 10
99.4665
 20
93.2654
 30
0.000000
  70
    32
  0
VERTEX
  8
0
  5
7E2E
 10
99.4391
 20
93.2813
 30
0.000000
  70
    32
  0
VERTEX
  8
0
  5
7E2F
 10
99.4118
 20
93.2970
 30
0.000000
  70
    32
  0
VERTEX
  8
0
  5
7E30
 10
99.3844
 20
93.3125
 30
0.000000
  70
    32
  0
VERTEX
  8
0
  5
7E31
 10
99.3570
 20
93.3278
 30
0.000000
  70
    32
  0
VERTEX
  8
0
  5
7E32
 10
99.3296
 20
93.3430
 30
0.000000
  70
    32
  0
VERTEX
  8
0
  5
7E33
 10
99.3021
 20
93.3580
 30
0.000000
  70
    32
  0
VERTEX
  8
0
  5
7E34
 10
99.2747
 20
93.3729
 30
0.000000
  70
    32
  0
VERTEX
  8
0
  5
7E35
 10
99.2471
 20
93.3876
 30
0.000000
  70
    32
  0
VERTEX
  8
0
  5
7E36
 10
99.2196
 20
93.4021
 30
0.000000
  70
    32
  0
VERTEX
  8
0
  5
7E37
 10
99.1920
 20
93.4164
 30
0.000000
  70
    32
  0
SEQEND
  8
0
  5
7E38
  0
ARC
  5
7C0B
  8
0
 10
98.819887079000011
 20
92.516832890399996
 30
0.0
 40
0.9734956127388456
 50
67.528054312700064
 51
93.587391119800373
  0
LINE
  5
7C0C
  8
0
 10
98.758974596200005
 20
93.488420960199974
 30
0.0
 11
95.975852961100003
 21
93.488420960199974
 31
0.0
  0
ARC
  5
7C0D
  8
0
 10
95.927477075100015
 20
92.441450689000007
 30
0.0
 40
1.0480872936416981
 50
87.354495932499702
 51
111.53005863499941
  0
POLYLINE
  5
7C0E
  8
0
 10
95.542840259200034
 20
93.416407864998718
 30
0.0
 66
     1
 70
     8
  0
VERTEX
  8
0
  5
7E39
 10
95.5428
 20
93.4164
 30
0.000000
  70
    32
  0
VERTEX
  8
0
  5
7E3A
 10
95.5153
 20
93.4021
 30
0.000000
  70
    32
  0
VERTEX
  8
0
  5
7E3B
 10
95.4877
 20
93.3876
 30
0.000000
  70
    32
  0
VERTEX
  8
0
  5
7E3C
 10
95.4602
 20
93.3729
 30
0.000000
  70
    32
  0
VERTEX
  8
0
  5
7E3D
 10
95.4327
 20
93.3580
 30
0.000000
  70
    32
  0
VERTEX
  8
0
  5
7E3E
 10
95.4052
 20
93.3430
 30
0.000000
  70
    32
  0
VERTEX
  8
0
  5
7E3F
 10
95.3778
 20
93.3278
 30
0.000000
  70
    32
  0
VERTEX
  8
0
  5
7E40
 10
95.3504
 20
93.3125
 30
0.000000
  70
    32
  0
VERTEX
  8
0
  5
7E41
 10
95.3230
 20
93.2970
 30
0.000000
  70
    32
  0
VERTEX
  8
0
  5
7E42
 10
95.2957
 20
93.2813
 30
0.000000
  70
    32
  0
VERTEX
  8
0
  5
7E43
 10
95.2684
 20
93.2654
 30
0.000000
  70
    32
  0
VERTEX
  8
0
  5
7E44
 10
95.2411
 20
93.2494
 30
0.000000
  70
    32
  0
VERTEX
  8
0
  5
7E45
 10
95.2139
 20
93.2332
 30
0.000000
  70
    32
  0
VERTEX
  8
0
  5
7E46
 10
95.1867
 20
93.2168
 30
0.000000
  70
    32
  0
VERTEX
  8
0
  5
7E47
 10
95.1595
 20
93.2003
 30
0.000000
  70
    32
  0
VERTEX
  8
0
  5
7E48
 10
95.1324
 20
93.1836
 30
0.000000
  70
    32
  0
VERTEX
  8
0
  5
7E49
 10
95.1052
 20
93.1667
 30
0.000000
  70
    32
  0
VERTEX
  8
0
  5
7E4A
 10
95.0782
 20
93.1497
 30
0.000000
  70
    32
  0
VERTEX
  8
0
  5
7E4B
 10
95.0511
 20
93.1325
 30
0.000000
  70
    32
  0
VERTEX
  8
0
  5
7E4C
 10
95.0242
 20
93.1151
 30
0.000000
  70
    32
  0
VERTEX
  8
0
  5
7E4D
 10
94.9972
 20
93.0976
 30
0.000000
  70
    32
  0
VERTEX
  8
0
  5
7E4E
 10
94.9703
 20
93.0799
 30
0.000000
  70
    32
  0
VERTEX
  8
0
  5
7E4F
 10
94.9434
 20
93.0620
 30
0.000000
  70
    32
  0
VERTEX
  8
0
  5
7E50
 10
94.9165
 20
93.0440
 30
0.000000
  70
    32
  0
VERTEX
  8
0
  5
7E51
 10
94.8897
 20
93.0258
 30
0.000000
  70
    32
  0
VERTEX
  8
0
  5
7E52
 10
94.8629
 20
93.0074
 30
0.000000
  70
    32
  0
VERTEX
  8
0
  5
7E53
 10
94.8362
 20
92.9889
 30
0.000000
  70
    32
  0
VERTEX
  8
0
  5
7E54
 10
94.8095
 20
92.9702
 30
0.000000
  70
    32
  0
VERTEX
  8
0
  5
7E55
 10
94.7828
 20
92.9513
 30
0.000000
  70
    32
  0
VERTEX
  8
0
  5
7E56
 10
94.7562
 20
92.9323
 30
0.000000
  70
    32
  0
VERTEX
  8
0
  5
7E57
 10
94.7296
 20
92.9131
 30
0.000000
  70
    32
  0
VERTEX
  8
0
  5
7E58
 10
94.7031
 20
92.8937
 30
0.000000
  70
    32
  0
VERTEX
  8
0
  5
7E59
 10
94.6766
 20
92.8742
 30
0.000000
  70
    32
  0
VERTEX
  8
0
  5
7E5A
 10
94.6501
 20
92.8545
 30
0.000000
  70
    32
  0
VERTEX
  8
0
  5
7E5B
 10
94.6237
 20
92.8347
 30
0.000000
  70
    32
  0
VERTEX
  8
0
  5
7E5C
 10
94.5973
 20
92.8147
 30
0.000000
  70
    32
  0
VERTEX
  8
0
  5
7E5D
 10
94.5710
 20
92.7945
 30
0.000000
  70
    32
  0
VERTEX
  8
0
  5
7E5E
 10
94.5447
 20
92.7742
 30
0.000000
  70
    32
  0
VERTEX
  8
0
  5
7E5F
 10
94.5184
 20
92.7537
 30
0.000000
  70
    32
  0
VERTEX
  8
0
  5
7E60
 10
94.4922
 20
92.7330
 30
0.000000
  70
    32
  0
VERTEX
  8
0
  5
7E61
 10
94.4660
 20
92.7122
 30
0.000000
  70
    32
  0
VERTEX
  8
0
  5
7E62
 10
94.4399
 20
92.6913
 30
0.000000
  70
    32
  0
VERTEX
  8
0
  5
7E63
 10
94.4138
 20
92.6701
 30
0.000000
  70
    32
  0
VERTEX
  8
0
  5
7E64
 10
94.3878
 20
92.6488
 30
0.000000
  70
    32
  0
VERTEX
  8
0
  5
7E65
 10
94.3618
 20
92.6274
 30
0.000000
  70
    32
  0
VERTEX
  8
0
  5
7E66
 10
94.3358
 20
92.6057
 30
0.000000
  70
    32
  0
VERTEX
  8
0
  5
7E67
 10
94.3099
 20
92.5839
 30
0.000000
  70
    32
  0
VERTEX
  8
0
  5
7E68
 10
94.2841
 20
92.5620
 30
0.000000
  70
    32
  0
VERTEX
  8
0
  5
7E69
 10
94.2582
 20
92.5399
 30
0.000000
  70
    32
  0
VERTEX
  8
0
  5
7E6A
 10
94.2325
 20
92.5177
 30
0.000000
  70
    32
  0
VERTEX
  8
0
  5
7E6B
 10
94.2067
 20
92.4952
 30
0.000000
  70
    32
  0
VERTEX
  8
0
  5
7E6C
 10
94.1811
 20
92.4727
 30
0.000000
  70
    32
  0
VERTEX
  8
0
  5
7E6D
 10
94.1554
 20
92.4499
 30
0.000000
  70
    32
  0
VERTEX
  8
0
  5
7E6E
 10
94.1298
 20
92.4270
 30
0.000000
  70
    32
  0
VERTEX
  8
0
  5
7E6F
 10
94.1043
 20
92.4040
 30
0.000000
  70
    32
  0
VERTEX
  8
0
  5
7E70
 10
94.0788
 20
92.3808
 30
0.000000
  70
    32
  0
VERTEX
  8
0
  5
7E71
 10
94.0534
 20
92.3574
 30
0.000000
  70
    32
  0
VERTEX
  8
0
  5
7E72
 10
94.0280
 20
92.3339
 30
0.000000
  70
    32
  0
VERTEX
  8
0
  5
7E73
 10
94.0026
 20
92.3102
 30
0.000000
  70
    32
  0
VERTEX
  8
0
  5
7E74
 10
93.9773
 20
92.2864
 30
0.000000
  70
    32
  0
VERTEX
  8
0
  5
7E75
 10
93.9521
 20
92.2624
 30
0.000000
  70
    32
  0
VERTEX
  8
0
  5
7E76
 10
93.9269
 20
92.2382
 30
0.000000
  70
    32
  0
VERTEX
  8
0
  5
7E77
 10
93.9017
 20
92.2139
 30
0.000000
  70
    32
  0
VERTEX
  8
0
  5
7E78
 10
93.8766
 20
92.1895
 30
0.000000
  70
    32
  0
VERTEX
  8
0
  5
7E79
 10
93.8516
 20
92.1649
 30
0.000000
  70
    32
  0
VERTEX
  8
0
  5
7E7A
 10
93.8266
 20
92.1401
 30
0.000000
  70
    32
  0
VERTEX
  8
0
  5
7E7B
 10
93.8016
 20
92.1152
 30
0.000000
  70
    32
  0
VERTEX
  8
0
  5
7E7C
 10
93.7767
 20
92.0901
 30
0.000000
  70
    32
  0
VERTEX
  8
0
  5
7E7D
 10
93.7519
 20
92.0649
 30
0.000000
  70
    32
  0
VERTEX
  8
0
  5
7E7E
 10
93.7271
 20
92.0395
 30
0.000000
  70
    32
  0
VERTEX
  8
0
  5
7E7F
 10
93.7023
 20
92.0140
 30
0.000000
  70
    32
  0
VERTEX
  8
0
  5
7E80
 10
93.6777
 20
91.9883
 30
0.000000
  70
    32
  0
VERTEX
  8
0
  5
7E81
 10
93.6530
 20
91.9624
 30
0.000000
  70
    32
  0
VERTEX
  8
0
  5
7E82
 10
93.6284
 20
91.9364
 30
0.000000
  70
    32
  0
VERTEX
  8
0
  5
7E83
 10
93.6039
 20
91.9103
 30
0.000000
  70
    32
  0
VERTEX
  8
0
  5
7E84
 10
93.5794
 20
91.8840
 30
0.000000
  70
    32
  0
VERTEX
  8
0
  5
7E85
 10
93.5550
 20
91.8576
 30
0.000000
  70
    32
  0
VERTEX
  8
0
  5
7E86
 10
93.5307
 20
91.8310
 30
0.000000
  70
    32
  0
VERTEX
  8
0
  5
7E87
 10
93.5063
 20
91.8042
 30
0.000000
  70
    32
  0
VERTEX
  8
0
  5
7E88
 10
93.4821
 20
91.7773
 30
0.000000
  70
    32
  0
VERTEX
  8
0
  5
7E89
 10
93.4579
 20
91.7503
 30
0.000000
  70
    32
  0
VERTEX
  8
0
  5
7E8A
 10
93.4337
 20
91.7231
 30
0.000000
  70
    32
  0
VERTEX
  8
0
  5
7E8B
 10
93.4097
 20
91.6957
 30
0.000000
  70
    32
  0
VERTEX
  8
0
  5
7E8C
 10
93.3856
 20
91.6683
 30
0.000000
  70
    32
  0
VERTEX
  8
0
  5
7E8D
 10
93.3617
 20
91.6406
 30
0.000000
  70
    32
  0
VERTEX
  8
0
  5
7E8E
 10
93.3377
 20
91.6128
 30
0.000000
  70
    32
  0
VERTEX
  8
0
  5
7E8F
 10
93.3139
 20
91.5849
 30
0.000000
  70
    32
  0
VERTEX
  8
0
  5
7E90
 10
93.2901
 20
91.5568
 30
0.000000
  70
    32
  0
VERTEX
  8
0
  5
7E91
 10
93.2663
 20
91.5286
 30
0.000000
  70
    32
  0
VERTEX
  8
0
  5
7E92
 10
93.2426
 20
91.5002
 30
0.000000
  70
    32
  0
VERTEX
  8
0
  5
7E93
 10
93.2190
 20
91.4717
 30
0.000000
  70
    32
  0
VERTEX
  8
0
  5
7E94
 10
93.1954
 20
91.4430
 30
0.000000
  70
    32
  0
VERTEX
  8
0
  5
7E95
 10
93.1719
 20
91.4142
 30
0.000000
  70
    32
  0
VERTEX
  8
0
  5
7E96
 10
93.1485
 20
91.3853
 30
0.000000
  70
    32
  0
VERTEX
  8
0
  5
7E97
 10
93.1251
 20
91.3562
 30
0.000000
  70
    32
  0
VERTEX
  8
0
  5
7E98
 10
93.1018
 20
91.3269
 30
0.000000
  70
    32
  0
VERTEX
  8
0
  5
7E99
 10
93.0785
 20
91.2975
 30
0.000000
  70
    32
  0
VERTEX
  8
0
  5
7E9A
 10
93.0553
 20
91.2680
 30
0.000000
  70
    32
  0
VERTEX
  8
0
  5
7E9B
 10
93.0321
 20
91.2383
 30
0.000000
  70
    32
  0
VERTEX
  8
0
  5
7E9C
 10
93.0090
 20
91.2085
 30
0.000000
  70
    32
  0
VERTEX
  8
0
  5
7E9D
 10
92.9860
 20
91.1785
 30
0.000000
  70
    32
  0
VERTEX
  8
0
  5
7E9E
 10
92.9631
 20
91.1484
 30
0.000000
  70
    32
  0
VERTEX
  8
0
  5
7E9F
 10
92.9402
 20
91.1182
 30
0.000000
  70
    32
  0
VERTEX
  8
0
  5
7EA0
 10
92.9173
 20
91.0878
 30
0.000000
  70
    32
  0
VERTEX
  8
0
  5
7EA1
 10
92.8945
 20
91.0573
 30
0.000000
  70
    32
  0
VERTEX
  8
0
  5
7EA2
 10
92.8718
 20
91.0266
 30
0.000000
  70
    32
  0
VERTEX
  8
0
  5
7EA3
 10
92.8492
 20
90.9958
 30
0.000000
  70
    32
  0
VERTEX
  8
0
  5
7EA4
 10
92.8266
 20
90.9649
 30
0.000000
  70
    32
  0
VERTEX
  8
0
  5
7EA5
 10
92.8041
 20
90.9338
 30
0.000000
  70
    32
  0
VERTEX
  8
0
  5
7EA6
 10
92.7816
 20
90.9026
 30
0.000000
  70
    32
  0
VERTEX
  8
0
  5
7EA7
 10
92.7592
 20
90.8712
 30
0.000000
  70
    32
  0
VERTEX
  8
0
  5
7EA8
 10
92.7369
 20
90.8397
 30
0.000000
  70
    32
  0
VERTEX
  8
0
  5
7EA9
 10
92.7146
 20
90.8081
 30
0.000000
  70
    32
  0
VERTEX
  8
0
  5
7EAA
 10
92.6924
 20
90.7763
 30
0.000000
  70
    32
  0
VERTEX
  8
0
  5
7EAB
 10
92.6703
 20
90.7444
 30
0.000000
  70
    32
  0
VERTEX
  8
0
  5
7EAC
 10
92.6482
 20
90.7123
 30
0.000000
  70
    32
  0
VERTEX
  8
0
  5
7EAD
 10
92.6262
 20
90.6801
 30
0.000000
  70
    32
  0
VERTEX
  8
0
  5
7EAE
 10
92.6043
 20
90.6478
 30
0.000000
  70
    32
  0
VERTEX
  8
0
  5
7EAF
 10
92.5824
 20
90.6154
 30
0.000000
  70
    32
  0
VERTEX
  8
0
  5
7EB0
 10
92.5606
 20
90.5828
 30
0.000000
  70
    32
  0
VERTEX
  8
0
  5
7EB1
 10
92.5389
 20
90.5501
 30
0.000000
  70
    32
  0
VERTEX
  8
0
  5
7EB2
 10
92.5172
 20
90.5172
 30
0.000000
  70
    32
  0
VERTEX
  8
0
  5
7EB3
 10
92.4956
 20
90.4842
 30
0.000000
  70
    32
  0
VERTEX
  8
0
  5
7EB4
 10
92.4740
 20
90.4511
 30
0.000000
  70
    32
  0
VERTEX
  8
0
  5
7EB5
 10
92.4526
 20
90.4178
 30
0.000000
  70
    32
  0
VERTEX
  8
0
  5
7EB6
 10
92.4312
 20
90.3844
 30
0.000000
  70
    32
  0
VERTEX
  8
0
  5
7EB7
 10
92.4099
 20
90.3509
 30
0.000000
  70
    32
  0
VERTEX
  8
0
  5
7EB8
 10
92.3886
 20
90.3173
 30
0.000000
  70
    32
  0
VERTEX
  8
0
  5
7EB9
 10
92.3674
 20
90.2835
 30
0.000000
  70
    32
  0
SEQEND
  8
0
  5
7EBA
  0
LINE
  5
7C0F
  8
0
 10
92.367413778700026
 20
90.283481900599995
 30
0.0
 11
91.500000000000014
 21
90.283481900599995
 31
0.0
  0
LINE
  5
7C10
  8
0
 10
91.500000000000014
 20
94.0
 30
0.0
 11
91.500000000000014
 21
90.283481900599995
 31
0.0
  0
LINE
  5
7C11
  8
0
 10
120.5
 20
90.283481900599995
 30
0.0
 11
102.3674137787
 21
90.283481900599995
 31
0.0
  0
LINE
  5
7C13
  8
0
 10
115.2933094143
 20
81.881110788299992
 30
0.0
 11
115.9779777486
 21
80.0
 31
0.0
  0
ARC
  5
7C14
  8
0
 10
110.125
 20
80.0
 30
0.0
 40
5.5
 50
20.000000000000011
 51
180.0
  0
LINE
  5
7C16
  8
0
 10
102.3674137787
 20
90.283481900599995
 30
0.0
 11
102.3674137787
 21
80.0
 31
0.0
  0
LINE
  5
7C18
  8
0
 10
115.9779777486
 20
80.0
 30
0.0
 11
119.4356949742
 21
70.5
 31
0.0
  0
POLYLINE
  5
7C1A
  8
0
 10
99.191987298200104
 20
71.383156030193049
 30
0.0
 66
     1
 70
     8
  0
VERTEX
  8
0
  5
7EBB
 10
99.1920
 20
71.3832
 30
0.000000
  70
    32
  0
VERTEX
  8
0
  5
7EBC
 10
99.2361
 20
71.4190
 30
0.000000
  70
    32
  0
VERTEX
  8
0
  5
7EBD
 10
99.2799
 20
71.4555
 30
0.000000
  70
    32
  0
VERTEX
  8
0
  5
7EBE
 10
99.3236
 20
71.4927
 30
0.000000
  70
    32
  0
VERTEX
  8
0
  5
7EBF
 10
99.3671
 20
71.5306
 30
0.000000
  70
    32
  0
VERTEX
  8
0
  5
7EC0
 10
99.4104
 20
71.5691
 30
0.000000
  70
    32
  0
VERTEX
  8
0
  5
7EC1
 10
99.4535
 20
71.6083
 30
0.000000
  70
    32
  0
VERTEX
  8
0
  5
7EC2
 10
99.4965
 20
71.6482
 30
0.000000
  70
    32
  0
VERTEX
  8
0
  5
7EC3
 10
99.5391
 20
71.6887
 30
0.000000
  70
    32
  0
VERTEX
  8
0
  5
7EC4
 10
99.5816
 20
71.7299
 30
0.000000
  70
    32
  0
VERTEX
  8
0
  5
7EC5
 10
99.6239
 20
71.7717
 30
0.000000
  70
    32
  0
VERTEX
  8
0
  5
7EC6
 10
99.6660
 20
71.8141
 30
0.000000
  70
    32
  0
VERTEX
  8
0
  5
7EC7
 10
99.7078
 20
71.8573
 30
0.000000
  70
    32
  0
VERTEX
  8
0
  5
7EC8
 10
99.7494
 20
71.9010
 30
0.000000
  70
    32
  0
VERTEX
  8
0
  5
7EC9
 10
99.7908
 20
71.9454
 30
0.000000
  70
    32
  0
VERTEX
  8
0
  5
7ECA
 10
99.8320
 20
71.9904
 30
0.000000
  70
    32
  0
VERTEX
  8
0
  5
7ECB
 10
99.8729
 20
72.0361
 30
0.000000
  70
    32
  0
VERTEX
  8
0
  5
7ECC
 10
99.9136
 20
72.0824
 30
0.000000
  70
    32
  0
VERTEX
  8
0
  5
7ECD
 10
99.9541
 20
72.1293
 30
0.000000
  70
    32
  0
VERTEX
  8
0
  5
7ECE
 10
99.9943
 20
72.1768
 30
0.000000
  70
    32
  0
VERTEX
  8
0
  5
7ECF
 10
100.034
 20
72.2250
 30
0.000000
  70
    32
  0
VERTEX
  8
0
  5
7ED0
 10
100.074
 20
72.2737
 30
0.000000
  70
    32
  0
VERTEX
  8
0
  5
7ED1
 10
100.113
 20
72.3231
 30
0.000000
  70
    32
  0
VERTEX
  8
0
  5
7ED2
 10
100.153
 20
72.3731
 30
0.000000
  70
    32
  0
VERTEX
  8
0
  5
7ED3
 10
100.192
 20
72.4237
 30
0.000000
  70
    32
  0
VERTEX
  8
0
  5
7ED4
 10
100.230
 20
72.4748
 30
0.000000
  70
    32
  0
VERTEX
  8
0
  5
7ED5
 10
100.269
 20
72.5266
 30
0.000000
  70
    32
  0
VERTEX
  8
0
  5
7ED6
 10
100.307
 20
72.5790
 30
0.000000
  70
    32
  0
VERTEX
  8
0
  5
7ED7
 10
100.345
 20
72.6319
 30
0.000000
  70
    32
  0
VERTEX
  8
0
  5
7ED8
 10
100.382
 20
72.6854
 30
0.000000
  70
    32
  0
VERTEX
  8
0
  5
7ED9
 10
100.420
 20
72.7395
 30
0.000000
  70
    32
  0
VERTEX
  8
0
  5
7EDA
 10
100.457
 20
72.7942
 30
0.000000
  70
    32
  0
VERTEX
  8
0
  5
7EDB
 10
100.494
 20
72.8494
 30
0.000000
  70
    32
  0
VERTEX
  8
0
  5
7EDC
 10
100.530
 20
72.9052
 30
0.000000
  70
    32
  0
VERTEX
  8
0
  5
7EDD
 10
100.566
 20
72.9616
 30
0.000000
  70
    32
  0
VERTEX
  8
0
  5
7EDE
 10
100.602
 20
73.0185
 30
0.000000
  70
    32
  0
VERTEX
  8
0
  5
7EDF
 10
100.638
 20
73.0759
 30
0.000000
  70
    32
  0
VERTEX
  8
0
  5
7EE0
 10
100.673
 20
73.1340
 30
0.000000
  70
    32
  0
VERTEX
  8
0
  5
7EE1
 10
100.708
 20
73.1925
 30
0.000000
  70
    32
  0
VERTEX
  8
0
  5
7EE2
 10
100.743
 20
73.2516
 30
0.000000
  70
    32
  0
VERTEX
  8
0
  5
7EE3
 10
100.777
 20
73.3112
 30
0.000000
  70
    32
  0
VERTEX
  8
0
  5
7EE4
 10
100.812
 20
73.3714
 30
0.000000
  70
    32
  0
VERTEX
  8
0
  5
7EE5
 10
100.845
 20
73.4320
 30
0.000000
  70
    32
  0
VERTEX
  8
0
  5
7EE6
 10
100.879
 20
73.4932
 30
0.000000
  70
    32
  0
VERTEX
  8
0
  5
7EE7
 10
100.912
 20
73.5549
 30
0.000000
  70
    32
  0
VERTEX
  8
0
  5
7EE8
 10
100.945
 20
73.6171
 30
0.000000
  70
    32
  0
VERTEX
  8
0
  5
7EE9
 10
100.978
 20
73.6798
 30
0.000000
  70
    32
  0
VERTEX
  8
0
  5
7EEA
 10
101.010
 20
73.7430
 30
0.000000
  70
    32
  0
VERTEX
  8
0
  5
7EEB
 10
101.042
 20
73.8067
 30
0.000000
  70
    32
  0
VERTEX
  8
0
  5
7EEC
 10
101.073
 20
73.8709
 30
0.000000
  70
    32
  0
VERTEX
  8
0
  5
7EED
 10
101.104
 20
73.9356
 30
0.000000
  70
    32
  0
VERTEX
  8
0
  5
7EEE
 10
101.135
 20
74.0007
 30
0.000000
  70
    32
  0
VERTEX
  8
0
  5
7EEF
 10
101.166
 20
74.0663
 30
0.000000
  70
    32
  0
VERTEX
  8
0
  5
7EF0
 10
101.196
 20
74.1324
 30
0.000000
  70
    32
  0
VERTEX
  8
0
  5
7EF1
 10
101.226
 20
74.1990
 30
0.000000
  70
    32
  0
VERTEX
  8
0
  5
7EF2
 10
101.256
 20
74.2660
 30
0.000000
  70
    32
  0
VERTEX
  8
0
  5
7EF3
 10
101.285
 20
74.3334
 30
0.000000
  70
    32
  0
VERTEX
  8
0
  5
7EF4
 10
101.314
 20
74.4014
 30
0.000000
  70
    32
  0
VERTEX
  8
0
  5
7EF5
 10
101.342
 20
74.4697
 30
0.000000
  70
    32
  0
VERTEX
  8
0
  5
7EF6
 10
101.370
 20
74.5385
 30
0.000000
  70
    32
  0
VERTEX
  8
0
  5
7EF7
 10
101.398
 20
74.6077
 30
0.000000
  70
    32
  0
VERTEX
  8
0
  5
7EF8
 10
101.426
 20
74.6773
 30
0.000000
  70
    32
  0
VERTEX
  8
0
  5
7EF9
 10
101.453
 20
74.7474
 30
0.000000
  70
    32
  0
VERTEX
  8
0
  5
7EFA
 10
101.480
 20
74.8179
 30
0.000000
  70
    32
  0
VERTEX
  8
0
  5
7EFB
 10
101.506
 20
74.8887
 30
0.000000
  70
    32
  0
VERTEX
  8
0
  5
7EFC
 10
101.532
 20
74.9600
 30
0.000000
  70
    32
  0
VERTEX
  8
0
  5
7EFD
 10
101.558
 20
75.0317
 30
0.000000
  70
    32
  0
VERTEX
  8
0
  5
7EFE
 10
101.583
 20
75.1038
 30
0.000000
  70
    32
  0
VERTEX
  8
0
  5
7EFF
 10
101.608
 20
75.1762
 30
0.000000
  70
    32
  0
VERTEX
  8
0
  5
7F00
 10
101.632
 20
75.2491
 30
0.000000
  70
    32
  0
VERTEX
  8
0
  5
7F01
 10
101.656
 20
75.3223
 30
0.000000
  70
    32
  0
VERTEX
  8
0
  5
7F02
 10
101.680
 20
75.3959
 30
0.000000
  70
    32
  0
VERTEX
  8
0
  5
7F03
 10
101.704
 20
75.4698
 30
0.000000
  70
    32
  0
VERTEX
  8
0
  5
7F04
 10
101.727
 20
75.5441
 30
0.000000
  70
    32
  0
VERTEX
  8
0
  5
7F05
 10
101.749
 20
75.6187
 30
0.000000
  70
    32
  0
VERTEX
  8
0
  5
7F06
 10
101.772
 20
75.6937
 30
0.000000
  70
    32
  0
VERTEX
  8
0
  5
7F07
 10
101.793
 20
75.7691
 30
0.000000
  70
    32
  0
VERTEX
  8
0
  5
7F08
 10
101.815
 20
75.8447
 30
0.000000
  70
    32
  0
VERTEX
  8
0
  5
7F09
 10
101.836
 20
75.9207
 30
0.000000
  70
    32
  0
VERTEX
  8
0
  5
7F0A
 10
101.857
 20
75.9970
 30
0.000000
  70
    32
  0
VERTEX
  8
0
  5
7F0B
 10
101.877
 20
76.0737
 30
0.000000
  70
    32
  0
VERTEX
  8
0
  5
7F0C
 10
101.897
 20
76.1506
 30
0.000000
  70
    32
  0
VERTEX
  8
0
  5
7F0D
 10
101.917
 20
76.2279
 30
0.000000
  70
    32
  0
VERTEX
  8
0
  5
7F0E
 10
101.936
 20
76.3054
 30
0.000000
  70
    32
  0
VERTEX
  8
0
  5
7F0F
 10
101.954
 20
76.3832
 30
0.000000
  70
    32
  0
VERTEX
  8
0
  5
7F10
 10
101.973
 20
76.4614
 30
0.000000
  70
    32
  0
VERTEX
  8
0
  5
7F11
 10
101.991
 20
76.5398
 30
0.000000
  70
    32
  0
VERTEX
  8
0
  5
7F12
 10
102.008
 20
76.6184
 30
0.000000
  70
    32
  0
VERTEX
  8
0
  5
7F13
 10
102.025
 20
76.6974
 30
0.000000
  70
    32
  0
VERTEX
  8
0
  5
7F14
 10
102.042
 20
76.7766
 30
0.000000
  70
    32
  0
VERTEX
  8
0
  5
7F15
 10
102.058
 20
76.8560
 30
0.000000
  70
    32
  0
VERTEX
  8
0
  5
7F16
 10
102.074
 20
76.9357
 30
0.000000
  70
    32
  0
VERTEX
  8
0
  5
7F17
 10
102.090
 20
77.0156
 30
0.000000
  70
    32
  0
VERTEX
  8
0
  5
7F18
 10
102.105
 20
77.0958
 30
0.000000
  70
    32
  0
VERTEX
  8
0
  5
7F19
 10
102.120
 20
77.1762
 30
0.000000
  70
    32
  0
VERTEX
  8
0
  5
7F1A
 10
102.134
 20
77.2568
 30
0.000000
  70
    32
  0
VERTEX
  8
0
  5
7F1B
 10
102.148
 20
77.3377
 30
0.000000
  70
    32
  0
VERTEX
  8
0
  5
7F1C
 10
102.161
 20
77.4187
 30
0.000000
  70
    32
  0
VERTEX
  8
0
  5
7F1D
 10
102.174
 20
77.5000
 30
0.000000
  70
    32
  0
VERTEX
  8
0
  5
7F1E
 10
102.187
 20
77.5814
 30
0.000000
  70
    32
  0
VERTEX
  8
0
  5
7F1F
 10
102.199
 20
77.6631
 30
0.000000
  70
    32
  0
VERTEX
  8
0
  5
7F20
 10
102.211
 20
77.7449
 30
0.000000
  70
    32
  0
VERTEX
  8
0
  5
7F21
 10
102.222
 20
77.8269
 30
0.000000
  70
    32
  0
VERTEX
  8
0
  5
7F22
 10
102.233
 20
77.9091
 30
0.000000
  70
    32
  0
VERTEX
  8
0
  5
7F23
 10
102.243
 20
77.9914
 30
0.000000
  70
    32
  0
VERTEX
  8
0
  5
7F24
 10
102.254
 20
78.0739
 30
0.000000
  70
    32
  0
VERTEX
  8
0
  5
7F25
 10
102.263
 20
78.1566
 30
0.000000
  70
    32
  0
VERTEX
  8
0
  5
7F26
 10
102.272
 20
78.2394
 30
0.000000
  70
    32
  0
VERTEX
  8
0
  5
7F27
 10
102.281
 20
78.3223
 30
0.000000
  70
    32
  0
VERTEX
  8
0
  5
7F28
 10
102.290
 20
78.4054
 30
0.000000
  70
    32
  0
VERTEX
  8
0
  5
7F29
 10
102.298
 20
78.4886
 30
0.000000
  70
    32
  0
VERTEX
  8
0
  5
7F2A
 10
102.305
 20
78.5719
 30
0.000000
  70
    32
  0
VERTEX
  8
0
  5
7F2B
 10
102.312
 20
78.6553
 30
0.000000
  70
    32
  0
VERTEX
  8
0
  5
7F2C
 10
102.319
 20
78.7388
 30
0.000000
  70
    32
  0
VERTEX
  8
0
  5
7F2D
 10
102.325
 20
78.8225
 30
0.000000
  70
    32
  0
VERTEX
  8
0
  5
7F2E
 10
102.331
 20
78.9062
 30
0.000000
  70
    32
  0
VERTEX
  8
0
  5
7F2F
 10
102.336
 20
78.9900
 30
0.000000
  70
    32
  0
VERTEX
  8
0
  5
7F30
 10
102.341
 20
79.0739
 30
0.000000
  70
    32
  0
VERTEX
  8
0
  5
7F31
 10
102.346
 20
79.1578
 30
0.000000
  70
    32
  0
VERTEX
  8
0
  5
7F32
 10
102.350
 20
79.2419
 30
0.000000
  70
    32
  0
VERTEX
  8
0
  5
7F33
 10
102.354
 20
79.3260
 30
0.000000
  70
    32
  0
VERTEX
  8
0
  5
7F34
 10
102.357
 20
79.4101
 30
0.000000
  70
    32
  0
VERTEX
  8
0
  5
7F35
 10
102.360
 20
79.4943
 30
0.000000
  70
    32
  0
VERTEX
  8
0
  5
7F36
 10
102.362
 20
79.5785
 30
0.000000
  70
    32
  0
VERTEX
  8
0
  5
7F37
 10
102.364
 20
79.6628
 30
0.000000
  70
    32
  0
VERTEX
  8
0
  5
7F38
 10
102.365
 20
79.7470
 30
0.000000
  70
    32
  0
VERTEX
  8
0
  5
7F39
 10
102.367
 20
79.8314
 30
0.000000
  70
    32
  0
VERTEX
  8
0
  5
7F3A
 10
102.367
 20
79.9157
 30
0.000000
  70
    32
  0
VERTEX
  8
0
  5
7F3B
 10
102.367
 20
80.0000
 30
0.000000
  70
    32
  0
SEQEND
  8
0
  5
7F3C
  0
LINE
  5
7C1B
  8
0
 10
99.191987298100017
 20
93.416407864999996
 30
0.0
 11
99.191987298100017
 21
71.383156030199984
 31
0.0
  0
LINE
  5
7C1C
  8
0
 10
92.367413778700026
 20
80.0
 30
0.0
 11
92.367413778700026
 21
90.283481900599995
 31
0.0
  0
LINE
  5
7C1D
  8
0
 10
95.542840259200034
 20
71.383156030199984
 30
0.0
 11
95.542840259200034
 21
93.416407864999996
 31
0.0
  0
POLYLINE
  5
7C1E
  8
0
 10
92.367413778600039
 20
80.0
 30
0.0
 66
     1
 70
     8
  0
VERTEX
  8
0
  5
7F3D
 10
92.3674
 20
80.0000
 30
0.000000
  70
    32
  0
VERTEX
  8
0
  5
7F3E
 10
92.3676
 20
79.9157
 30
0.000000
  70
    32
  0
VERTEX
  8
0
  5
7F3F
 10
92.3683
 20
79.8314
 30
0.000000
  70
    32
  0
VERTEX
  8
0
  5
7F40
 10
92.3694
 20
79.7470
 30
0.000000
  70
    32
  0
VERTEX
  8
0
  5
7F41
 10
92.3709
 20
79.6628
 30
0.000000
  70
    32
  0
VERTEX
  8
0
  5
7F42
 10
92.3728
 20
79.5785
 30
0.000000
  70
    32
  0
VERTEX
  8
0
  5
7F43
 10
92.3752
 20
79.4943
 30
0.000000
  70
    32
  0
VERTEX
  8
0
  5
7F44
 10
92.3780
 20
79.4101
 30
0.000000
  70
    32
  0
VERTEX
  8
0
  5
7F45
 10
92.3812
 20
79.3260
 30
0.000000
  70
    32
  0
VERTEX
  8
0
  5
7F46
 10
92.3849
 20
79.2419
 30
0.000000
  70
    32
  0
VERTEX
  8
0
  5
7F47
 10
92.3890
 20
79.1578
 30
0.000000
  70
    32
  0
VERTEX
  8
0
  5
7F48
 10
92.3935
 20
79.0739
 30
0.000000
  70
    32
  0
VERTEX
  8
0
  5
7F49
 10
92.3985
 20
78.9900
 30
0.000000
  70
    32
  0
VERTEX
  8
0
  5
7F4A
 10
92.4039
 20
78.9062
 30
0.000000
  70
    32
  0
VERTEX
  8
0
  5
7F4B
 10
92.4097
 20
78.8225
 30
0.000000
  70
    32
  0
VERTEX
  8
0
  5
7F4C
 10
92.4160
 20
78.7388
 30
0.000000
  70
    32
  0
VERTEX
  8
0
  5
7F4D
 10
92.4226
 20
78.6553
 30
0.000000
  70
    32
  0
VERTEX
  8
0
  5
7F4E
 10
92.4297
 20
78.5719
 30
0.000000
  70
    32
  0
VERTEX
  8
0
  5
7F4F
 10
92.4373
 20
78.4886
 30
0.000000
  70
    32
  0
VERTEX
  8
0
  5
7F50
 10
92.4452
 20
78.4054
 30
0.000000
  70
    32
  0
VERTEX
  8
0
  5
7F51
 10
92.4536
 20
78.3223
 30
0.000000
  70
    32
  0
VERTEX
  8
0
  5
7F52
 10
92.4624
 20
78.2394
 30
0.000000
  70
    32
  0
VERTEX
  8
0
  5
7F53
 10
92.4717
 20
78.1566
 30
0.000000
  70
    32
  0
VERTEX
  8
0
  5
7F54
 10
92.4813
 20
78.0739
 30
0.000000
  70
    32
  0
VERTEX
  8
0
  5
7F55
 10
92.4914
 20
77.9914
 30
0.000000
  70
    32
  0
VERTEX
  8
0
  5
7F56
 10
92.5019
 20
77.9091
 30
0.000000
  70
    32
  0
VERTEX
  8
0
  5
7F57
 10
92.5128
 20
77.8269
 30
0.000000
  70
    32
  0
VERTEX
  8
0
  5
7F58
 10
92.5242
 20
77.7449
 30
0.000000
  70
    32
  0
VERTEX
  8
0
  5
7F59
 10
92.5360
 20
77.6631
 30
0.000000
  70
    32
  0
VERTEX
  8
0
  5
7F5A
 10
92.5481
 20
77.5814
 30
0.000000
  70
    32
  0
VERTEX
  8
0
  5
7F5B
 10
92.5607
 20
77.5000
 30
0.000000
  70
    32
  0
VERTEX
  8
0
  5
7F5C
 10
92.5738
 20
77.4187
 30
0.000000
  70
    32
  0
VERTEX
  8
0
  5
7F5D
 10
92.5872
 20
77.3377
 30
0.000000
  70
    32
  0
VERTEX
  8
0
  5
7F5E
 10
92.6010
 20
77.2568
 30
0.000000
  70
    32
  0
VERTEX
  8
0
  5
7F5F
 10
92.6153
 20
77.1762
 30
0.000000
  70
    32
  0
VERTEX
  8
0
  5
7F60
 10
92.6300
 20
77.0958
 30
0.000000
  70
    32
  0
VERTEX
  8
0
  5
7F61
 10
92.6451
 20
77.0156
 30
0.000000
  70
    32
  0
VERTEX
  8
0
  5
7F62
 10
92.6606
 20
76.9357
 30
0.000000
  70
    32
  0
VERTEX
  8
0
  5
7F63
 10
92.6765
 20
76.8560
 30
0.000000
  70
    32
  0
VERTEX
  8
0
  5
7F64
 10
92.6928
 20
76.7766
 30
0.000000
  70
    32
  0
VERTEX
  8
0
  5
7F65
 10
92.7095
 20
76.6974
 30
0.000000
  70
    32
  0
VERTEX
  8
0
  5
7F66
 10
92.7267
 20
76.6184
 30
0.000000
  70
    32
  0
VERTEX
  8
0
  5
7F67
 10
92.7442
 20
76.5398
 30
0.000000
  70
    32
  0
VERTEX
  8
0
  5
7F68
 10
92.7621
 20
76.4614
 30
0.000000
  70
    32
  0
VERTEX
  8
0
  5
7F69
 10
92.7805
 20
76.3832
 30
0.000000
  70
    32
  0
VERTEX
  8
0
  5
7F6A
 10
92.7992
 20
76.3054
 30
0.000000
  70
    32
  0
VERTEX
  8
0
  5
7F6B
 10
92.8183
 20
76.2279
 30
0.000000
  70
    32
  0
VERTEX
  8
0
  5
7F6C
 10
92.8379
 20
76.1506
 30
0.000000
  70
    32
  0
VERTEX
  8
0
  5
7F6D
 10
92.8578
 20
76.0737
 30
0.000000
  70
    32
  0
VERTEX
  8
0
  5
7F6E
 10
92.8781
 20
75.9970
 30
0.000000
  70
    32
  0
VERTEX
  8
0
  5
7F6F
 10
92.8988
 20
75.9207
 30
0.000000
  70
    32
  0
VERTEX
  8
0
  5
7F70
 10
92.9199
 20
75.8447
 30
0.000000
  70
    32
  0
VERTEX
  8
0
  5
7F71
 10
92.9414
 20
75.7691
 30
0.000000
  70
    32
  0
VERTEX
  8
0
  5
7F72
 10
92.9633
 20
75.6937
 30
0.000000
  70
    32
  0
VERTEX
  8
0
  5
7F73
 10
92.9855
 20
75.6187
 30
0.000000
  70
    32
  0
VERTEX
  8
0
  5
7F74
 10
93.0082
 20
75.5441
 30
0.000000
  70
    32
  0
VERTEX
  8
0
  5
7F75
 10
93.0312
 20
75.4698
 30
0.000000
  70
    32
  0
VERTEX
  8
0
  5
7F76
 10
93.0546
 20
75.3959
 30
0.000000
  70
    32
  0
VERTEX
  8
0
  5
7F77
 10
93.0784
 20
75.3223
 30
0.000000
  70
    32
  0
VERTEX
  8
0
  5
7F78
 10
93.1026
 20
75.2491
 30
0.000000
  70
    32
  0
VERTEX
  8
0
  5
7F79
 10
93.1271
 20
75.1762
 30
0.000000
  70
    32
  0
VERTEX
  8
0
  5
7F7A
 10
93.1520
 20
75.1038
 30
0.000000
  70
    32
  0
VERTEX
  8
0
  5
7F7B
 10
93.1773
 20
75.0317
 30
0.000000
  70
    32
  0
VERTEX
  8
0
  5
7F7C
 10
93.2029
 20
74.9600
 30
0.000000
  70
    32
  0
VERTEX
  8
0
  5
7F7D
 10
93.2289
 20
74.8887
 30
0.000000
  70
    32
  0
VERTEX
  8
0
  5
7F7E
 10
93.2553
 20
74.8179
 30
0.000000
  70
    32
  0
VERTEX
  8
0
  5
7F7F
 10
93.2820
 20
74.7474
 30
0.000000
  70
    32
  0
VERTEX
  8
0
  5
7F80
 10
93.3091
 20
74.6773
 30
0.000000
  70
    32
  0
VERTEX
  8
0
  5
7F81
 10
93.3366
 20
74.6077
 30
0.000000
  70
    32
  0
VERTEX
  8
0
  5
7F82
 10
93.3644
 20
74.5385
 30
0.000000
  70
    32
  0
VERTEX
  8
0
  5
7F83
 10
93.3926
 20
74.4697
 30
0.000000
  70
    32
  0
VERTEX
  8
0
  5
7F84
 10
93.4211
 20
74.4014
 30
0.000000
  70
    32
  0
VERTEX
  8
0
  5
7F85
 10
93.4500
 20
74.3334
 30
0.000000
  70
    32
  0
VERTEX
  8
0
  5
7F86
 10
93.4792
 20
74.2660
 30
0.000000
  70
    32
  0
VERTEX
  8
0
  5
7F87
 10
93.5087
 20
74.1990
 30
0.000000
  70
    32
  0
VERTEX
  8
0
  5
7F88
 10
93.5386
 20
74.1324
 30
0.000000
  70
    32
  0
VERTEX
  8
0
  5
7F89
 10
93.5689
 20
74.0663
 30
0.000000
  70
    32
  0
VERTEX
  8
0
  5
7F8A
 10
93.5995
 20
74.0007
 30
0.000000
  70
    32
  0
VERTEX
  8
0
  5
7F8B
 10
93.6304
 20
73.9356
 30
0.000000
  70
    32
  0
VERTEX
  8
0
  5
7F8C
 10
93.6616
 20
73.8709
 30
0.000000
  70
    32
  0
VERTEX
  8
0
  5
7F8D
 10
93.6932
 20
73.8067
 30
0.000000
  70
    32
  0
VERTEX
  8
0
  5
7F8E
 10
93.7251
 20
73.7430
 30
0.000000
  70
    32
  0
VERTEX
  8
0
  5
7F8F
 10
93.7573
 20
73.6798
 30
0.000000
  70
    32
  0
VERTEX
  8
0
  5
7F90
 10
93.7899
 20
73.6171
 30
0.000000
  70
    32
  0
VERTEX
  8
0
  5
7F91
 10
93.8227
 20
73.5549
 30
0.000000
  70
    32
  0
VERTEX
  8
0
  5
7F92
 10
93.8559
 20
73.4932
 30
0.000000
  70
    32
  0
VERTEX
  8
0
  5
7F93
 10
93.8894
 20
73.4320
 30
0.000000
  70
    32
  0
VERTEX
  8
0
  5
7F94
 10
93.9232
 20
73.3714
 30
0.000000
  70
    32
  0
VERTEX
  8
0
  5
7F95
 10
93.9574
 20
73.3112
 30
0.000000
  70
    32
  0
VERTEX
  8
0
  5
7F96
 10
93.9918
 20
73.2516
 30
0.000000
  70
    32
  0
VERTEX
  8
0
  5
7F97
 10
94.0265
 20
73.1925
 30
0.000000
  70
    32
  0
VERTEX
  8
0
  5
7F98
 10
94.0616
 20
73.1340
 30
0.000000
  70
    32
  0
VERTEX
  8
0
  5
7F99
 10
94.0969
 20
73.0759
 30
0.000000
  70
    32
  0
VERTEX
  8
0
  5
7F9A
 10
94.1325
 20
73.0185
 30
0.000000
  70
    32
  0
VERTEX
  8
0
  5
7F9B
 10
94.1685
 20
72.9616
 30
0.000000
  70
    32
  0
VERTEX
  8
0
  5
7F9C
 10
94.2047
 20
72.9052
 30
0.000000
  70
    32
  0
VERTEX
  8
0
  5
7F9D
 10
94.2412
 20
72.8494
 30
0.000000
  70
    32
  0
VERTEX
  8
0
  5
7F9E
 10
94.2780
 20
72.7942
 30
0.000000
  70
    32
  0
VERTEX
  8
0
  5
7F9F
 10
94.3150
 20
72.7395
 30
0.000000
  70
    32
  0
VERTEX
  8
0
  5
7FA0
 10
94.3524
 20
72.6854
 30
0.000000
  70
    32
  0
VERTEX
  8
0
  5
7FA1
 10
94.3900
 20
72.6319
 30
0.000000
  70
    32
  0
VERTEX
  8
0
  5
7FA2
 10
94.4279
 20
72.5790
 30
0.000000
  70
    32
  0
VERTEX
  8
0
  5
7FA3
 10
94.4661
 20
72.5266
 30
0.000000
  70
    32
  0
VERTEX
  8
0
  5
7FA4
 10
94.5045
 20
72.4748
 30
0.000000
  70
    32
  0
VERTEX
  8
0
  5
7FA5
 10
94.5432
 20
72.4237
 30
0.000000
  70
    32
  0
VERTEX
  8
0
  5
7FA6
 10
94.5822
 20
72.3731
 30
0.000000
  70
    32
  0
VERTEX
  8
0
  5
7FA7
 10
94.6214
 20
72.3231
 30
0.000000
  70
    32
  0
VERTEX
  8
0
  5
7FA8
 10
94.6608
 20
72.2737
 30
0.000000
  70
    32
  0
VERTEX
  8
0
  5
7FA9
 10
94.7006
 20
72.2250
 30
0.000000
  70
    32
  0
VERTEX
  8
0
  5
7FAA
 10
94.7405
 20
72.1768
 30
0.000000
  70
    32
  0
VERTEX
  8
0
  5
7FAB
 10
94.7808
 20
72.1293
 30
0.000000
  70
    32
  0
VERTEX
  8
0
  5
7FAC
 10
94.8212
 20
72.0824
 30
0.000000
  70
    32
  0
VERTEX
  8
0
  5
7FAD
 10
94.8619
 20
72.0361
 30
0.000000
  70
    32
  0
VERTEX
  8
0
  5
7FAE
 10
94.9028
 20
71.9904
 30
0.000000
  70
    32
  0
VERTEX
  8
0
  5
7FAF
 10
94.9440
 20
71.9454
 30
0.000000
  70
    32
  0
VERTEX
  8
0
  5
7FB0
 10
94.9854
 20
71.9010
 30
0.000000
  70
    32
  0
VERTEX
  8
0
  5
7FB1
 10
95.0270
 20
71.8573
 30
0.000000
  70
    32
  0
VERTEX
  8
0
  5
7FB2
 10
95.0689
 20
71.8141
 30
0.000000
  70
    32
  0
VERTEX
  8
0
  5
7FB3
 10
95.1109
 20
71.7717
 30
0.000000
  70
    32
  0
VERTEX
  8
0
  5
7FB4
 10
95.1532
 20
71.7299
 30
0.000000
  70
    32
  0
VERTEX
  8
0
  5
7FB5
 10
95.1957
 20
71.6887
 30
0.000000
  70
    32
  0
VERTEX
  8
0
  5
7FB6
 10
95.2384
 20
71.6482
 30
0.000000
  70
    32
  0
VERTEX
  8
0
  5
7FB7
 10
95.2813
 20
71.6083
 30
0.000000
  70
    32
  0
VERTEX
  8
0
  5
7FB8
 10
95.3244
 20
71.5691
 30
0.000000
  70
    32
  0
VERTEX
  8
0
  5
7FB9
 10
95.3677
 20
71.5306
 30
0.000000
  70
    32
  0
VERTEX
  8
0
  5
7FBA
 10
95.4112
 20
71.4927
 30
0.000000
  70
    32
  0
VERTEX
  8
0
  5
7FBB
 10
95.4549
 20
71.4555
 30
0.000000
  70
    32
  0
VERTEX
  8
0
  5
7FBC
 10
95.4988
 20
71.4190
 30
0.000000
  70
    32
  0
VERTEX
  8
0
  5
7FBD
 10
95.5428
 20
71.3832
 30
0.000000
  70
    32
  0
SEQEND
  8
0
  5
7FBE
  0
LINE
  5
7C1F
  8
0
 10
91.000000000000028
 20
93.500000000000028
 30
0.0
 11
91.000000000000014
 21
70.5
 31
0.0
  0
ARC
  5
7C21
  8
0
 10
95.924101346900002
 20
71.96598187059999
 30
0.0
 40
0.6964524228389313
 50
236.80891157100001
 51
274.26143194809993
  0
LINE
  5
7C22
  8
0
 10
98.758974596200005
 20
71.271454874900002
 30
0.0
 11
95.975852961100003
 21
71.271454874900002
 31
0.0
  0
ARC
  5
7C23
  8
0
 10
98.802182850400015
 20
71.999100448499973
 30
0.0
 40
0.7289273173791142
 50
266.60171511909982
 51
302.32794136180041
  0
LINE
  5
7C24
  8
0
 10
104.625
 20
70.5
 30
0.0
 11
104.625
 21
80.0
 31
0.0
  0
LINE
  5
7C25
  8
0
 10
91.500000000000014
 20
90.283481900599995
 30
0.0
 11
91.000000000000014
 21
89.591663046600004
 31
0.0
  0
LINE
  5
7C28
  8
0
 10
75.600000000000023
 20
85.995000000000005
 30
0.0
 11
75.600000000000023
 21
74.004999999999995
 31
0.0
  0
LINE
  5
7C2A
  8
0
 10
66.995000000000005
 20
85.995000000000005
 30
0.0
 11
66.995000000000005
 21
74.004999999999995
 31
0.0
  0
LINE
  5
7C2C
  8
0
 10
74.000000000000028
 20
85.995000000000005
 30
0.0
 11
74.000000000000014
 21
74.004999999999995
 31
0.0
  0
LINE
  5
7C2E
  8
0
 10
65.0
 20
76.0
 30
0.0
 11
65.0
 21
84.0
 31
0.0
  0
LINE
  5
7C2F
  8
0
 10
98.758974596200005
 20
71.271454874900002
 30
0.0
 11
98.758974596200005
 21
93.488420960199974
 31
0.0
  0
LINE
  5
7C30
  8
0
 10
95.975852961100003
 20
93.488420960199974
 30
0.0
 11
95.975852961100003
 21
71.271454874900002
 31
0.0
  0
LINE
  5
7C31
  8
0
 10
90.275637355800015
 20
69.786255440199994
 30
0.0
 11
90.275637355800015
 21
90.21374455969999
 31
0.0
  0
LINE
  5
7C32
  8
3
 10
74.000000387399993
 20
85.150000099099998
 30
0.0
 11
66.149999752700012
 21
85.150000099099998
 31
0.0
  0
LINE
  5
7C33
  8
3
 10
66.149999752700012
 20
74.849999900900002
 30
0.0
 11
74.000000387399993
 21
74.849999900900002
 31
0.0
  0
LINE
  5
7C34
  8
3
 10
83.000000000000014
 20
85.150000099099998
 30
0.0
 11
75.599999997799998
 21
85.150000099099998
 31
0.0
  0
LINE
  5
7C35
  8
3
 10
75.599999997799998
 20
74.849999900900002
 30
0.0
 11
83.000000000000014
 21
74.849999900900002
 31
0.0
  0
ARC
  5
7C36
  8
0
 10
74.850000000000023
 20
144.80000000000001
 30
0.0
 40
0.75
 50
0.0
 51
180.0
  0
ARC
  5
7C37
  8
0
 10
74.850000000000023
 20
135.19999999999999
 30
0.0
 40
0.75
 50
180.0
 51
0.0
  0
LINE
  5
7C38
  8
0
 10
74.100000000000023
 20
144.80000000000001
 30
0.0
 11
74.100000000000023
 21
135.19999999999999
 31
0.0
  0
LINE
  5
7C39
  8
0
 10
84.046224333200016
 20
128.0
 30
0.0
 11
90.275637355800015
 21
129.78625544030001
 31
0.0
  0
LINE
  5
7C3A
  8
0
 10
90.275637355800015
 20
150.21374455980001
 30
0.0
 11
84.046224333200016
 21
152.0
 31
0.0
  0
LINE
  5
7C3B
  8
0
 10
84.046224333200016
 20
152.0
 30
0.0
 11
83.200000000000017
 21
152.0
 31
0.0
  0
LINE
  5
7C3C
  8
0
 10
83.200000000000017
 20
128.0
 30
0.0
 11
84.046224333200016
 21
128.0
 31
0.0
  0
LINE
  5
7C3D
  8
0
 10
83.200000000000017
 20
152.0
 30
0.0
 11
83.000000000000014
 21
151.7999999999999
 31
0.0
  0
LINE
  5
7C3E
  8
0
 10
83.000000000000014
 20
128.19999999999999
 30
0.0
 11
83.200000000000017
 21
128.0
 31
0.0
  0
ARC
  5
7C3F
  8
0
 10
90.000000000000014
 20
149.25248286390001
 30
0.0
 40
1.000000000000012
 50
0.0
 51
74.000000000000341
  0
ARC
  5
7C40
  8
0
 10
90.000000000000014
 20
130.7475171362
 30
0.0
 40
1.0
 50
285.99999999999972
 51
0.0
  0
LINE
  5
7C41
  8
0
 10
83.000000000000014
 20
145.995
 30
0.0
 11
75.600000000000023
 21
145.995
 31
0.0
  0
LINE
  5
7C42
  8
0
 10
75.600000000000023
 20
134.005
 30
0.0
 11
83.000000000000014
 21
134.005
 31
0.0
  0
LINE
  5
7C43
  8
0
 10
74.000000000000014
 20
145.995
 30
0.0
 11
66.995000000000005
 21
145.995
 31
0.0
  0
LINE
  5
7C44
  8
0
 10
66.995000000000005
 20
134.005
 30
0.0
 11
74.000000000000014
 21
134.005
 31
0.0
  0
LINE
  5
7C45
  8
0
 10
66.995000000000005
 20
145.995
 30
0.0
 11
65.0
 21
144.0
 31
0.0
  0
LINE
  5
7C46
  8
0
 10
65.0
 20
136.0
 30
0.0
 11
66.995000000000005
 21
134.005
 31
0.0
  0
LINE
  5
7C47
  8
0
 10
74.100000000000023
 20
144.05000000000001
 30
0.0
 11
74.000000000000014
 21
144.05000000000001
 31
0.0
  0
LINE
  5
7C48
  8
0
 10
74.000000000000014
 20
135.94999999999999
 30
0.0
 11
74.100000000000023
 21
135.94999999999999
 31
0.0
  0
LINE
  5
7C49
  8
0
 10
84.046224333200016
 20
152.0
 30
0.0
 11
84.046224333200016
 21
128.0
 31
0.0
  0
LINE
  5
7C4A
  8
0
 10
83.200000000000017
 20
152.0
 30
0.0
 11
83.200000000000017
 21
128.0
 31
0.0
  0
LINE
  5
7C4B
  8
0
 10
83.000000000000014
 20
128.19999999999999
 30
0.0
 11
83.000000000000014
 21
151.7999999999999
 31
0.0
  0
LINE
  5
7C4C
  8
0
 10
123.0
 20
149.5
 30
0.0
 11
123.0
 21
130.5
 31
0.0
  0
LINE
  5
7C4E
  8
0
 10
120.5
 20
130.5
 30
0.0
 11
120.5
 21
149.5
 31
0.0
  0
LINE
  5
7C50
  8
0
 10
102.3674137787
 20
130.5
 30
0.0
 11
99.191987298100017
 21
136.0
 31
0.0
  0
ARC
  5
7C51
  8
0
 10
98.758974596200005
 20
135.75
 30
0.0
 40
0.4999999999998715
 50
30.0
 51
90.0
  0
LINE
  5
7C52
  8
0
 10
98.758974596200005
 20
136.25
 30
0.0
 11
95.975852961100003
 21
136.25
 31
0.0
  0
ARC
  5
7C53
  8
0
 10
95.975852961100003
 20
135.75
 30
0.0
 40
0.5
 50
90.0
 51
150.0
  0
LINE
  5
7C54
  8
0
 10
95.542840259200034
 20
136.0
 30
0.0
 11
92.367413778700026
 21
130.5
 31
0.0
  0
LINE
  5
7C55
  8
0
 10
92.367413778700026
 20
130.5
 30
0.0
 11
91.500000000000014
 21
130.5
 31
0.0
  0
LINE
  5
7C56
  8
0
 10
91.500000000000014
 20
149.5
 30
0.0
 11
91.500000000000014
 21
130.5
 31
0.0
  0
LINE
  5
7C57
  8
0
 10
91.500000000000014
 20
149.5
 30
0.0
 11
92.367413778700026
 21
149.5
 31
0.0
  0
LINE
  5
7C58
  8
0
 10
95.542840259200034
 20
144.0
 30
0.0
 11
92.367413778700026
 21
149.5
 31
0.0
  0
ARC
  5
7C59
  8
0
 10
95.975852961100003
 20
144.25
 30
0.0
 40
0.5000000000000308
 50
210.0
 51
270.0
  0
LINE
  5
7C5A
  8
0
 10
98.758974596200005
 20
143.75
 30
0.0
 11
95.975852961100003
 21
143.75
 31
0.0
  0
ARC
  5
7C5B
  8
0
 10
98.758974596200005
 20
144.25
 30
0.0
 40
0.4999999999999777
 50
270.0
 51
329.99999999999989
  0
LINE
  5
7C5C
  8
0
 10
102.3674137787
 20
149.5
 30
0.0
 11
99.191987298100017
 21
144.0
 31
0.0
  0
LINE
  5
7C5D
  8
0
 10
102.3674137787
 20
149.5
 30
0.0
 11
123.0
 21
149.5
 31
0.0
  0
LINE
  5
7C5E
  8
0
 10
123.0
 20
130.5
 30
0.0
 11
102.3674137787
 21
130.5
 31
0.0
  0
LINE
  5
7C5F
  8
0
 10
91.500000000000014
 20
130.5
 30
0.0
 11
91.000000000000014
 21
130.5
 31
0.0
  0
LINE
  5
7C60
  8
0
 10
91.000000000000014
 20
130.5
 30
0.0
 11
91.000000000000014
 21
149.5
 31
0.0
  0
LINE
  5
7C61
  8
0
 10
91.000000000000014
 20
149.5
 30
0.0
 11
91.500000000000014
 21
149.5
 31
0.0
  0
LINE
  5
7C62
  8
0
 10
75.600000000000023
 20
145.995
 30
0.0
 11
75.600000000000023
 21
134.005
 31
0.0
  0
LINE
  5
7C63
  8
0
 10
66.995000000000005
 20
145.995
 30
0.0
 11
66.995000000000005
 21
134.005
 31
0.0
  0
LINE
  5
7C64
  8
0
 10
74.000000000000014
 20
145.995
 30
0.0
 11
74.000000000000014
 21
134.005
 31
0.0
  0
LINE
  5
7C65
  8
0
 10
65.0
 20
136.0
 30
0.0
 11
65.0
 21
144.0
 31
0.0
  0
LINE
  5
7C66
  8
0
 10
90.275637355800015
 20
129.78625544030001
 30
0.0
 11
90.275637355800015
 21
150.21374455980001
 31
0.0
  0
ARC
  5
7C68
  8
0
 10
185.0
 20
80.0
 30
0.0
 40
12.0
 50
142.5516397924992
 51
37.658462006207579
  0
LINE
  5
7C69
  8
0
 10
191.0
 20
80.0
 30
0.0
 11
185.0
 21
74.0
 31
0.0
  0
LINE
  5
7C6A
  8
0
 10
187.5
 20
80.0
 30
0.0
 11
191.0
 21
80.0
 31
0.0
  0
LINE
  5
7C6B
  8
0
 10
187.5
 20
89.0
 30
0.0
 11
187.5
 21
80.0
 31
0.0
  0
LINE
  5
7C6C
  8
0
 10
182.5
 20
89.0
 30
0.0
 11
187.5
 21
89.0
 31
0.0
  0
LINE
  5
7C6D
  8
0
 10
182.5
 20
80.0
 30
0.0
 11
182.5
 21
89.0
 31
0.0
  0
LINE
  5
7C6E
  8
0
 10
179.0
 20
80.0
 30
0.0
 11
182.5
 21
80.0
 31
0.0
  0
LINE
  5
7C6F
  8
0
 10
185.0
 20
74.0
 30
0.0
 11
179.0
 21
80.0
 31
0.0
  0
LINE
  5
7C70
  8
0
 10
175.5
 20
80.0
 30
0.0
 11
175.5
 21
90.283481900601601
 31
0.0
  0
ARC
  5
7C71
  8
0
 10
185.0
 20
80.0
 30
0.0
 40
11.50000000000003
 50
34.301152756801088
 51
145.69884724319891
  0
LINE
  5
7C72
  8
0
 10
194.5
 20
90.283481900601572
 30
0.0
 11
194.5
 21
80.0
 31
0.0
  0
ARC
  5
7C73
  8
0
 10
185.0
 20
80.0
 30
0.0
 40
9.5000000000000266
 50
180.0
 51
0.0
  0
ARC
  5
7C75
  8
0
 10
185.0
 20
80.0
 30
0.0
 40
14.00000000000002
 50
47.267889957399611
 51
132.7321100426004
  0
ARC
  5
7C77
  8
0
 10
185.0
 20
80.0
 30
0.0
 40
10.213744559765111
 50
158.45340494409919
 51
21.54659505593137
  0
LINE
  5
7C79
  8
3
 10
74.000000387399993
 20
145.1500000991
 30
0.0
 11
66.149999752700012
 21
145.1500000991
 31
0.0
  0
LINE
  5
7C7A
  8
3
 10
66.149999752700012
 20
134.8499999009
 30
0.0
 11
74.000000387399993
 21
134.8499999009
 31
0.0
  0
LINE
  5
7C7B
  8
3
 10
83.000000000000014
 20
145.1500000991
 30
0.0
 11
75.599999997799998
 21
145.1500000991
 31
0.0
  0
LINE
  5
7C7C
  8
3
 10
75.599999997799998
 20
134.8499999009
 30
0.0
 11
83.000000000000014
 21
134.8499999009
 31
0.0
  0
LINE
  5
7C87
  8
1
 10
60.0
 20
80.0
 30
0.0
 11
128.0
 21
80.0
 31
0.0
  0
LINE
  5
7C88
  8
1
 10
60.0
 20
140.0
 30
0.0
 11
128.0
 21
140.0
 31
0.0
  0
LINE
  5
7C91
  8
1
 10
185.0
 20
99.000000000000028
 30
0.0
 11
185.02200179658371
 21
63.000020169977489
 31
0.0
  0
LINE
  5
7C92
  8
1
 10
168.0
 20
80.0
 30
0.0
 11
202.0
 21
80.0
 31
0.0
  0
ENDSEC
  0
EOF
